ISO-10303-21;
HEADER;
FILE_DESCRIPTION (( 'STEP AP203' ),
    '1' );
FILE_NAME ('3D_GR1392_DN15x1.5_18380050.STEP',
    '2024-09-21T10:10:03',
    ( '' ),
    ( '' ),
    'SwSTEP 2.0',
    'SolidWorks 2024',
    '' );
FILE_SCHEMA (( 'CONFIG_CONTROL_DESIGN' ));
ENDSEC;

DATA;
#1 = CARTESIAN_POINT ( 'NONE',  ( 7.000000000000588862, 0.000000000000000000, 5.500000000000019540 ) ) ;
#2 = CARTESIAN_POINT ( 'NONE',  ( 7.000000000000588862, 0.000000000000000000, 0.000000000000000000 ) ) ;
#3 = CC_DESIGN_SECURITY_CLASSIFICATION ( #148, ( #271 ) ) ;
#4 = EDGE_CURVE ( 'NONE', #144, #118, #241, .T. ) ;
#5 = APPROVAL_STATUS ( 'not_yet_approved' ) ;
#6 = DIRECTION ( 'NONE',  ( -0.000000000000000000, 0.000000000000000000, 1.000000000000000000 ) ) ;
#7 = CARTESIAN_POINT ( 'NONE',  ( -154.8395502972293230, 0.000000000000000000, 6.500000000000018652 ) ) ;
#8 = PERSON_AND_ORGANIZATION_ROLE ( 'classification_officer' ) ;
#9 = CIRCLE ( 'NONE', #332, 8.000000000000019540 ) ;
#10 = DIRECTION ( 'NONE',  ( -1.000000000000000000, -0.000000000000000000, -0.000000000000000000 ) ) ;
#11 = AXIS2_PLACEMENT_3D ( 'NONE', #2, #294, #82 ) ;
#12 = SECURITY_CLASSIFICATION_LEVEL ( 'unclassified' ) ;
#13 = UNCERTAINTY_MEASURE_WITH_UNIT (LENGTH_MEASURE( 1.000000000000000082E-05 ), #281, 'distance_accuracy_value', 'NONE');
#14 = EDGE_LOOP ( 'NONE', ( #207, #218, #308, #227 ) ) ;
#15 = CIRCLE ( 'NONE', #256, 8.000000000000019540 ) ;
#16 = VERTEX_POINT ( 'NONE', #232 ) ;
#17 = EDGE_CURVE ( 'NONE', #147, #16, #23, .T. ) ;
#18 = LINE ( 'NONE', #228, #286 ) ;
#19 = ORIENTED_EDGE ( 'NONE', *, *, #173, .F. ) ;
#20 = DIRECTION ( 'NONE',  ( 0.000000000000000000, 0.000000000000000000, 1.000000000000000000 ) ) ;
#21 = ORIENTED_EDGE ( 'NONE', *, *, #101, .T. ) ;
#22 = ORIENTED_EDGE ( 'NONE', *, *, #313, .F. ) ;
#23 = CIRCLE ( 'NONE', #203, 6.500000000000018652 ) ;
#24 = ORIENTED_EDGE ( 'NONE', *, *, #254, .T. ) ;
#25 = DIRECTION ( 'NONE',  ( -0.7071067811865482389, 0.000000000000000000, 0.7071067811865469066 ) ) ;
#26 = DIRECTION ( 'NONE',  ( 0.000000000000000000, 0.000000000000000000, 1.000000000000000000 ) ) ;
#27 = CIRCLE ( 'NONE', #86, 8.000000000000021316 ) ;
#28 = EDGE_CURVE ( 'NONE', #131, #152, #277, .T. ) ;
#29 = CARTESIAN_POINT ( 'NONE',  ( 6.000000000000587974, 7.960204194457819143E-16, -6.500000000000018652 ) ) ;
#30 = CARTESIAN_POINT ( 'NONE',  ( 7.000000000000588862, 6.735557395310466675E-16, -5.500000000000019540 ) ) ;
#31 = CARTESIAN_POINT ( 'NONE',  ( 0.000000000000000000, 0.000000000000000000, 0.000000000000000000 ) ) ;
#32 = ADVANCED_FACE ( 'NONE', ( #270 ), #319, .T. ) ;
#33 = CC_DESIGN_APPROVAL ( #164, ( #249 ) ) ;
#34 =( NAMED_UNIT ( * ) PLANE_ANGLE_UNIT ( ) SI_UNIT ( $, .RADIAN. ) );
#35 = AXIS2_PLACEMENT_3D ( 'NONE', #246, #95, #304 ) ;
#36 = PLANE ( 'NONE',  #69 ) ;
#37 = DATE_AND_TIME ( #56, #324 ) ;
#38 = PLANE ( 'NONE',  #165 ) ;
#39 = DIRECTION ( 'NONE',  ( -1.000000000000000000, -0.000000000000000000, -0.000000000000000000 ) ) ;
#40 = ADVANCED_FACE ( 'NONE', ( #106 ), #155, .T. ) ;
#41 = ORIENTED_EDGE ( 'NONE', *, *, #197, .F. ) ;
#42 = CC_DESIGN_DATE_AND_TIME_ASSIGNMENT ( #91, #62, ( #148 ) ) ;
#43 = LINE ( 'NONE', #337, #135 ) ;
#44 = AXIS2_PLACEMENT_3D ( 'NONE', #217, #145, #258 ) ;
#45 = EDGE_LOOP ( 'NONE', ( #19, #85 ) ) ;
#46 = CARTESIAN_POINT ( 'NONE',  ( 7.000000000000588862, 0.000000000000000000, 0.000000000000000000 ) ) ;
#47 = ORIENTED_EDGE ( 'NONE', *, *, #254, .F. ) ;
#48 = ADVANCED_FACE ( 'NONE', ( #102 ), #212, .T. ) ;
#49 = CARTESIAN_POINT ( 'NONE',  ( -2.775557561562891351E-14, 0.000000000000000000, 0.000000000000000000 ) ) ;
#50 =( GEOMETRIC_REPRESENTATION_CONTEXT ( 3 ) GLOBAL_UNCERTAINTY_ASSIGNED_CONTEXT ( ( #13 ) ) GLOBAL_UNIT_ASSIGNED_CONTEXT ( ( #281, #34, #167 ) ) REPRESENTATION_CONTEXT ( 'NONE', 'WORKASPACE' ) );
#51 = ORIENTED_EDGE ( 'NONE', *, *, #4, .T. ) ;
#52 = DIRECTION ( 'NONE',  ( 0.000000000000000000, 0.000000000000000000, 1.000000000000000000 ) ) ;
#53 = EDGE_CURVE ( 'NONE', #152, #144, #266, .T. ) ;
#54 = AXIS2_PLACEMENT_3D ( 'NONE', #134, #295, #346 ) ;
#55 = CARTESIAN_POINT ( 'NONE',  ( -154.8395502972293230, 9.797174393178851295E-16, -8.000000000000021316 ) ) ;
#56 = CALENDAR_DATE ( 2024, 21, 9 ) ;
#57 = AXIS2_PLACEMENT_3D ( 'NONE', #58, #59, #285 ) ;
#58 = CARTESIAN_POINT ( 'NONE',  ( 7.000000000000588862, 0.000000000000000000, 0.000000000000000000 ) ) ;
#59 = DIRECTION ( 'NONE',  ( -1.000000000000000000, -0.000000000000000000, -0.000000000000000000 ) ) ;
#60 = APPROVAL_PERSON_ORGANIZATION ( #83, #112, #327 ) ;
#61 = PRODUCT_RELATED_PRODUCT_CATEGORY ( 'detail', '', ( #272 ) ) ;
#62 = DATE_TIME_ROLE ( 'classification_date' ) ;
#63 = CC_DESIGN_PERSON_AND_ORGANIZATION_ASSIGNMENT ( #350, #278, ( #272 ) ) ;
#64 = PERSON_AND_ORGANIZATION_ROLE ( 'design_supplier' ) ;
#65 = DIRECTION ( 'NONE',  ( 1.000000000000000000, 0.000000000000000000, 0.000000000000000000 ) ) ;
#66 = CC_DESIGN_APPROVAL ( #126, ( #148 ) ) ;
#67 = DIRECTION ( 'NONE',  ( -1.000000000000000000, -0.000000000000000000, -0.000000000000000000 ) ) ;
#68 = FACE_OUTER_BOUND ( 'NONE', #151, .T. ) ;
#69 = AXIS2_PLACEMENT_3D ( 'NONE', #168, #119, #303 ) ;
#70 = ORIENTED_EDGE ( 'NONE', *, *, #53, .T. ) ;
#71 = ORIENTED_EDGE ( 'NONE', *, *, #237, .F. ) ;
#72 = VERTEX_POINT ( 'NONE', #133 ) ;
#73 = VERTEX_POINT ( 'NONE', #159 ) ;
#74 = ADVANCED_FACE ( 'NONE', ( #105 ), #236, .T. ) ;
#75 = CARTESIAN_POINT ( 'NONE',  ( 12.99999999999990763, 0.000000000000000000, 0.000000000000000000 ) ) ;
#76 = DIRECTION ( 'NONE',  ( -0.7071067811865482389, 8.659560562354925463E-17, -0.7071067811865469066 ) ) ;
#77 = APPLICATION_PROTOCOL_DEFINITION ( 'international standard', 'config_control_design', 1994, #219 ) ;
#78 = DIRECTION ( 'NONE',  ( -1.000000000000000000, -0.000000000000000000, -0.000000000000000000 ) ) ;
#79 = EDGE_CURVE ( 'NONE', #72, #259, #314, .T. ) ;
#80 = CARTESIAN_POINT ( 'NONE',  ( 7.000000000000588862, 7.347880794884142416E-16, -5.500000000000019540 ) ) ;
#81 = APPROVAL_STATUS ( 'not_yet_approved' ) ;
#82 = DIRECTION ( 'NONE',  ( 0.000000000000000000, 0.000000000000000000, 1.000000000000000000 ) ) ;
#83 = PERSON_AND_ORGANIZATION ( #161, #240 ) ;
#84 = CARTESIAN_POINT ( 'NONE',  ( -2.000000000000001776, -8.000000000000019540, -9.797174393178849323E-16 ) ) ;
#85 = ORIENTED_EDGE ( 'NONE', *, *, #107, .F. ) ;
#86 = AXIS2_PLACEMENT_3D ( 'NONE', #329, #289, #20 ) ;
#87 = CARTESIAN_POINT ( 'NONE',  ( -2.000000000000001776, 8.000000000000019540, 0.000000000000000000 ) ) ;
#88 = PERSON_AND_ORGANIZATION ( #161, #240 ) ;
#89 = EDGE_CURVE ( 'NONE', #16, #147, #120, .T. ) ;
#90 = AXIS2_PLACEMENT_3D ( 'NONE', #268, #274, #26 ) ;
#91 = DATE_AND_TIME ( #257, #265 ) ;
#92 = DIRECTION ( 'NONE',  ( -1.000000000000000000, -0.000000000000000000, -0.000000000000000000 ) ) ;
#93 = ORIENTED_EDGE ( 'NONE', *, *, #267, .F. ) ;
#94 = MANIFOLD_SOLID_BREP ( 'Rotation1', #110 ) ;
#95 = DIRECTION ( 'NONE',  ( -1.000000000000000000, -0.000000000000000000, -0.000000000000000000 ) ) ;
#96 = ORIENTED_EDGE ( 'NONE', *, *, #169, .F. ) ;
#97 = CIRCLE ( 'NONE', #175, 5.500000000000019540 ) ;
#98 = EDGE_LOOP ( 'NONE', ( #287, #343 ) ) ;
#99 = ORIENTED_EDGE ( 'NONE', *, *, #237, .T. ) ;
#100 = VERTEX_POINT ( 'NONE', #239 ) ;
#101 = EDGE_CURVE ( 'NONE', #131, #118, #322, .T. ) ;
#102 = FACE_OUTER_BOUND ( 'NONE', #180, .T. ) ;
#103 = APPROVAL_PERSON_ORGANIZATION ( #182, #164, #185 ) ;
#104 = CIRCLE ( 'NONE', #44, 16.99999999999992895 ) ;
#105 = FACE_OUTER_BOUND ( 'NONE', #201, .T. ) ;
#106 = FACE_OUTER_BOUND ( 'NONE', #345, .T. ) ;
#107 = EDGE_CURVE ( 'NONE', #100, #261, #9, .T. ) ;
#108 = DATE_AND_TIME ( #243, #347 ) ;
#109 = DIRECTION ( 'NONE',  ( 0.000000000000000000, 0.000000000000000000, 1.000000000000000000 ) ) ;
#110 = CLOSED_SHELL ( 'NONE', ( #293, #48, #344, #40, #116, #74, #149, #32, #231, #132 ) ) ;
#111 = CARTESIAN_POINT ( 'NONE',  ( 6.000000000000587974, 0.000000000000000000, 0.000000000000000000 ) ) ;
#112 = APPROVAL ( #5, 'UNSPECIFIED' ) ;
#113 = DIRECTION ( 'NONE',  ( -1.000000000000000000, -0.000000000000000000, -0.000000000000000000 ) ) ;
#114 = CIRCLE ( 'NONE', #35, 8.000000000000021316 ) ;
#115 = CALENDAR_DATE ( 2024, 21, 9 ) ;
#116 = ADVANCED_FACE ( 'NONE', ( #181 ), #299, .T. ) ;
#117 = PERSON_AND_ORGANIZATION ( #161, #240 ) ;
#118 = VERTEX_POINT ( 'NONE', #29 ) ;
#119 = DIRECTION ( 'NONE',  ( -1.000000000000000000, 0.000000000000000000, -0.000000000000000000 ) ) ;
#120 = CIRCLE ( 'NONE', #251, 6.500000000000018652 ) ;
#121 = CARTESIAN_POINT ( 'NONE',  ( 6.000000000000587974, 0.000000000000000000, 0.000000000000000000 ) ) ;
#122 = APPROVAL_STATUS ( 'not_yet_approved' ) ;
#123 = CARTESIAN_POINT ( 'NONE',  ( 6.000000000000587974, 0.000000000000000000, 6.500000000000018652 ) ) ;
#124 = EDGE_LOOP ( 'NONE', ( #291, #21, #290, #178 ) ) ;
#125 = CARTESIAN_POINT ( 'NONE',  ( -154.8395502972293230, 0.000000000000000000, 0.000000000000000000 ) ) ;
#126 = APPROVAL ( #122, 'UNSPECIFIED' ) ;
#127 = ORIENTED_EDGE ( 'NONE', *, *, #262, .F. ) ;
#128 = AXIS2_PLACEMENT_3D ( 'NONE', #125, #205, #130 ) ;
#129 = VERTEX_POINT ( 'NONE', #215 ) ;
#130 = DIRECTION ( 'NONE',  ( 0.000000000000000000, 0.000000000000000000, 1.000000000000000000 ) ) ;
#131 = VERTEX_POINT ( 'NONE', #80 ) ;
#132 = ADVANCED_FACE ( 'NONE', ( #166 ), #36, .F. ) ;
#133 = CARTESIAN_POINT ( 'NONE',  ( -2.000000000000001776, 9.797174393178851295E-16, -8.000000000000021316 ) ) ;
#134 = CARTESIAN_POINT ( 'NONE',  ( -154.8395502972293230, 0.000000000000000000, 0.000000000000000000 ) ) ;
#135 = VECTOR ( 'NONE', #187, 1000.000000000000000 ) ;
#136 = DIRECTION ( 'NONE',  ( 0.000000000000000000, 1.000000000000000000, 0.000000000000000000 ) ) ;
#137 = DATE_TIME_ROLE ( 'creation_date' ) ;
#138 = DIRECTION ( 'NONE',  ( -1.000000000000000000, -0.000000000000000000, -0.000000000000000000 ) ) ;
#139 = CALENDAR_DATE ( 2024, 21, 9 ) ;
#140 = CARTESIAN_POINT ( 'NONE',  ( -9.600797103766178017E-15, 6.500000000000018652, 0.000000000000000000 ) ) ;
#141 = DIRECTION ( 'NONE',  ( 1.000000000000000000, 0.000000000000000000, 0.000000000000000000 ) ) ;
#142 = CARTESIAN_POINT ( 'NONE',  ( -2.000000000000001776, 0.000000000000000000, 0.000000000000000000 ) ) ;
#143 = APPROVAL_DATE_TIME ( #37, #112 ) ;
#144 = VERTEX_POINT ( 'NONE', #123 ) ;
#145 = DIRECTION ( 'NONE',  ( 0.000000000000000000, 1.224646799147353207E-16, -1.000000000000000000 ) ) ;
#146 = AXIS2_PLACEMENT_3D ( 'NONE', #156, #325, #269 ) ;
#147 = VERTEX_POINT ( 'NONE', #282 ) ;
#148 = SECURITY_CLASSIFICATION ( '', '', #12 ) ;
#149 = ADVANCED_FACE ( 'NONE', ( #200, #230 ), #38, .F. ) ;
#150 = CYLINDRICAL_SURFACE ( 'NONE', #128, 8.000000000000021316 ) ;
#151 = EDGE_LOOP ( 'NONE', ( #206, #24, #235, #41, #253 ) ) ;
#152 = VERTEX_POINT ( 'NONE', #260 ) ;
#153 = DIRECTION ( 'NONE',  ( 0.000000000000000000, 0.000000000000000000, 1.000000000000000000 ) ) ;
#154 = CARTESIAN_POINT ( 'NONE',  ( -154.8395502972293230, 0.000000000000000000, 0.000000000000000000 ) ) ;
#155 = SPHERICAL_SURFACE ( 'NONE', #298, 16.99999999999992895 ) ;
#156 = CARTESIAN_POINT ( 'NONE',  ( 12.99999999999990763, 0.000000000000000000, 0.000000000000000000 ) ) ;
#157 = AXIS2_PLACEMENT_3D ( 'NONE', #111, #226, #220 ) ;
#158 = AXIS2_PLACEMENT_3D ( 'NONE', #31, #331, #141 ) ;
#159 = CARTESIAN_POINT ( 'NONE',  ( -2.000000000000001776, 0.000000000000000000, 8.000000000000021316 ) ) ;
#160 = PERSON_AND_ORGANIZATION ( #161, #240 ) ;
#161 = PERSON ( 'UNSPECIFIED', 'UNSPECIFIED', 'UNSPECIFIED', ('UNSPECIFIED'), ('UNSPECIFIED'), ('UNSPECIFIED') ) ;
#162 = DATE_AND_TIME ( #139, #222 ) ;
#163 = CARTESIAN_POINT ( 'NONE',  ( 0.000000000000000000, 0.000000000000000000, 0.000000000000000000 ) ) ;
#164 = APPROVAL ( #81, 'UNSPECIFIED' ) ;
#165 = AXIS2_PLACEMENT_3D ( 'NONE', #140, #341, #196 ) ;
#166 = FACE_OUTER_BOUND ( 'NONE', #198, .T. ) ;
#167 =( NAMED_UNIT ( * ) SI_UNIT ( $, .STERADIAN. ) SOLID_ANGLE_UNIT ( ) );
#168 = CARTESIAN_POINT ( 'NONE',  ( 7.000000000000299316, 0.000000000000000000, 0.000000000000000000 ) ) ;
#169 = EDGE_CURVE ( 'NONE', #152, #131, #97, .T. ) ;
#170 = AXIS2_PLACEMENT_3D ( 'NONE', #121, #67, #172 ) ;
#171 = DIRECTION ( 'NONE',  ( 0.000000000000000000, 0.000000000000000000, 1.000000000000000000 ) ) ;
#172 = DIRECTION ( 'NONE',  ( 0.000000000000000000, 0.000000000000000000, 1.000000000000000000 ) ) ;
#173 = EDGE_CURVE ( 'NONE', #261, #100, #15, .T. ) ;
#174 = LINE ( 'NONE', #55, #191 ) ;
#175 = AXIS2_PLACEMENT_3D ( 'NONE', #250, #10, #171 ) ;
#176 = EDGE_LOOP ( 'NONE', ( #71, #292, #247, #234 ) ) ;
#177 = ORIENTED_EDGE ( 'NONE', *, *, #296, .T. ) ;
#178 = ORIENTED_EDGE ( 'NONE', *, *, #53, .F. ) ;
#179 = CONICAL_SURFACE ( 'NONE', #302, 5.500000000000019540, 0.7853981633974473908 ) ;
#180 = EDGE_LOOP ( 'NONE', ( #51, #99, #315, #127 ) ) ;
#181 = FACE_OUTER_BOUND ( 'NONE', #14, .T. ) ;
#182 = PERSON_AND_ORGANIZATION ( #161, #240 ) ;
#183 = CC_DESIGN_APPROVAL ( #112, ( #271 ) ) ;
#184 = CARTESIAN_POINT ( 'NONE',  ( 0.000000000000000000, 0.000000000000000000, 0.000000000000000000 ) ) ;
#185 = APPROVAL_ROLE ( '' ) ;
#186 = CC_DESIGN_PERSON_AND_ORGANIZATION_ASSIGNMENT ( #160, #273, ( #249 ) ) ;
#187 = DIRECTION ( 'NONE',  ( -1.000000000000000000, -0.000000000000000000, -0.000000000000000000 ) ) ;
#188 = COORDINATED_UNIVERSAL_TIME_OFFSET ( 1, 0, .AHEAD. ) ;
#189 = DIRECTION ( 'NONE',  ( -1.000000000000000000, -0.000000000000000000, -0.000000000000000000 ) ) ;
#190 = ORIENTED_EDGE ( 'NONE', *, *, #28, .F. ) ;
#191 = VECTOR ( 'NONE', #92, 1000.000000000000000 ) ;
#192 = COORDINATED_UNIVERSAL_TIME_OFFSET ( 1, 0, .AHEAD. ) ;
#193 = FACE_OUTER_BOUND ( 'NONE', #124, .T. ) ;
#194 = DESIGN_CONTEXT ( 'detailed design', #219, 'design' ) ;
#195 = AXIS2_PLACEMENT_3D ( 'NONE', #154, #349, #52 ) ;
#196 = DIRECTION ( 'NONE',  ( -0.000000000000000000, 0.000000000000000000, 1.000000000000000000 ) ) ;
#197 = EDGE_CURVE ( 'NONE', #73, #229, #238, .T. ) ;
#198 = EDGE_LOOP ( 'NONE', ( #96, #190 ) ) ;
#199 = PERSON_AND_ORGANIZATION ( #161, #240 ) ;
#200 = FACE_OUTER_BOUND ( 'NONE', #45, .T. ) ;
#201 = EDGE_LOOP ( 'NONE', ( #47, #340, #255, #312, #204 ) ) ;
#202 = AXIS2_PLACEMENT_3D ( 'NONE', #351, #242, #210 ) ;
#203 = AXIS2_PLACEMENT_3D ( 'NONE', #49, #263, #153 ) ;
#204 = ORIENTED_EDGE ( 'NONE', *, *, #79, .F. ) ;
#205 = DIRECTION ( 'NONE',  ( -1.000000000000000000, -0.000000000000000000, -0.000000000000000000 ) ) ;
#206 = ORIENTED_EDGE ( 'NONE', *, *, #173, .T. ) ;
#207 = ORIENTED_EDGE ( 'NONE', *, *, #323, .F. ) ;
#208 = ADVANCED_BREP_SHAPE_REPRESENTATION ( '3D_GR1392_DN15x1.5_18380050', ( #94, #158 ), #50 ) ;
#209 = CIRCLE ( 'NONE', #157, 6.500000000000018652 ) ;
#210 = DIRECTION ( 'NONE',  ( 0.000000000000000000, 0.000000000000000000, 1.000000000000000000 ) ) ;
#211 = CC_DESIGN_PERSON_AND_ORGANIZATION_ASSIGNMENT ( #117, #8, ( #148 ) ) ;
#212 = CYLINDRICAL_SURFACE ( 'NONE', #90, 6.500000000000018652 ) ;
#213 = DIRECTION ( 'NONE',  ( 0.000000000000000000, 0.000000000000000000, 1.000000000000000000 ) ) ;
#214 = APPROVAL_DATE_TIME ( #108, #164 ) ;
#215 = CARTESIAN_POINT ( 'NONE',  ( -4.000000000000021316, 1.040949779275245801E-15, 0.000000000000000000 ) ) ;
#216 = EDGE_CURVE ( 'NONE', #259, #73, #27, .T. ) ;
#217 = CARTESIAN_POINT ( 'NONE',  ( 12.99999999999990763, 0.000000000000000000, 0.000000000000000000 ) ) ;
#218 = ORIENTED_EDGE ( 'NONE', *, *, #216, .T. ) ;
#219 = APPLICATION_CONTEXT ( 'configuration controlled 3d designs of mechanical parts and assemblies' ) ;
#220 = DIRECTION ( 'NONE',  ( 0.000000000000000000, 0.000000000000000000, 1.000000000000000000 ) ) ;
#221 = PERSON_AND_ORGANIZATION ( #161, #240 ) ;
#222 = LOCAL_TIME ( 12, 10, 3.000000000000000000, #300 ) ;
#223 = COORDINATED_UNIVERSAL_TIME_OFFSET ( 1, 0, .AHEAD. ) ;
#224 = CIRCLE ( 'NONE', #348, 16.99999999999992895 ) ;
#225 = CC_DESIGN_PERSON_AND_ORGANIZATION_ASSIGNMENT ( #88, #64, ( #271 ) ) ;
#226 = DIRECTION ( 'NONE',  ( -1.000000000000000000, -0.000000000000000000, -0.000000000000000000 ) ) ;
#227 = ORIENTED_EDGE ( 'NONE', *, *, #313, .T. ) ;
#228 = CARTESIAN_POINT ( 'NONE',  ( -154.8395502972293230, 0.000000000000000000, 8.000000000000021316 ) ) ;
#229 = VERTEX_POINT ( 'NONE', #87 ) ;
#230 = FACE_BOUND ( 'NONE', #98, .T. ) ;
#231 = ADVANCED_FACE ( 'NONE', ( #339 ), #288, .T. ) ;
#232 = CARTESIAN_POINT ( 'NONE',  ( -2.775557561562891351E-14, 7.960204194457819143E-16, -6.500000000000018652 ) ) ;
#233 = PRODUCT_DEFINITION_SHAPE ( 'NONE', 'NONE',  #249 ) ;
#234 = ORIENTED_EDGE ( 'NONE', *, *, #89, .F. ) ;
#235 = ORIENTED_EDGE ( 'NONE', *, *, #296, .F. ) ;
#236 = CYLINDRICAL_SURFACE ( 'NONE', #54, 8.000000000000021316 ) ;
#237 = EDGE_CURVE ( 'NONE', #118, #16, #43, .T. ) ;
#238 = CIRCLE ( 'NONE', #275, 8.000000000000021316 ) ;
#239 = CARTESIAN_POINT ( 'NONE',  ( 0.000000000000000000, 9.797174393178849323E-16, -8.000000000000019540 ) ) ;
#240 = ORGANIZATION ( 'UNSPECIFIED', 'UNSPECIFIED', '' ) ;
#241 = CIRCLE ( 'NONE', #170, 6.500000000000018652 ) ;
#242 = DIRECTION ( 'NONE',  ( -1.000000000000000000, -0.000000000000000000, -0.000000000000000000 ) ) ;
#243 = CALENDAR_DATE ( 2024, 21, 9 ) ;
#244 = DIRECTION ( 'NONE',  ( -0.000000000000000000, 0.000000000000000000, -1.000000000000000000 ) ) ;
#245 = VECTOR ( 'NONE', #25, 1000.000000000000000 ) ;
#246 = CARTESIAN_POINT ( 'NONE',  ( -2.000000000000001776, 0.000000000000000000, 0.000000000000000000 ) ) ;
#247 = ORIENTED_EDGE ( 'NONE', *, *, #262, .T. ) ;
#248 = LINE ( 'NONE', #7, #336 ) ;
#249 = PRODUCT_DEFINITION ( 'UNKNOWN', '', #271, #194 ) ;
#250 = CARTESIAN_POINT ( 'NONE',  ( 7.000000000000588862, 0.000000000000000000, 0.000000000000000000 ) ) ;
#251 = AXIS2_PLACEMENT_3D ( 'NONE', #320, #78, #213 ) ;
#252 = SHAPE_DEFINITION_REPRESENTATION ( #233, #208 ) ;
#253 = ORIENTED_EDGE ( 'NONE', *, *, #328, .F. ) ;
#254 = EDGE_CURVE ( 'NONE', #100, #72, #174, .T. ) ;
#255 = ORIENTED_EDGE ( 'NONE', *, *, #328, .T. ) ;
#256 = AXIS2_PLACEMENT_3D ( 'NONE', #163, #39, #301 ) ;
#257 = CALENDAR_DATE ( 2024, 21, 9 ) ;
#258 = DIRECTION ( 'NONE',  ( 0.000000000000000000, 1.000000000000000000, 1.224646799147353207E-16 ) ) ;
#259 = VERTEX_POINT ( 'NONE', #84 ) ;
#260 = CARTESIAN_POINT ( 'NONE',  ( 7.000000000000588862, 0.000000000000000000, 5.500000000000019540 ) ) ;
#261 = VERTEX_POINT ( 'NONE', #276 ) ;
#262 = EDGE_CURVE ( 'NONE', #144, #147, #248, .T. ) ;
#263 = DIRECTION ( 'NONE',  ( -1.000000000000000000, -0.000000000000000000, -0.000000000000000000 ) ) ;
#264 = ORIENTED_EDGE ( 'NONE', *, *, #323, .T. ) ;
#265 = LOCAL_TIME ( 12, 10, 3.000000000000000000, #223 ) ;
#266 = LINE ( 'NONE', #1, #245 ) ;
#267 = EDGE_CURVE ( 'NONE', #118, #144, #209, .T. ) ;
#268 = CARTESIAN_POINT ( 'NONE',  ( -154.8395502972293230, 0.000000000000000000, 0.000000000000000000 ) ) ;
#269 = DIRECTION ( 'NONE',  ( 0.000000000000000000, 1.000000000000000000, 0.000000000000000000 ) ) ;
#270 = FACE_OUTER_BOUND ( 'NONE', #176, .T. ) ;
#271 = PRODUCT_DEFINITION_FORMATION_WITH_SPECIFIED_SOURCE ( 'ANY', '', #272, .NOT_KNOWN. ) ;
#272 = PRODUCT ( '3D_GR1392_DN15x1.5_18380050', '3D_GR1392_DN15x1.5_18380050', '', ( #321 ) ) ;
#273 = PERSON_AND_ORGANIZATION_ROLE ( 'creator' ) ;
#274 = DIRECTION ( 'NONE',  ( -1.000000000000000000, -0.000000000000000000, -0.000000000000000000 ) ) ;
#275 = AXIS2_PLACEMENT_3D ( 'NONE', #142, #189, #333 ) ;
#276 = CARTESIAN_POINT ( 'NONE',  ( 0.000000000000000000, 0.000000000000000000, 8.000000000000019540 ) ) ;
#277 = CIRCLE ( 'NONE', #11, 5.500000000000019540 ) ;
#278 = PERSON_AND_ORGANIZATION_ROLE ( 'design_owner' ) ;
#279 = DIRECTION ( 'NONE',  ( 0.000000000000000000, 0.000000000000000000, 1.000000000000000000 ) ) ;
#280 = CC_DESIGN_PERSON_AND_ORGANIZATION_ASSIGNMENT ( #199, #283, ( #271 ) ) ;
#281 =( LENGTH_UNIT ( ) NAMED_UNIT ( * ) SI_UNIT ( .MILLI., .METRE. ) );
#282 = CARTESIAN_POINT ( 'NONE',  ( -2.775557561562891351E-14, 0.000000000000000000, 6.500000000000018652 ) ) ;
#283 = PERSON_AND_ORGANIZATION_ROLE ( 'creator' ) ;
#284 = DATE_AND_TIME ( #115, #311 ) ;
#285 = DIRECTION ( 'NONE',  ( 0.000000000000000000, 0.000000000000000000, 1.000000000000000000 ) ) ;
#286 = VECTOR ( 'NONE', #310, 1000.000000000000000 ) ;
#287 = ORIENTED_EDGE ( 'NONE', *, *, #17, .T. ) ;
#288 = CONICAL_SURFACE ( 'NONE', #57, 5.500000000000019540, 0.7853981633974473908 ) ;
#289 = DIRECTION ( 'NONE',  ( -1.000000000000000000, -0.000000000000000000, -0.000000000000000000 ) ) ;
#290 = ORIENTED_EDGE ( 'NONE', *, *, #4, .F. ) ;
#291 = ORIENTED_EDGE ( 'NONE', *, *, #169, .T. ) ;
#292 = ORIENTED_EDGE ( 'NONE', *, *, #267, .T. ) ;
#293 = ADVANCED_FACE ( 'NONE', ( #193 ), #179, .T. ) ;
#294 = DIRECTION ( 'NONE',  ( -1.000000000000000000, -0.000000000000000000, -0.000000000000000000 ) ) ;
#295 = DIRECTION ( 'NONE',  ( -1.000000000000000000, -0.000000000000000000, -0.000000000000000000 ) ) ;
#296 = EDGE_CURVE ( 'NONE', #229, #72, #114, .T. ) ;
#297 = DIRECTION ( 'NONE',  ( -1.000000000000000000, -0.000000000000000000, -0.000000000000000000 ) ) ;
#298 = AXIS2_PLACEMENT_3D ( 'NONE', #75, #244, #136 ) ;
#299 = SPHERICAL_SURFACE ( 'NONE', #146, 16.99999999999992895 ) ;
#300 = COORDINATED_UNIVERSAL_TIME_OFFSET ( 1, 0, .AHEAD. ) ;
#301 = DIRECTION ( 'NONE',  ( 0.000000000000000000, 0.000000000000000000, 1.000000000000000000 ) ) ;
#302 = AXIS2_PLACEMENT_3D ( 'NONE', #46, #138, #279 ) ;
#303 = DIRECTION ( 'NONE',  ( -0.000000000000000000, 0.000000000000000000, 1.000000000000000000 ) ) ;
#304 = DIRECTION ( 'NONE',  ( 0.000000000000000000, 0.000000000000000000, 1.000000000000000000 ) ) ;
#305 = APPLICATION_CONTEXT ( 'configuration controlled 3d designs of mechanical parts and assemblies' ) ;
#306 = APPROVAL_ROLE ( '' ) ;
#307 = CARTESIAN_POINT ( 'NONE',  ( 12.99999999999990763, 0.000000000000000000, 0.000000000000000000 ) ) ;
#308 = ORIENTED_EDGE ( 'NONE', *, *, #197, .T. ) ;
#309 = COORDINATED_UNIVERSAL_TIME_OFFSET ( 1, 0, .AHEAD. ) ;
#310 = DIRECTION ( 'NONE',  ( -1.000000000000000000, -0.000000000000000000, -0.000000000000000000 ) ) ;
#311 = LOCAL_TIME ( 12, 10, 3.000000000000000000, #309 ) ;
#312 = ORIENTED_EDGE ( 'NONE', *, *, #216, .F. ) ;
#313 = EDGE_CURVE ( 'NONE', #229, #129, #224, .T. ) ;
#314 = CIRCLE ( 'NONE', #202, 8.000000000000021316 ) ;
#315 = ORIENTED_EDGE ( 'NONE', *, *, #17, .F. ) ;
#316 = EDGE_LOOP ( 'NONE', ( #317, #338, #70, #93 ) ) ;
#317 = ORIENTED_EDGE ( 'NONE', *, *, #101, .F. ) ;
#318 = VECTOR ( 'NONE', #76, 1000.000000000000000 ) ;
#319 = CYLINDRICAL_SURFACE ( 'NONE', #195, 6.500000000000018652 ) ;
#320 = CARTESIAN_POINT ( 'NONE',  ( -2.775557561562891351E-14, 0.000000000000000000, 0.000000000000000000 ) ) ;
#321 = MECHANICAL_CONTEXT ( 'NONE', #305, 'mechanical' ) ;
#322 = LINE ( 'NONE', #30, #318 ) ;
#323 = EDGE_CURVE ( 'NONE', #259, #129, #104, .T. ) ;
#324 = LOCAL_TIME ( 12, 10, 3.000000000000000000, #188 ) ;
#325 = DIRECTION ( 'NONE',  ( -0.000000000000000000, 0.000000000000000000, -1.000000000000000000 ) ) ;
#326 = APPLICATION_PROTOCOL_DEFINITION ( 'international standard', 'config_control_design', 1994, #305 ) ;
#327 = APPROVAL_ROLE ( '' ) ;
#328 = EDGE_CURVE ( 'NONE', #261, #73, #18, .T. ) ;
#329 = CARTESIAN_POINT ( 'NONE',  ( -2.000000000000001776, 0.000000000000000000, 0.000000000000000000 ) ) ;
#330 = APPROVAL_PERSON_ORGANIZATION ( #221, #126, #306 ) ;
#331 = DIRECTION ( 'NONE',  ( 0.000000000000000000, 0.000000000000000000, 1.000000000000000000 ) ) ;
#332 = AXIS2_PLACEMENT_3D ( 'NONE', #184, #297, #109 ) ;
#333 = DIRECTION ( 'NONE',  ( 0.000000000000000000, 0.000000000000000000, 1.000000000000000000 ) ) ;
#334 = APPROVAL_DATE_TIME ( #284, #126 ) ;
#335 = CC_DESIGN_DATE_AND_TIME_ASSIGNMENT ( #162, #137, ( #249 ) ) ;
#336 = VECTOR ( 'NONE', #113, 1000.000000000000000 ) ;
#337 = CARTESIAN_POINT ( 'NONE',  ( -154.8395502972293230, 7.960204194457819143E-16, -6.500000000000018652 ) ) ;
#338 = ORIENTED_EDGE ( 'NONE', *, *, #28, .T. ) ;
#339 = FACE_OUTER_BOUND ( 'NONE', #316, .T. ) ;
#340 = ORIENTED_EDGE ( 'NONE', *, *, #107, .T. ) ;
#341 = DIRECTION ( 'NONE',  ( -1.000000000000000000, 0.000000000000000000, -0.000000000000000000 ) ) ;
#342 = ORIENTED_EDGE ( 'NONE', *, *, #79, .T. ) ;
#343 = ORIENTED_EDGE ( 'NONE', *, *, #89, .T. ) ;
#344 = ADVANCED_FACE ( 'NONE', ( #68 ), #150, .T. ) ;
#345 = EDGE_LOOP ( 'NONE', ( #177, #342, #264, #22 ) ) ;
#346 = DIRECTION ( 'NONE',  ( 0.000000000000000000, 0.000000000000000000, 1.000000000000000000 ) ) ;
#347 = LOCAL_TIME ( 12, 10, 3.000000000000000000, #192 ) ;
#348 = AXIS2_PLACEMENT_3D ( 'NONE', #307, #6, #65 ) ;
#349 = DIRECTION ( 'NONE',  ( -1.000000000000000000, -0.000000000000000000, -0.000000000000000000 ) ) ;
#350 = PERSON_AND_ORGANIZATION ( #161, #240 ) ;
#351 = CARTESIAN_POINT ( 'NONE',  ( -2.000000000000001776, 0.000000000000000000, 0.000000000000000000 ) ) ;
ENDSEC;
END-ISO-10303-21;
