ISO-10303-21;
HEADER;
FILE_DESCRIPTION (( 'STEP AP203' ),
    '1' );
FILE_NAME ('3D_R243_273_17386610.STEP',
    '2024-08-06T10:08:09',
    ( '' ),
    ( '' ),
    'SwSTEP 2.0',
    'SolidWorks 2024',
    '' );
FILE_SCHEMA (( 'CONFIG_CONTROL_DESIGN' ));
ENDSEC;

DATA;
#1 = CC_DESIGN_PERSON_AND_ORGANIZATION_ASSIGNMENT ( #162, #234, ( #40 ) ) ;
#2 = VERTEX_POINT ( 'NONE', #42 ) ;
#3 = PERSON_AND_ORGANIZATION ( #153, #46 ) ;
#4 = ORIENTED_EDGE ( 'NONE', *, *, #88, .T. ) ;
#5 = DIRECTION ( 'NONE',  ( -0.000000000000000000, -1.000000000000000000, -0.000000000000000000 ) ) ;
#6 = DIRECTION ( 'NONE',  ( 1.000000000000000000, 0.000000000000000000, 0.000000000000000000 ) ) ;
#7 = EDGE_CURVE ( 'NONE', #15, #2, #216, .T. ) ;
#8 = DIRECTION ( 'NONE',  ( 0.000000000000000000, 0.000000000000000000, 1.000000000000000000 ) ) ;
#9 = DIRECTION ( 'NONE',  ( 0.000000000000000000, 0.000000000000000000, 1.000000000000000000 ) ) ;
#10 = LOCAL_TIME ( 12, 8, 9.000000000000000000, #150 ) ;
#11 = CC_DESIGN_DATE_AND_TIME_ASSIGNMENT ( #63, #45, ( #30 ) ) ;
#12 = CC_DESIGN_APPROVAL ( #221, ( #151 ) ) ;
#13 = FACE_OUTER_BOUND ( 'NONE', #73, .T. ) ;
#14 = EDGE_CURVE ( 'NONE', #47, #69, #231, .T. ) ;
#15 = VERTEX_POINT ( 'NONE', #133 ) ;
#16 = DIRECTION ( 'NONE',  ( 0.000000000000000000, 1.000000000000000000, 0.000000000000000000 ) ) ;
#17 = CARTESIAN_POINT ( 'NONE',  ( 0.000000000000000000, 4.000000000000000000, 0.000000000000000000 ) ) ;
#18 = FACE_OUTER_BOUND ( 'NONE', #222, .T. ) ;
#19 = CARTESIAN_POINT ( 'NONE',  ( 0.000000000000000000, 4.000000000000000000, 0.000000000000000000 ) ) ;
#20 = VERTEX_POINT ( 'NONE', #165 ) ;
#21 = EDGE_LOOP ( 'NONE', ( #184, #201, #215, #91 ) ) ;
#22 = CARTESIAN_POINT ( 'NONE',  ( 0.000000000000000000, 0.000000000000000000, 0.000000000000000000 ) ) ;
#23 = APPLICATION_PROTOCOL_DEFINITION ( 'international standard', 'config_control_design', 1994, #211 ) ;
#24 = CARTESIAN_POINT ( 'NONE',  ( 0.000000000000000000, 4.000000000000000000, 0.000000000000000000 ) ) ;
#25 = ORIENTED_EDGE ( 'NONE', *, *, #81, .F. ) ;
#26 = EDGE_CURVE ( 'NONE', #70, #208, #140, .T. ) ;
#27 = CIRCLE ( 'NONE', #50, 167.0000000000000000 ) ;
#28 = CIRCLE ( 'NONE', #58, 167.0000000000000000 ) ;
#29 = ADVANCED_FACE ( 'NONE', ( #114, #212 ), #118, .F. ) ;
#30 = PRODUCT_DEFINITION ( 'UNKNOWN', '', #151, #75 ) ;
#31 = CARTESIAN_POINT ( 'NONE',  ( 1.677766114831873739E-14, 4.000000000000000000, 137.0000000000000000 ) ) ;
#32 = DIRECTION ( 'NONE',  ( 0.000000000000000000, 0.000000000000000000, -1.000000000000000000 ) ) ;
#33 = APPROVAL_PERSON_ORGANIZATION ( #232, #149, #97 ) ;
#34 = FACE_BOUND ( 'NONE', #249, .T. ) ;
#35 = COORDINATED_UNIVERSAL_TIME_OFFSET ( 1, 0, .AHEAD. ) ;
#36 = EDGE_CURVE ( 'NONE', #2, #15, #100, .T. ) ;
#37 = PERSON_AND_ORGANIZATION ( #153, #46 ) ;
#38 = ORIENTED_EDGE ( 'NONE', *, *, #82, .F. ) ;
#39 = ORIENTED_EDGE ( 'NONE', *, *, #7, .F. ) ;
#40 = PRODUCT ( '3D_R243_273_17386610', '3D_R243_273_17386610', '', ( #95 ) ) ;
#41 = CARTESIAN_POINT ( 'NONE',  ( 0.000000000000000000, 4.000000000000000000, 0.000000000000000000 ) ) ;
#42 = CARTESIAN_POINT ( 'NONE',  ( 1.677766114831873739E-14, 4.000000000000000000, 137.0000000000000000 ) ) ;
#43 = DIRECTION ( 'NONE',  ( 0.000000000000000000, 0.000000000000000000, 1.000000000000000000 ) ) ;
#44 = AXIS2_PLACEMENT_3D ( 'NONE', #22, #198, #6 ) ;
#45 = DATE_TIME_ROLE ( 'creation_date' ) ;
#46 = ORGANIZATION ( 'UNSPECIFIED', 'UNSPECIFIED', '' ) ;
#47 = VERTEX_POINT ( 'NONE', #116 ) ;
#48 = LINE ( 'NONE', #31, #240 ) ;
#49 = FACE_OUTER_BOUND ( 'NONE', #141, .T. ) ;
#50 = AXIS2_PLACEMENT_3D ( 'NONE', #99, #186, #8 ) ;
#51 = CC_DESIGN_PERSON_AND_ORGANIZATION_ASSIGNMENT ( #166, #62, ( #30 ) ) ;
#52 = CARTESIAN_POINT ( 'NONE',  ( 0.000000000000000000, 4.000000000000000000, 0.000000000000000000 ) ) ;
#53 = ORIENTED_EDGE ( 'NONE', *, *, #189, .F. ) ;
#54 = DIRECTION ( 'NONE',  ( 0.000000000000000000, 1.000000000000000000, 0.000000000000000000 ) ) ;
#55 =( LENGTH_UNIT ( ) NAMED_UNIT ( * ) SI_UNIT ( .MILLI., .METRE. ) );
#56 = CARTESIAN_POINT ( 'NONE',  ( 1.677766114831873739E-14, 0.000000000000000000, 137.0000000000000000 ) ) ;
#57 = CARTESIAN_POINT ( 'NONE',  ( 0.000000000000000000, 0.000000000000000000, 0.000000000000000000 ) ) ;
#58 = AXIS2_PLACEMENT_3D ( 'NONE', #145, #147, #9 ) ;
#59 = DIRECTION ( 'NONE',  ( 0.000000000000000000, 1.000000000000000000, 0.000000000000000000 ) ) ;
#60 = LINE ( 'NONE', #170, #102 ) ;
#61 = CC_DESIGN_DATE_AND_TIME_ASSIGNMENT ( #111, #154, ( #223 ) ) ;
#62 = PERSON_AND_ORGANIZATION_ROLE ( 'creator' ) ;
#63 = DATE_AND_TIME ( #105, #239 ) ;
#64 = ORIENTED_EDGE ( 'NONE', *, *, #26, .F. ) ;
#65 = CARTESIAN_POINT ( 'NONE',  ( 2.045160154576079814E-14, 0.000000000000000000, 167.0000000000000000 ) ) ;
#66 = AXIS2_PLACEMENT_3D ( 'NONE', #41, #135, #168 ) ;
#67 = DIRECTION ( 'NONE',  ( 0.000000000000000000, 0.000000000000000000, 1.000000000000000000 ) ) ;
#68 = EDGE_CURVE ( 'NONE', #15, #208, #199, .T. ) ;
#69 = VERTEX_POINT ( 'NONE', #163 ) ;
#70 = VERTEX_POINT ( 'NONE', #56 ) ;
#71 = CARTESIAN_POINT ( 'NONE',  ( 0.000000000000000000, 4.000000000000000000, 0.000000000000000000 ) ) ;
#72 = PERSON_AND_ORGANIZATION_ROLE ( 'design_supplier' ) ;
#73 = EDGE_LOOP ( 'NONE', ( #86, #25, #107, #230 ) ) ;
#74 = DIRECTION ( 'NONE',  ( 0.000000000000000000, 0.000000000000000000, 1.000000000000000000 ) ) ;
#75 = DESIGN_CONTEXT ( 'detailed design', #211, 'design' ) ;
#76 = APPLICATION_PROTOCOL_DEFINITION ( 'international standard', 'config_control_design', 1994, #191 ) ;
#77 = DIRECTION ( 'NONE',  ( 0.000000000000000000, 1.000000000000000000, 0.000000000000000000 ) ) ;
#78 = VECTOR ( 'NONE', #217, 1000.000000000000000 ) ;
#79 =( NAMED_UNIT ( * ) PLANE_ANGLE_UNIT ( ) SI_UNIT ( $, .RADIAN. ) );
#80 = CARTESIAN_POINT ( 'NONE',  ( 0.000000000000000000, 0.000000000000000000, 0.000000000000000000 ) ) ;
#81 = EDGE_CURVE ( 'NONE', #47, #20, #27, .T. ) ;
#82 = EDGE_CURVE ( 'NONE', #69, #125, #172, .T. ) ;
#83 = CC_DESIGN_APPROVAL ( #149, ( #30 ) ) ;
#84 = PERSON_AND_ORGANIZATION ( #153, #46 ) ;
#85 = FACE_OUTER_BOUND ( 'NONE', #21, .T. ) ;
#86 = ORIENTED_EDGE ( 'NONE', *, *, #241, .F. ) ;
#87 = AXIS2_PLACEMENT_3D ( 'NONE', #57, #235, #144 ) ;
#88 = EDGE_CURVE ( 'NONE', #208, #70, #214, .T. ) ;
#89 = DIRECTION ( 'NONE',  ( -0.000000000000000000, -1.000000000000000000, -0.000000000000000000 ) ) ;
#90 = AXIS2_PLACEMENT_3D ( 'NONE', #52, #226, #32 ) ;
#91 = ORIENTED_EDGE ( 'NONE', *, *, #68, .F. ) ;
#92 = SHAPE_DEFINITION_REPRESENTATION ( #103, #200 ) ;
#93 = DIRECTION ( 'NONE',  ( 0.000000000000000000, 0.000000000000000000, 1.000000000000000000 ) ) ;
#94 = ORIENTED_EDGE ( 'NONE', *, *, #81, .T. ) ;
#95 = MECHANICAL_CONTEXT ( 'NONE', #191, 'mechanical' ) ;
#96 = CARTESIAN_POINT ( 'NONE',  ( 0.000000000000000000, 4.000000000000000000, -137.0000000000000000 ) ) ;
#97 = APPROVAL_ROLE ( '' ) ;
#98 = EDGE_LOOP ( 'NONE', ( #53, #109, #179, #183 ) ) ;
#99 = CARTESIAN_POINT ( 'NONE',  ( 0.000000000000000000, 4.000000000000000000, 0.000000000000000000 ) ) ;
#100 = CIRCLE ( 'NONE', #138, 137.0000000000000000 ) ;
#101 = CC_DESIGN_PERSON_AND_ORGANIZATION_ASSIGNMENT ( #173, #246, ( #223 ) ) ;
#102 = VECTOR ( 'NONE', #122, 1000.000000000000000 ) ;
#103 = PRODUCT_DEFINITION_SHAPE ( 'NONE', 'NONE',  #30 ) ;
#104 = CC_DESIGN_PERSON_AND_ORGANIZATION_ASSIGNMENT ( #3, #72, ( #151 ) ) ;
#105 = CALENDAR_DATE ( 2024, 6, 8 ) ;
#106 = LOCAL_TIME ( 12, 8, 9.000000000000000000, #35 ) ;
#107 = ORIENTED_EDGE ( 'NONE', *, *, #14, .T. ) ;
#108 = CARTESIAN_POINT ( 'NONE',  ( 0.000000000000000000, 0.000000000000000000, -137.0000000000000000 ) ) ;
#109 = ORIENTED_EDGE ( 'NONE', *, *, #241, .T. ) ;
#110 = CYLINDRICAL_SURFACE ( 'NONE', #243, 167.0000000000000000 ) ;
#111 = DATE_AND_TIME ( #131, #106 ) ;
#112 = PRODUCT_RELATED_PRODUCT_CATEGORY ( 'detail', '', ( #40 ) ) ;
#113 = DIRECTION ( 'NONE',  ( 0.000000000000000000, 1.000000000000000000, 0.000000000000000000 ) ) ;
#114 = FACE_OUTER_BOUND ( 'NONE', #161, .T. ) ;
#115 = AXIS2_PLACEMENT_3D ( 'NONE', #19, #209, #152 ) ;
#116 = CARTESIAN_POINT ( 'NONE',  ( 0.000000000000000000, 4.000000000000000000, -167.0000000000000000 ) ) ;
#117 = ADVANCED_FACE ( 'NONE', ( #13 ), #110, .T. ) ;
#118 = PLANE ( 'NONE',  #188 ) ;
#119 = DATE_AND_TIME ( #164, #148 ) ;
#120 = AXIS2_PLACEMENT_3D ( 'NONE', #203, #16, #93 ) ;
#121 = CARTESIAN_POINT ( 'NONE',  ( 0.000000000000000000, 4.000000000000000000, 0.000000000000000000 ) ) ;
#122 = DIRECTION ( 'NONE',  ( -0.000000000000000000, -1.000000000000000000, -0.000000000000000000 ) ) ;
#123 = APPROVAL_ROLE ( '' ) ;
#124 = COORDINATED_UNIVERSAL_TIME_OFFSET ( 1, 0, .AHEAD. ) ;
#125 = VERTEX_POINT ( 'NONE', #65 ) ;
#126 = DIRECTION ( 'NONE',  ( -0.000000000000000000, -1.000000000000000000, -0.000000000000000000 ) ) ;
#127 = CC_DESIGN_SECURITY_CLASSIFICATION ( #223, ( #151 ) ) ;
#128 = APPROVAL_ROLE ( '' ) ;
#129 = VECTOR ( 'NONE', #5, 1000.000000000000000 ) ;
#130 = FACE_OUTER_BOUND ( 'NONE', #98, .T. ) ;
#131 = CALENDAR_DATE ( 2024, 6, 8 ) ;
#132 = DIRECTION ( 'NONE',  ( -0.000000000000000000, -1.000000000000000000, -0.000000000000000000 ) ) ;
#133 = CARTESIAN_POINT ( 'NONE',  ( 0.000000000000000000, 4.000000000000000000, -137.0000000000000000 ) ) ;
#134 = UNCERTAINTY_MEASURE_WITH_UNIT (LENGTH_MEASURE( 1.000000000000000082E-05 ), #55, 'distance_accuracy_value', 'NONE');
#135 = DIRECTION ( 'NONE',  ( 0.000000000000000000, 1.000000000000000000, 0.000000000000000000 ) ) ;
#136 = PERSON_AND_ORGANIZATION ( #153, #46 ) ;
#137 = EDGE_LOOP ( 'NONE', ( #4, #175 ) ) ;
#138 = AXIS2_PLACEMENT_3D ( 'NONE', #24, #113, #74 ) ;
#139 = APPROVAL_STATUS ( 'not_yet_approved' ) ;
#140 = CIRCLE ( 'NONE', #87, 137.0000000000000000 ) ;
#141 = EDGE_LOOP ( 'NONE', ( #94, #244 ) ) ;
#142 = APPROVAL_DATE_TIME ( #119, #149 ) ;
#143 = CIRCLE ( 'NONE', #171, 167.0000000000000000 ) ;
#144 = DIRECTION ( 'NONE',  ( 0.000000000000000000, 0.000000000000000000, 1.000000000000000000 ) ) ;
#145 = CARTESIAN_POINT ( 'NONE',  ( 0.000000000000000000, 0.000000000000000000, 0.000000000000000000 ) ) ;
#146 = DIRECTION ( 'NONE',  ( 0.000000000000000000, 0.000000000000000000, 1.000000000000000000 ) ) ;
#147 = DIRECTION ( 'NONE',  ( 0.000000000000000000, 1.000000000000000000, 0.000000000000000000 ) ) ;
#148 = LOCAL_TIME ( 12, 8, 9.000000000000000000, #236 ) ;
#149 = APPROVAL ( #139, 'UNSPECIFIED' ) ;
#150 = COORDINATED_UNIVERSAL_TIME_OFFSET ( 1, 0, .AHEAD. ) ;
#151 = PRODUCT_DEFINITION_FORMATION_WITH_SPECIFIED_SOURCE ( 'ANY', '', #40, .NOT_KNOWN. ) ;
#152 = DIRECTION ( 'NONE',  ( 0.000000000000000000, 0.000000000000000000, -1.000000000000000000 ) ) ;
#153 = PERSON ( 'UNSPECIFIED', 'UNSPECIFIED', 'UNSPECIFIED', ('UNSPECIFIED'), ('UNSPECIFIED'), ('UNSPECIFIED') ) ;
#154 = DATE_TIME_ROLE ( 'classification_date' ) ;
#155 = CARTESIAN_POINT ( 'NONE',  ( 0.000000000000000000, 4.000000000000000000, 0.000000000000000000 ) ) ;
#156 = APPROVAL_PERSON_ORGANIZATION ( #84, #221, #123 ) ;
#157 = APPROVAL_DATE_TIME ( #248, #225 ) ;
#158 = ORIENTED_EDGE ( 'NONE', *, *, #36, .F. ) ;
#159 = CC_DESIGN_PERSON_AND_ORGANIZATION_ASSIGNMENT ( #37, #182, ( #151 ) ) ;
#160 = ORIENTED_EDGE ( 'NONE', *, *, #245, .F. ) ;
#161 = EDGE_LOOP ( 'NONE', ( #38, #160 ) ) ;
#162 = PERSON_AND_ORGANIZATION ( #153, #46 ) ;
#163 = CARTESIAN_POINT ( 'NONE',  ( 0.000000000000000000, 0.000000000000000000, -167.0000000000000000 ) ) ;
#164 = CALENDAR_DATE ( 2024, 6, 8 ) ;
#165 = CARTESIAN_POINT ( 'NONE',  ( 2.045160154576079814E-14, 4.000000000000000000, 167.0000000000000000 ) ) ;
#166 = PERSON_AND_ORGANIZATION ( #153, #46 ) ;
#167 = DIRECTION ( 'NONE',  ( 0.000000000000000000, -0.000000000000000000, 1.000000000000000000 ) ) ;
#168 = DIRECTION ( 'NONE',  ( 0.000000000000000000, -0.000000000000000000, 1.000000000000000000 ) ) ;
#169 = ADVANCED_FACE ( 'NONE', ( #85 ), #195, .F. ) ;
#170 = CARTESIAN_POINT ( 'NONE',  ( 2.045160154576079814E-14, 4.000000000000000000, 167.0000000000000000 ) ) ;
#171 = AXIS2_PLACEMENT_3D ( 'NONE', #155, #227, #67 ) ;
#172 = CIRCLE ( 'NONE', #206, 167.0000000000000000 ) ;
#173 = PERSON_AND_ORGANIZATION ( #153, #46 ) ;
#174 = APPROVAL_PERSON_ORGANIZATION ( #136, #225, #128 ) ;
#175 = ORIENTED_EDGE ( 'NONE', *, *, #26, .T. ) ;
#176 = CYLINDRICAL_SURFACE ( 'NONE', #90, 137.0000000000000000 ) ;
#177 = ADVANCED_FACE ( 'NONE', ( #18 ), #176, .F. ) ;
#178 = COORDINATED_UNIVERSAL_TIME_OFFSET ( 1, 0, .AHEAD. ) ;
#179 = ORIENTED_EDGE ( 'NONE', *, *, #245, .T. ) ;
#180 = DIRECTION ( 'NONE',  ( 0.000000000000000000, 0.000000000000000000, -1.000000000000000000 ) ) ;
#181 =( GEOMETRIC_REPRESENTATION_CONTEXT ( 3 ) GLOBAL_UNCERTAINTY_ASSIGNED_CONTEXT ( ( #134 ) ) GLOBAL_UNIT_ASSIGNED_CONTEXT ( ( #55, #79, #220 ) ) REPRESENTATION_CONTEXT ( 'NONE', 'WORKASPACE' ) );
#182 = PERSON_AND_ORGANIZATION_ROLE ( 'creator' ) ;
#183 = ORIENTED_EDGE ( 'NONE', *, *, #14, .F. ) ;
#184 = ORIENTED_EDGE ( 'NONE', *, *, #7, .T. ) ;
#185 = PLANE ( 'NONE',  #66 ) ;
#186 = DIRECTION ( 'NONE',  ( 0.000000000000000000, 1.000000000000000000, 0.000000000000000000 ) ) ;
#187 = EDGE_CURVE ( 'NONE', #2, #70, #48, .T. ) ;
#188 = AXIS2_PLACEMENT_3D ( 'NONE', #202, #54, #167 ) ;
#189 = EDGE_CURVE ( 'NONE', #20, #47, #143, .T. ) ;
#190 = CC_DESIGN_APPROVAL ( #225, ( #223 ) ) ;
#191 = APPLICATION_CONTEXT ( 'configuration controlled 3d designs of mechanical parts and assemblies' ) ;
#192 = APPROVAL_DATE_TIME ( #207, #221 ) ;
#193 = SECURITY_CLASSIFICATION_LEVEL ( 'unclassified' ) ;
#194 = CYLINDRICAL_SURFACE ( 'NONE', #218, 167.0000000000000000 ) ;
#195 = CYLINDRICAL_SURFACE ( 'NONE', #115, 137.0000000000000000 ) ;
#196 = CALENDAR_DATE ( 2024, 6, 8 ) ;
#197 = ORIENTED_EDGE ( 'NONE', *, *, #187, .F. ) ;
#198 = DIRECTION ( 'NONE',  ( 0.000000000000000000, 0.000000000000000000, 1.000000000000000000 ) ) ;
#199 = LINE ( 'NONE', #96, #129 ) ;
#200 = ADVANCED_BREP_SHAPE_REPRESENTATION ( '3D_R243_273_17386610', ( #247, #44 ), #181 ) ;
#201 = ORIENTED_EDGE ( 'NONE', *, *, #187, .T. ) ;
#202 = CARTESIAN_POINT ( 'NONE',  ( 0.000000000000000000, 0.000000000000000000, 0.000000000000000000 ) ) ;
#203 = CARTESIAN_POINT ( 'NONE',  ( 0.000000000000000000, 0.000000000000000000, 0.000000000000000000 ) ) ;
#204 = CLOSED_SHELL ( 'NONE', ( #169, #210, #237, #29, #117, #177 ) ) ;
#205 = CALENDAR_DATE ( 2024, 6, 8 ) ;
#206 = AXIS2_PLACEMENT_3D ( 'NONE', #80, #59, #43 ) ;
#207 = DATE_AND_TIME ( #205, #10 ) ;
#208 = VERTEX_POINT ( 'NONE', #108 ) ;
#209 = DIRECTION ( 'NONE',  ( -0.000000000000000000, -1.000000000000000000, -0.000000000000000000 ) ) ;
#210 = ADVANCED_FACE ( 'NONE', ( #130 ), #194, .T. ) ;
#211 = APPLICATION_CONTEXT ( 'configuration controlled 3d designs of mechanical parts and assemblies' ) ;
#212 = FACE_BOUND ( 'NONE', #137, .T. ) ;
#213 = APPROVAL_STATUS ( 'not_yet_approved' ) ;
#214 = CIRCLE ( 'NONE', #120, 137.0000000000000000 ) ;
#215 = ORIENTED_EDGE ( 'NONE', *, *, #88, .F. ) ;
#216 = CIRCLE ( 'NONE', #224, 137.0000000000000000 ) ;
#217 = DIRECTION ( 'NONE',  ( -0.000000000000000000, -1.000000000000000000, -0.000000000000000000 ) ) ;
#218 = AXIS2_PLACEMENT_3D ( 'NONE', #17, #89, #229 ) ;
#219 = ORIENTED_EDGE ( 'NONE', *, *, #36, .T. ) ;
#220 =( NAMED_UNIT ( * ) SI_UNIT ( $, .STERADIAN. ) SOLID_ANGLE_UNIT ( ) );
#221 = APPROVAL ( #242, 'UNSPECIFIED' ) ;
#222 = EDGE_LOOP ( 'NONE', ( #197, #219, #233, #64 ) ) ;
#223 = SECURITY_CLASSIFICATION ( '', '', #193 ) ;
#224 = AXIS2_PLACEMENT_3D ( 'NONE', #121, #77, #146 ) ;
#225 = APPROVAL ( #213, 'UNSPECIFIED' ) ;
#226 = DIRECTION ( 'NONE',  ( -0.000000000000000000, -1.000000000000000000, -0.000000000000000000 ) ) ;
#227 = DIRECTION ( 'NONE',  ( 0.000000000000000000, 1.000000000000000000, 0.000000000000000000 ) ) ;
#228 = LOCAL_TIME ( 12, 8, 9.000000000000000000, #178 ) ;
#229 = DIRECTION ( 'NONE',  ( 0.000000000000000000, 0.000000000000000000, -1.000000000000000000 ) ) ;
#230 = ORIENTED_EDGE ( 'NONE', *, *, #82, .T. ) ;
#231 = LINE ( 'NONE', #238, #78 ) ;
#232 = PERSON_AND_ORGANIZATION ( #153, #46 ) ;
#233 = ORIENTED_EDGE ( 'NONE', *, *, #68, .T. ) ;
#234 = PERSON_AND_ORGANIZATION_ROLE ( 'design_owner' ) ;
#235 = DIRECTION ( 'NONE',  ( 0.000000000000000000, 1.000000000000000000, 0.000000000000000000 ) ) ;
#236 = COORDINATED_UNIVERSAL_TIME_OFFSET ( 1, 0, .AHEAD. ) ;
#237 = ADVANCED_FACE ( 'NONE', ( #49, #34 ), #185, .T. ) ;
#238 = CARTESIAN_POINT ( 'NONE',  ( 0.000000000000000000, 4.000000000000000000, -167.0000000000000000 ) ) ;
#239 = LOCAL_TIME ( 12, 8, 9.000000000000000000, #124 ) ;
#240 = VECTOR ( 'NONE', #132, 1000.000000000000000 ) ;
#241 = EDGE_CURVE ( 'NONE', #20, #125, #60, .T. ) ;
#242 = APPROVAL_STATUS ( 'not_yet_approved' ) ;
#243 = AXIS2_PLACEMENT_3D ( 'NONE', #71, #126, #180 ) ;
#244 = ORIENTED_EDGE ( 'NONE', *, *, #189, .T. ) ;
#245 = EDGE_CURVE ( 'NONE', #125, #69, #28, .T. ) ;
#246 = PERSON_AND_ORGANIZATION_ROLE ( 'classification_officer' ) ;
#247 = MANIFOLD_SOLID_BREP ( 'Aufsatz-Linear austragen1', #204 ) ;
#248 = DATE_AND_TIME ( #196, #228 ) ;
#249 = EDGE_LOOP ( 'NONE', ( #39, #158 ) ) ;
ENDSEC;
END-ISO-10303-21;
