ISO-10303-21;
HEADER;
FILE_DESCRIPTION (( 'STEP AP203' ),
    '1' );
FILE_NAME ('6015282_OSTP.step',
    '2024-03-20T08:45:59',
    ( '' ),
    ( '' ),
    'SwSTEP 2.0',
    'SolidWorks 2014',
    '' );
FILE_SCHEMA (( 'CONFIG_CONTROL_DESIGN' ));
ENDSEC;

DATA;
#1 = ORIENTED_EDGE ( 'NONE', *, *, #248, .T. ) ;
#2 = AXIS2_PLACEMENT_3D ( 'NONE', #279, #246, #47 ) ;
#3 = CIRCLE ( 'NONE', #343, 201.0000000000000000 ) ;
#4 = ORIENTED_EDGE ( 'NONE', *, *, #271, .F. ) ;
#5 = SHAPE_DEFINITION_REPRESENTATION ( #169, #164 ) ;
#6 = CYLINDRICAL_SURFACE ( 'NONE', #20, 175.0000000000001100 ) ;
#7 = AXIS2_PLACEMENT_3D ( 'NONE', #173, #142, #332 ) ;
#8 = ORIENTED_EDGE ( 'NONE', *, *, #126, .F. ) ;
#9 = LOCAL_TIME ( 9, 45, 59.00000000000000000, #195 ) ;
#10 = FACE_OUTER_BOUND ( 'NONE', #111, .T. ) ;
#11 = LOCAL_TIME ( 9, 45, 59.00000000000000000, #387 ) ;
#12 = CARTESIAN_POINT ( 'NONE',  ( -179.0000000000000000, 28.00000000000000700, 0.0000000000000000000 ) ) ;
#13 = EDGE_LOOP ( 'NONE', ( #68, #8, #376, #292 ) ) ;
#14 = AXIS2_PLACEMENT_3D ( 'NONE', #32, #261, #294 ) ;
#15 = CC_DESIGN_APPROVAL ( #136, ( #239 ) ) ;
#16 = CIRCLE ( 'NONE', #204, 175.0000000000001100 ) ;
#17 = EDGE_LOOP ( 'NONE', ( #163, #327, #101, #378 ) ) ;
#18 = PERSON_AND_ORGANIZATION ( #328, #300 ) ;
#19 = CARTESIAN_POINT ( 'NONE',  ( 7.929957982662940900E-016, 4.000000000000056000, 0.0000000000000000000 ) ) ;
#20 = AXIS2_PLACEMENT_3D ( 'NONE', #75, #73, #205 ) ;
#21 = CYLINDRICAL_SURFACE ( 'NONE', #100, 179.0000000000000000 ) ;
#22 = CARTESIAN_POINT ( 'NONE',  ( 5.550970587863982600E-015, 28.00000000000000400, 0.0000000000000000000 ) ) ;
#23 = DIRECTION ( 'NONE',  ( -1.982489495665708100E-016, -1.000000000000000000, 0.0000000000000000000 ) ) ;
#24 = CARTESIAN_POINT ( 'NONE',  ( 1.585991596532577100E-015, 8.000000000000055100, 0.0000000000000000000 ) ) ;
#25 = DIRECTION ( 'NONE',  ( -1.982489495665708100E-016, -1.000000000000000000, 0.0000000000000000000 ) ) ;
#26 = PERSON_AND_ORGANIZATION ( #328, #300 ) ;
#27 = DATE_TIME_ROLE ( 'creation_date' ) ;
#28 = TOROIDAL_SURFACE ( 'NONE', #223, 201.0000000000000000, 4.000000000000000000 ) ;
#29 = EDGE_CURVE ( 'NONE', #179, #388, #269, .T. ) ;
#30 = APPROVAL_ROLE ( '' ) ;
#31 = EDGE_LOOP ( 'NONE', ( #154, #207 ) ) ;
#32 = CARTESIAN_POINT ( 'NONE',  ( -175.0000000000000000, 24.00000000000006000, 2.143131898507867900E-014 ) ) ;
#33 = PERSON_AND_ORGANIZATION ( #328, #300 ) ;
#34 = CARTESIAN_POINT ( 'NONE',  ( -179.0000000000000000, 24.00000000000006000, 0.0000000000000000000 ) ) ;
#35 = COORDINATED_UNIVERSAL_TIME_OFFSET ( 1, 0, .AHEAD. ) ;
#36 = CIRCLE ( 'NONE', #234, 175.0000000000001100 ) ;
#37 = ORIENTED_EDGE ( 'NONE', *, *, #349, .F. ) ;
#38 = AXIS2_PLACEMENT_3D ( 'NONE', #206, #333, #110 ) ;
#39 = ADVANCED_FACE ( 'NONE', ( #159, #345 ), #50, .F. ) ;
#40 = CARTESIAN_POINT ( 'NONE',  ( 175.0000000000000000, 23.99999999999998900, 0.0000000000000000000 ) ) ;
#41 = DIRECTION ( 'NONE',  ( 1.000000000000000000, -1.982489495665708100E-016, 0.0000000000000000000 ) ) ;
#42 = FACE_OUTER_BOUND ( 'NONE', #384, .T. ) ;
#43 = DATE_AND_TIME ( #174, #311 ) ;
#44 = CARTESIAN_POINT ( 'NONE',  ( -175.0000000000001100, 28.00000000000000700, 0.0000000000000000000 ) ) ;
#45 = CARTESIAN_POINT ( 'NONE',  ( 201.0000000000000000, 4.000000000000016000, 0.0000000000000000000 ) ) ;
#46 = EDGE_CURVE ( 'NONE', #179, #198, #362, .T. ) ;
#47 = DIRECTION ( 'NONE',  ( 1.000000000000000000, -1.938238520644477200E-016, 0.0000000000000000000 ) ) ;
#48 = ORIENTED_EDGE ( 'NONE', *, *, #399, .T. ) ;
#49 = CARTESIAN_POINT ( 'NONE',  ( 201.0000000000000000, 1.566311236837708800E-014, 0.0000000000000000000 ) ) ;
#50 = PLANE ( 'NONE',  #131 ) ;
#51 = DIRECTION ( 'NONE',  ( 1.000000000000000000, -1.938238520644477200E-016, 0.0000000000000000000 ) ) ;
#52 = APPROVAL_STATUS ( 'not_yet_approved' ) ;
#53 = ORIENTED_EDGE ( 'NONE', *, *, #321, .F. ) ;
#54 = EDGE_CURVE ( 'NONE', #236, #338, #197, .T. ) ;
#55 = PERSON_AND_ORGANIZATION_ROLE ( 'design_supplier' ) ;
#56 = DIRECTION ( 'NONE',  ( 0.0000000000000000000, -0.0000000000000000000, -1.000000000000000000 ) ) ;
#57 = DIRECTION ( 'NONE',  ( 1.000000000000000000, -1.938238520644477200E-016, 0.0000000000000000000 ) ) ;
#58 = CARTESIAN_POINT ( 'NONE',  ( 205.0000000000000300, 1.258924190326264400E-013, 0.0000000000000000000 ) ) ;
#59 = ORIENTED_EDGE ( 'NONE', *, *, #284, .T. ) ;
#60 = AXIS2_PLACEMENT_3D ( 'NONE', #336, #365, #389 ) ;
#61 = DIRECTION ( 'NONE',  ( -1.000000000000000000, 1.982489495665708600E-016, 0.0000000000000000000 ) ) ;
#62 = ORIENTED_EDGE ( 'NONE', *, *, #84, .F. ) ;
#63 = EDGE_LOOP ( 'NONE', ( #62, #385, #161, #172 ) ) ;
#64 = CALENDAR_DATE ( 2024, 20, 3 ) ;
#65 = UNCERTAINTY_MEASURE_WITH_UNIT (LENGTH_MEASURE( 1.000000000000000100E-005 ), #310, 'distance_accuracy_value', 'NONE');
#66 = EDGE_CURVE ( 'NONE', #236, #96, #289, .T. ) ;
#67 = FACE_OUTER_BOUND ( 'NONE', #82, .T. ) ;
#68 = ORIENTED_EDGE ( 'NONE', *, *, #46, .F. ) ;
#69 = ORIENTED_EDGE ( 'NONE', *, *, #46, .T. ) ;
#70 = AXIS2_PLACEMENT_3D ( 'NONE', #187, #155, #93 ) ;
#71 = CIRCLE ( 'NONE', #380, 205.0000000000000300 ) ;
#72 = CARTESIAN_POINT ( 'NONE',  ( -183.0000000000000000, 4.000000000000092400, 2.241103642439656400E-014 ) ) ;
#73 = DIRECTION ( 'NONE',  ( 1.982489495665708100E-016, 1.000000000000000000, -0.0000000000000000000 ) ) ;
#74 = AXIS2_PLACEMENT_3D ( 'NONE', #86, #149, #283 ) ;
#75 = CARTESIAN_POINT ( 'NONE',  ( 5.550970587863977100E-015, 27.99999999999997200, 0.0000000000000000000 ) ) ;
#76 = CC_DESIGN_PERSON_AND_ORGANIZATION_ASSIGNMENT ( #200, #291, ( #239 ) ) ;
#77 = TOROIDAL_SURFACE ( 'NONE', #230, 175.0000000000000000, 4.000000000000000000 ) ;
#78 = DIRECTION ( 'NONE',  ( 1.000000000000000000, -1.982489495665708100E-016, 0.0000000000000000000 ) ) ;
#79 = ORIENTED_EDGE ( 'NONE', *, *, #321, .T. ) ;
#80 = ADVANCED_FACE ( 'NONE', ( #102 ), #28, .T. ) ;
#81 = CARTESIAN_POINT ( 'NONE',  ( -175.0000000000001100, 1.769408912042481000E-013, 0.0000000000000000000 ) ) ;
#82 = EDGE_LOOP ( 'NONE', ( #4, #79, #317, #347 ) ) ;
#83 = DIRECTION ( 'NONE',  ( 1.982489495665708100E-016, 1.000000000000000000, -0.0000000000000000000 ) ) ;
#84 = EDGE_CURVE ( 'NONE', #297, #150, #36, .T. ) ;
#85 = ORIENTED_EDGE ( 'NONE', *, *, #165, .F. ) ;
#86 = CARTESIAN_POINT ( 'NONE',  ( 7.929957982662940900E-016, 4.000000000000056000, 0.0000000000000000000 ) ) ;
#87 = CARTESIAN_POINT ( 'NONE',  ( 1.585991596532577100E-015, 8.000000000000055100, 0.0000000000000000000 ) ) ;
#88 = DIRECTION ( 'NONE',  ( -1.982489495665708100E-016, -1.000000000000000000, 0.0000000000000000000 ) ) ;
#89 = CC_DESIGN_APPROVAL ( #118, ( #363 ) ) ;
#90 = CARTESIAN_POINT ( 'NONE',  ( 4.757974789597703200E-015, 24.00000000000002500, 0.0000000000000000000 ) ) ;
#91 = CARTESIAN_POINT ( 'NONE',  ( 7.929957982662939000E-016, 4.000000000000056000, 0.0000000000000000000 ) ) ;
#92 = APPROVAL_DATE_TIME ( #43, #118 ) ;
#93 = DIRECTION ( 'NONE',  ( 1.000000000000000000, 0.0000000000000000000, 0.0000000000000000000 ) ) ;
#94 = CIRCLE ( 'NONE', #293, 175.0000000000001100 ) ;
#95 = CARTESIAN_POINT ( 'NONE',  ( 5.550970587863982600E-015, 28.00000000000000400, 0.0000000000000000000 ) ) ;
#96 = VERTEX_POINT ( 'NONE', #254 ) ;
#97 = DIRECTION ( 'NONE',  ( 1.000000000000000000, -1.990666283907811300E-016, 0.0000000000000000000 ) ) ;
#98 = FACE_OUTER_BOUND ( 'NONE', #17, .T. ) ;
#99 = APPROVAL_PERSON_ORGANIZATION ( #274, #136, #130 ) ;
#100 = AXIS2_PLACEMENT_3D ( 'NONE', #258, #403, #260 ) ;
#101 = ORIENTED_EDGE ( 'NONE', *, *, #382, .T. ) ;
#102 = FACE_OUTER_BOUND ( 'NONE', #268, .T. ) ;
#103 = CC_DESIGN_PERSON_AND_ORGANIZATION_ASSIGNMENT ( #18, #344, ( #363 ) ) ;
#104 = VERTEX_POINT ( 'NONE', #337 ) ;
#105 = COORDINATED_UNIVERSAL_TIME_OFFSET ( 1, 0, .AHEAD. ) ;
#106 = PRODUCT ( '6015282_OSTP', '6015282_OSTP', '', ( #219 ) ) ;
#107 = CARTESIAN_POINT ( 'NONE',  ( 179.0000000000000000, 8.000000000000021300, 2.192117770473762000E-014 ) ) ;
#108 = APPROVAL ( #52, 'UNSPECIFIED' ) ;
#109 = LINE ( 'NONE', #282, #176 ) ;
#110 = DIRECTION ( 'NONE',  ( 1.000000000000000000, -1.938238520644477200E-016, 0.0000000000000000000 ) ) ;
#111 = EDGE_LOOP ( 'NONE', ( #394, #306, #48, #325 ) ) ;
#112 = ADVANCED_FACE ( 'NONE', ( #374 ), #259, .T. ) ;
#113 = EDGE_CURVE ( 'NONE', #162, #228, #109, .T. ) ;
#114 = DIRECTION ( 'NONE',  ( 1.224646799147353200E-016, -2.427849415210259900E-032, 1.000000000000000000 ) ) ;
#115 = PERSON_AND_ORGANIZATION ( #328, #300 ) ;
#116 = CARTESIAN_POINT ( 'NONE',  ( 1.078520768856852100E-029, 5.551115123125782700E-014, 0.0000000000000000000 ) ) ;
#117 = PRODUCT_DEFINITION ( 'UNKNOWN', '', #239, #353 ) ;
#118 = APPROVAL ( #157, 'UNSPECIFIED' ) ;
#119 = CARTESIAN_POINT ( 'NONE',  ( -183.0000000000000000, 8.000000000000092400, 2.241103642439656400E-014 ) ) ;
#120 = AXIS2_PLACEMENT_3D ( 'NONE', #90, #124, #51 ) ;
#121 = COORDINATED_UNIVERSAL_TIME_OFFSET ( 1, 0, .AHEAD. ) ;
#122 = DIRECTION ( 'NONE',  ( 1.000000000000000000, -1.982489495665708100E-016, 0.0000000000000000000 ) ) ;
#123 = ORIENTED_EDGE ( 'NONE', *, *, #113, .F. ) ;
#124 = DIRECTION ( 'NONE',  ( -1.982489495665708100E-016, -1.000000000000000000, 0.0000000000000000000 ) ) ;
#125 = LOCAL_TIME ( 9, 45, 59.00000000000000000, #105 ) ;
#126 = EDGE_CURVE ( 'NONE', #388, #179, #402, .T. ) ;
#127 = SECURITY_CLASSIFICATION_LEVEL ( 'unclassified' ) ;
#128 = DIRECTION ( 'NONE',  ( -1.000000000000000000, 0.0000000000000000000, 0.0000000000000000000 ) ) ;
#129 = VERTEX_POINT ( 'NONE', #299 ) ;
#130 = APPROVAL_ROLE ( '' ) ;
#131 = AXIS2_PLACEMENT_3D ( 'NONE', #183, #318, #307 ) ;
#132 = FACE_OUTER_BOUND ( 'NONE', #63, .T. ) ;
#133 = CALENDAR_DATE ( 2024, 20, 3 ) ;
#134 = EDGE_CURVE ( 'NONE', #104, #309, #94, .T. ) ;
#135 = EDGE_LOOP ( 'NONE', ( #280, #249 ) ) ;
#136 = APPROVAL ( #256, 'UNSPECIFIED' ) ;
#137 = CARTESIAN_POINT ( 'NONE',  ( 175.0000000000001100, 27.99999999999996800, 2.143131898507869200E-014 ) ) ;
#138 = CARTESIAN_POINT ( 'NONE',  ( 4.757974789597703200E-015, 24.00000000000002500, 0.0000000000000000000 ) ) ;
#139 = ADVANCED_FACE ( 'NONE', ( #42 ), #6, .F. ) ;
#140 = AXIS2_PLACEMENT_3D ( 'NONE', #302, #371, #369 ) ;
#141 = CC_DESIGN_DATE_AND_TIME_ASSIGNMENT ( #351, #27, ( #117 ) ) ;
#142 = DIRECTION ( 'NONE',  ( -1.982489495665708100E-016, -1.000000000000000000, 0.0000000000000000000 ) ) ;
#143 = DIRECTION ( 'NONE',  ( 1.000000000000000000, -1.985006962560525500E-016, 0.0000000000000000000 ) ) ;
#144 = ADVANCED_FACE ( 'NONE', ( #352 ), #166, .F. ) ;
#145 = CARTESIAN_POINT ( 'NONE',  ( 175.0000000000001100, 27.99999999999994000, 2.143131898507869200E-014 ) ) ;
#146 = DIRECTION ( 'NONE',  ( 1.982489495665708100E-016, 1.000000000000000000, -0.0000000000000000000 ) ) ;
#147 = DIRECTION ( 'NONE',  ( 1.982489495665708100E-016, 1.000000000000000000, -0.0000000000000000000 ) ) ;
#148 = ORIENTED_EDGE ( 'NONE', *, *, #354, .F. ) ;
#149 = DIRECTION ( 'NONE',  ( 1.982489495665708100E-016, 1.000000000000000000, -0.0000000000000000000 ) ) ;
#150 = VERTEX_POINT ( 'NONE', #137 ) ;
#151 = AXIS2_PLACEMENT_3D ( 'NONE', #91, #25, #203 ) ;
#152 = DIRECTION ( 'NONE',  ( 1.000000000000000000, -1.982489495665708100E-016, 0.0000000000000000000 ) ) ;
#153 = CYLINDRICAL_SURFACE ( 'NONE', #287, 175.0000000000001100 ) ;
#154 = ORIENTED_EDGE ( 'NONE', *, *, #165, .T. ) ;
#155 = DIRECTION ( 'NONE',  ( 0.0000000000000000000, 0.0000000000000000000, 1.000000000000000000 ) ) ;
#156 = CC_DESIGN_PERSON_AND_ORGANIZATION_ASSIGNMENT ( #26, #288, ( #117 ) ) ;
#157 = APPROVAL_STATUS ( 'not_yet_approved' ) ;
#158 = APPROVAL_ROLE ( '' ) ;
#159 = FACE_OUTER_BOUND ( 'NONE', #232, .T. ) ;
#160 = EDGE_CURVE ( 'NONE', #309, #297, #276, .T. ) ;
#161 = ORIENTED_EDGE ( 'NONE', *, *, #399, .F. ) ;
#162 = VERTEX_POINT ( 'NONE', #107 ) ;
#163 = ORIENTED_EDGE ( 'NONE', *, *, #134, .F. ) ;
#164 = ADVANCED_BREP_SHAPE_REPRESENTATION ( '6015282_OSTP', ( #194, #70 ), #245 ) ;
#165 = EDGE_CURVE ( 'NONE', #309, #104, #16, .T. ) ;
#166 = TOROIDAL_SURFACE ( 'NONE', #7, 183.0000000000000000, 4.000000000000000000 ) ;
#167 = CC_DESIGN_PERSON_AND_ORGANIZATION_ASSIGNMENT ( #115, #222, ( #106 ) ) ;
#168 = ORIENTED_EDGE ( 'NONE', *, *, #178, .T. ) ;
#169 = PRODUCT_DEFINITION_SHAPE ( 'NONE', 'NONE',  #117 ) ;
#170 = AXIS2_PLACEMENT_3D ( 'NONE', #286, #88, #97 ) ;
#171 = TOROIDAL_SURFACE ( 'NONE', #184, 183.0000000000000000, 4.000000000000000000 ) ;
#172 = ORIENTED_EDGE ( 'NONE', *, *, #178, .F. ) ;
#173 = CARTESIAN_POINT ( 'NONE',  ( 1.585991596532577100E-015, 8.000000000000055100, 0.0000000000000000000 ) ) ;
#174 = CALENDAR_DATE ( 2024, 20, 3 ) ;
#175 = DIRECTION ( 'NONE',  ( -1.982489495665708100E-016, -1.000000000000000000, 0.0000000000000000000 ) ) ;
#176 = VECTOR ( 'NONE', #83, 1000.000000000000000 ) ;
#177 = PLANE ( 'NONE',  #60 ) ;
#178 = EDGE_CURVE ( 'NONE', #150, #228, #295, .T. ) ;
#179 = VERTEX_POINT ( 'NONE', #72 ) ;
#180 = PERSON_AND_ORGANIZATION ( #328, #300 ) ;
#181 = DIRECTION ( 'NONE',  ( -1.982489495665708100E-016, -1.000000000000000000, 0.0000000000000000000 ) ) ;
#182 = CIRCLE ( 'NONE', #296, 175.0000000000001100 ) ;
#183 = CARTESIAN_POINT ( 'NONE',  ( 205.0000000000000300, 1.130546083543632200E-013, 0.0000000000000000000 ) ) ;
#184 = AXIS2_PLACEMENT_3D ( 'NONE', #24, #401, #122 ) ;
#185 = DIRECTION ( 'NONE',  ( -1.000000000000000000, 1.982541115402063900E-016, 0.0000000000000000000 ) ) ;
#186 = DATE_AND_TIME ( #243, #125 ) ;
#187 = CARTESIAN_POINT ( 'NONE',  ( 0.0000000000000000000, 0.0000000000000000000, 0.0000000000000000000 ) ) ;
#188 = AXIS2_PLACEMENT_3D ( 'NONE', #290, #56, #128 ) ;
#189 = TOROIDAL_SURFACE ( 'NONE', #326, 175.0000000000000000, 4.000000000000000000 ) ;
#190 = ORIENTED_EDGE ( 'NONE', *, *, #66, .T. ) ;
#191 = CALENDAR_DATE ( 2024, 20, 3 ) ;
#192 = DIRECTION ( 'NONE',  ( 1.000000000000000000, 0.0000000000000000000, -1.224646799147349500E-016 ) ) ;
#193 = APPROVAL_PERSON_ORGANIZATION ( #33, #108, #30 ) ;
#194 = MANIFOLD_SOLID_BREP ( 'Cosmetic_Fillet', #227 ) ;
#195 = COORDINATED_UNIVERSAL_TIME_OFFSET ( 1, 0, .AHEAD. ) ;
#196 = AXIS2_PLACEMENT_3D ( 'NONE', #119, #114, #215 ) ;
#197 = CIRCLE ( 'NONE', #237, 4.000000000000003600 ) ;
#198 = VERTEX_POINT ( 'NONE', #358 ) ;
#199 = EDGE_CURVE ( 'NONE', #198, #366, #324, .T. ) ;
#200 = PERSON_AND_ORGANIZATION ( #328, #300 ) ;
#201 = DIRECTION ( 'NONE',  ( -1.000000000000000000, 1.982489495665708100E-016, 0.0000000000000000000 ) ) ;
#202 = FACE_OUTER_BOUND ( 'NONE', #225, .T. ) ;
#203 = DIRECTION ( 'NONE',  ( 1.000000000000000000, -1.990666283907811300E-016, 0.0000000000000000000 ) ) ;
#204 = AXIS2_PLACEMENT_3D ( 'NONE', #278, #364, #238 ) ;
#205 = DIRECTION ( 'NONE',  ( -1.000000000000000000, 1.982541115402063900E-016, 0.0000000000000000000 ) ) ;
#206 = CARTESIAN_POINT ( 'NONE',  ( 4.757974789597703200E-015, 24.00000000000002500, 0.0000000000000000000 ) ) ;
#207 = ORIENTED_EDGE ( 'NONE', *, *, #134, .T. ) ;
#208 = CARTESIAN_POINT ( 'NONE',  ( 4.757974789597703200E-015, 24.00000000000002500, 0.0000000000000000000 ) ) ;
#209 = CC_DESIGN_APPROVAL ( #108, ( #117 ) ) ;
#210 = ADVANCED_FACE ( 'NONE', ( #132 ), #189, .T. ) ;
#211 = DIRECTION ( 'NONE',  ( -1.000000000000000000, 1.982541115402063900E-016, 0.0000000000000000000 ) ) ;
#212 = ADVANCED_FACE ( 'NONE', ( #67 ), #335, .T. ) ;
#213 = DIRECTION ( 'NONE',  ( -1.000000000000000000, 1.982541115402063900E-016, 0.0000000000000000000 ) ) ;
#214 = EDGE_CURVE ( 'NONE', #162, #198, #391, .T. ) ;
#215 = DIRECTION ( 'NONE',  ( 1.000000000000000000, 0.0000000000000000000, -1.224646799147349500E-016 ) ) ;
#216 = AXIS2_PLACEMENT_3D ( 'NONE', #372, #147, #395 ) ;
#217 = CIRCLE ( 'NONE', #360, 4.000000000000003600 ) ;
#218 = VECTOR ( 'NONE', #331, 1000.000000000000000 ) ;
#219 = MECHANICAL_CONTEXT ( 'NONE', #346, 'mechanical' ) ;
#220 = DATE_TIME_ROLE ( 'classification_date' ) ;
#221 = APPROVAL_DATE_TIME ( #186, #108 ) ;
#222 = PERSON_AND_ORGANIZATION_ROLE ( 'design_owner' ) ;
#223 = AXIS2_PLACEMENT_3D ( 'NONE', #285, #23, #152 ) ;
#224 = CARTESIAN_POINT ( 'NONE',  ( 3.235562306570556200E-029, 1.665334536937734800E-013, 0.0000000000000000000 ) ) ;
#225 = EDGE_LOOP ( 'NONE', ( #190, #383 ) ) ;
#226 = DIRECTION ( 'NONE',  ( 1.224646799147353200E-016, -2.427849415210259900E-032, 1.000000000000000000 ) ) ;
#227 = CLOSED_SHELL ( 'NONE', ( #210, #144, #212, #252, #373, #112, #241, #39, #139, #80, #396, #244 ) ) ;
#228 = VERTEX_POINT ( 'NONE', #368 ) ;
#229 = LOCAL_TIME ( 9, 45, 59.00000000000000000, #35 ) ;
#230 = AXIS2_PLACEMENT_3D ( 'NONE', #208, #242, #78 ) ;
#231 = FACE_BOUND ( 'NONE', #135, .T. ) ;
#232 = EDGE_LOOP ( 'NONE', ( #233, #37 ) ) ;
#233 = ORIENTED_EDGE ( 'NONE', *, *, #284, .F. ) ;
#234 = AXIS2_PLACEMENT_3D ( 'NONE', #22, #304, #213 ) ;
#235 = CIRCLE ( 'NONE', #188, 4.000000000000003600 ) ;
#236 = VERTEX_POINT ( 'NONE', #45 ) ;
#237 = AXIS2_PLACEMENT_3D ( 'NONE', #49, #340, #250 ) ;
#238 = DIRECTION ( 'NONE',  ( -1.000000000000000000, 1.982489495665708100E-016, 0.0000000000000000000 ) ) ;
#239 = PRODUCT_DEFINITION_FORMATION_WITH_SPECIFIED_SOURCE ( 'ANY', '', #106, .NOT_KNOWN. ) ;
#240 = DIRECTION ( 'NONE',  ( 1.982489495665708100E-016, 1.000000000000000000, -0.0000000000000000000 ) ) ;
#241 = ADVANCED_FACE ( 'NONE', ( #202, #231 ), #177, .F. ) ;
#242 = DIRECTION ( 'NONE',  ( -1.982489495665708100E-016, -1.000000000000000000, 0.0000000000000000000 ) ) ;
#243 = CALENDAR_DATE ( 2024, 20, 3 ) ;
#244 = ADVANCED_FACE ( 'NONE', ( #320 ), #77, .T. ) ;
#245 =( GEOMETRIC_REPRESENTATION_CONTEXT ( 3 ) GLOBAL_UNCERTAINTY_ASSIGNED_CONTEXT ( ( #65 ) ) GLOBAL_UNIT_ASSIGNED_CONTEXT ( ( #310, #377, #375 ) ) REPRESENTATION_CONTEXT ( 'NONE', 'WORKASPACE' ) );
#246 = DIRECTION ( 'NONE',  ( 1.982489495665708100E-016, 1.000000000000000000, -0.0000000000000000000 ) ) ;
#247 = EDGE_LOOP ( 'NONE', ( #355, #69, #381, #397 ) ) ;
#248 = EDGE_CURVE ( 'NONE', #366, #228, #341, .T. ) ;
#249 = ORIENTED_EDGE ( 'NONE', *, *, #29, .T. ) ;
#250 = DIRECTION ( 'NONE',  ( -1.000000000000000000, 0.0000000000000000000, 0.0000000000000000000 ) ) ;
#251 = ORIENTED_EDGE ( 'NONE', *, *, #160, .T. ) ;
#252 = ADVANCED_FACE ( 'NONE', ( #98 ), #153, .F. ) ;
#253 = VECTOR ( 'NONE', #392, 1000.000000000000000 ) ;
#254 = CARTESIAN_POINT ( 'NONE',  ( -201.0000000000000000, 4.000000000000095900, 2.486033002269127000E-014 ) ) ;
#255 = APPLICATION_CONTEXT ( 'configuration controlled 3d designs of mechanical parts and assemblies' ) ;
#256 = APPROVAL_STATUS ( 'not_yet_approved' ) ;
#257 = ORIENTED_EDGE ( 'NONE', *, *, #277, .F. ) ;
#258 = CARTESIAN_POINT ( 'NONE',  ( 5.550970587863977100E-015, 27.99999999999997200, 0.0000000000000000000 ) ) ;
#259 = CYLINDRICAL_SURFACE ( 'NONE', #216, 179.0000000000000000 ) ;
#260 = DIRECTION ( 'NONE',  ( -1.000000000000000000, 1.938238520644477200E-016, 0.0000000000000000000 ) ) ;
#261 = DIRECTION ( 'NONE',  ( 1.224646799147353200E-016, -2.427849415210259900E-032, 1.000000000000000000 ) ) ;
#262 = ORIENTED_EDGE ( 'NONE', *, *, #214, .T. ) ;
#263 = DIRECTION ( 'NONE',  ( 1.982489495665708100E-016, 1.000000000000000000, -0.0000000000000000000 ) ) ;
#264 = CIRCLE ( 'NONE', #334, 179.0000000000000000 ) ;
#265 = ORIENTED_EDGE ( 'NONE', *, *, #84, .T. ) ;
#266 = PERSON_AND_ORGANIZATION ( #328, #300 ) ;
#267 = PRODUCT_RELATED_PRODUCT_CATEGORY ( 'detail', '', ( #106 ) ) ;
#268 = EDGE_LOOP ( 'NONE', ( #53, #270, #359, #59 ) ) ;
#269 = CIRCLE ( 'NONE', #170, 183.0000000000000000 ) ;
#270 = ORIENTED_EDGE ( 'NONE', *, *, #66, .F. ) ;
#271 = EDGE_CURVE ( 'NONE', #96, #236, #3, .T. ) ;
#272 = LINE ( 'NONE', #145, #253 ) ;
#273 = DIRECTION ( 'NONE',  ( 0.0000000000000000000, -0.0000000000000000000, -1.000000000000000000 ) ) ;
#274 = PERSON_AND_ORGANIZATION ( #328, #300 ) ;
#275 = CARTESIAN_POINT ( 'NONE',  ( 2.773339119917619600E-029, 1.422473250300981800E-013, 0.0000000000000000000 ) ) ;
#276 = LINE ( 'NONE', #44, #314 ) ;
#277 = EDGE_CURVE ( 'NONE', #104, #150, #272, .T. ) ;
#278 = CARTESIAN_POINT ( 'NONE',  ( 2.773339119917619600E-029, 1.422473250300981800E-013, 0.0000000000000000000 ) ) ;
#279 = CARTESIAN_POINT ( 'NONE',  ( 1.585991596532577100E-015, 8.000000000000055100, 0.0000000000000000000 ) ) ;
#280 = ORIENTED_EDGE ( 'NONE', *, *, #126, .T. ) ;
#281 = CARTESIAN_POINT ( 'NONE',  ( -175.0000000000001100, 28.00000000000003900, 0.0000000000000000000 ) ) ;
#282 = CARTESIAN_POINT ( 'NONE',  ( 179.0000000000000000, 27.99999999999994000, 2.192117770473762000E-014 ) ) ;
#283 = DIRECTION ( 'NONE',  ( 1.000000000000000000, -1.985006962560525500E-016, 0.0000000000000000000 ) ) ;
#284 = EDGE_CURVE ( 'NONE', #338, #129, #379, .T. ) ;
#285 = CARTESIAN_POINT ( 'NONE',  ( 1.078520768856852100E-029, 5.551115123125782700E-014, 0.0000000000000000000 ) ) ;
#286 = CARTESIAN_POINT ( 'NONE',  ( 7.929957982662939000E-016, 4.000000000000056000, 0.0000000000000000000 ) ) ;
#287 = AXIS2_PLACEMENT_3D ( 'NONE', #303, #146, #211 ) ;
#288 = PERSON_AND_ORGANIZATION_ROLE ( 'creator' ) ;
#289 = CIRCLE ( 'NONE', #74, 201.0000000000000000 ) ;
#290 = CARTESIAN_POINT ( 'NONE',  ( 183.0000000000000000, 8.000000000000019500, 0.0000000000000000000 ) ) ;
#291 = PERSON_AND_ORGANIZATION_ROLE ( 'creator' ) ;
#292 = ORIENTED_EDGE ( 'NONE', *, *, #390, .F. ) ;
#293 = AXIS2_PLACEMENT_3D ( 'NONE', #275, #240, #201 ) ;
#294 = DIRECTION ( 'NONE',  ( 1.000000000000000000, 0.0000000000000000000, -1.224646799147349500E-016 ) ) ;
#295 = CIRCLE ( 'NONE', #305, 4.000000000000003600 ) ;
#296 = AXIS2_PLACEMENT_3D ( 'NONE', #95, #308, #185 ) ;
#297 = VERTEX_POINT ( 'NONE', #281 ) ;
#298 = APPROVAL_DATE_TIME ( #322, #136 ) ;
#299 = CARTESIAN_POINT ( 'NONE',  ( -205.0000000000000300, 2.071744883549205300E-013, 2.510525938252074000E-014 ) ) ;
#300 = ORGANIZATION ( 'UNSPECIFIED', 'UNSPECIFIED', '' ) ;
#301 = ORIENTED_EDGE ( 'NONE', *, *, #248, .F. ) ;
#302 = CARTESIAN_POINT ( 'NONE',  ( 3.235562306570556200E-029, 1.665334536937734800E-013, 0.0000000000000000000 ) ) ;
#303 = CARTESIAN_POINT ( 'NONE',  ( 5.550970587863977100E-015, 27.99999999999997200, 0.0000000000000000000 ) ) ;
#304 = DIRECTION ( 'NONE',  ( 1.982489495665708100E-016, 1.000000000000000000, -0.0000000000000000000 ) ) ;
#305 = AXIS2_PLACEMENT_3D ( 'NONE', #40, #273, #330 ) ;
#306 = ORIENTED_EDGE ( 'NONE', *, *, #113, .T. ) ;
#307 = DIRECTION ( 'NONE',  ( -1.000000000000000000, 1.982489495665708100E-016, 0.0000000000000000000 ) ) ;
#308 = DIRECTION ( 'NONE',  ( 1.982489495665708100E-016, 1.000000000000000000, -0.0000000000000000000 ) ) ;
#309 = VERTEX_POINT ( 'NONE', #81 ) ;
#310 =( LENGTH_UNIT ( ) NAMED_UNIT ( * ) SI_UNIT ( .MILLI., .METRE. ) );
#311 = LOCAL_TIME ( 9, 45, 59.00000000000000000, #121 ) ;
#312 = AXIS2_PLACEMENT_3D ( 'NONE', #116, #181, #41 ) ;
#313 = CARTESIAN_POINT ( 'NONE',  ( 183.0000000000000000, 4.000000000000019500, 0.0000000000000000000 ) ) ;
#314 = VECTOR ( 'NONE', #361, 1000.000000000000000 ) ;
#315 = APPLICATION_PROTOCOL_DEFINITION ( 'international standard', 'config_control_design', 1994, #255 ) ;
#316 = EDGE_LOOP ( 'NONE', ( #148, #323, #168, #301 ) ) ;
#317 = ORIENTED_EDGE ( 'NONE', *, *, #349, .T. ) ;
#318 = DIRECTION ( 'NONE',  ( 1.982489495665708100E-016, 1.000000000000000000, -0.0000000000000000000 ) ) ;
#319 = CIRCLE ( 'NONE', #120, 179.0000000000000000 ) ;
#320 = FACE_OUTER_BOUND ( 'NONE', #316, .T. ) ;
#321 = EDGE_CURVE ( 'NONE', #96, #129, #217, .T. ) ;
#322 = DATE_AND_TIME ( #191, #229 ) ;
#323 = ORIENTED_EDGE ( 'NONE', *, *, #382, .F. ) ;
#324 = LINE ( 'NONE', #12, #218 ) ;
#325 = ORIENTED_EDGE ( 'NONE', *, *, #199, .F. ) ;
#326 = AXIS2_PLACEMENT_3D ( 'NONE', #138, #175, #386 ) ;
#327 = ORIENTED_EDGE ( 'NONE', *, *, #277, .T. ) ;
#328 = PERSON ( 'UNSPECIFIED', 'UNSPECIFIED', 'UNSPECIFIED', ('UNSPECIFIED'), ('UNSPECIFIED'), ('UNSPECIFIED') ) ;
#329 = CC_DESIGN_PERSON_AND_ORGANIZATION_ASSIGNMENT ( #180, #55, ( #239 ) ) ;
#330 = DIRECTION ( 'NONE',  ( -1.000000000000000000, 0.0000000000000000000, 0.0000000000000000000 ) ) ;
#331 = DIRECTION ( 'NONE',  ( 1.982489495665708100E-016, 1.000000000000000000, -0.0000000000000000000 ) ) ;
#332 = DIRECTION ( 'NONE',  ( 1.000000000000000000, -1.982489495665708100E-016, 0.0000000000000000000 ) ) ;
#333 = DIRECTION ( 'NONE',  ( -1.982489495665708100E-016, -1.000000000000000000, 0.0000000000000000000 ) ) ;
#334 = AXIS2_PLACEMENT_3D ( 'NONE', #87, #398, #57 ) ;
#335 = TOROIDAL_SURFACE ( 'NONE', #312, 201.0000000000000000, 4.000000000000000000 ) ;
#336 = CARTESIAN_POINT ( 'NONE',  ( 179.0000000000000000, 4.000000000000020400, 0.0000000000000000000 ) ) ;
#337 = CARTESIAN_POINT ( 'NONE',  ( 175.0000000000001100, 1.075537588559482600E-013, 2.143131898507869200E-014 ) ) ;
#338 = VERTEX_POINT ( 'NONE', #58 ) ;
#339 = CIRCLE ( 'NONE', #14, 4.000000000000003600 ) ;
#340 = DIRECTION ( 'NONE',  ( 0.0000000000000000000, -0.0000000000000000000, -1.000000000000000000 ) ) ;
#341 = CIRCLE ( 'NONE', #38, 179.0000000000000000 ) ;
#342 = DATE_AND_TIME ( #64, #9 ) ;
#343 = AXIS2_PLACEMENT_3D ( 'NONE', #19, #367, #143 ) ;
#344 = PERSON_AND_ORGANIZATION_ROLE ( 'classification_officer' ) ;
#345 = FACE_BOUND ( 'NONE', #31, .T. ) ;
#346 = APPLICATION_CONTEXT ( 'configuration controlled 3d designs of mechanical parts and assemblies' ) ;
#347 = ORIENTED_EDGE ( 'NONE', *, *, #54, .F. ) ;
#348 = APPROVAL_PERSON_ORGANIZATION ( #266, #118, #158 ) ;
#349 = EDGE_CURVE ( 'NONE', #129, #338, #71, .T. ) ;
#350 = CC_DESIGN_DATE_AND_TIME_ASSIGNMENT ( #342, #220, ( #363 ) ) ;
#351 = DATE_AND_TIME ( #133, #11 ) ;
#352 = FACE_OUTER_BOUND ( 'NONE', #247, .T. ) ;
#353 = DESIGN_CONTEXT ( 'detailed design', #255, 'design' ) ;
#354 = EDGE_CURVE ( 'NONE', #297, #366, #339, .T. ) ;
#355 = ORIENTED_EDGE ( 'NONE', *, *, #29, .F. ) ;
#356 = CC_DESIGN_SECURITY_CLASSIFICATION ( #363, ( #239 ) ) ;
#357 = FACE_OUTER_BOUND ( 'NONE', #13, .T. ) ;
#358 = CARTESIAN_POINT ( 'NONE',  ( -179.0000000000000000, 8.000000000000090600, 0.0000000000000000000 ) ) ;
#359 = ORIENTED_EDGE ( 'NONE', *, *, #54, .T. ) ;
#360 = AXIS2_PLACEMENT_3D ( 'NONE', #405, #226, #192 ) ;
#361 = DIRECTION ( 'NONE',  ( 1.982489495665708100E-016, 1.000000000000000000, -0.0000000000000000000 ) ) ;
#362 = CIRCLE ( 'NONE', #196, 4.000000000000003600 ) ;
#363 = SECURITY_CLASSIFICATION ( '', '', #127 ) ;
#364 = DIRECTION ( 'NONE',  ( 1.982489495665708100E-016, 1.000000000000000000, -0.0000000000000000000 ) ) ;
#365 = DIRECTION ( 'NONE',  ( -1.982489495665708100E-016, -1.000000000000000000, 0.0000000000000000000 ) ) ;
#366 = VERTEX_POINT ( 'NONE', #34 ) ;
#367 = DIRECTION ( 'NONE',  ( 1.982489495665708100E-016, 1.000000000000000000, -0.0000000000000000000 ) ) ;
#368 = CARTESIAN_POINT ( 'NONE',  ( 179.0000000000000000, 23.99999999999998900, 2.192117770473762000E-014 ) ) ;
#369 = DIRECTION ( 'NONE',  ( -1.000000000000000000, 1.982489495665708600E-016, 0.0000000000000000000 ) ) ;
#370 = EDGE_CURVE ( 'NONE', #388, #162, #235, .T. ) ;
#371 = DIRECTION ( 'NONE',  ( 1.982489495665708100E-016, 1.000000000000000000, -0.0000000000000000000 ) ) ;
#372 = CARTESIAN_POINT ( 'NONE',  ( 5.550970587863977100E-015, 27.99999999999997200, 0.0000000000000000000 ) ) ;
#373 = ADVANCED_FACE ( 'NONE', ( #10 ), #21, .T. ) ;
#374 = FACE_OUTER_BOUND ( 'NONE', #393, .T. ) ;
#375 =( NAMED_UNIT ( * ) SI_UNIT ( $, .STERADIAN. ) SOLID_ANGLE_UNIT ( ) );
#376 = ORIENTED_EDGE ( 'NONE', *, *, #370, .T. ) ;
#377 =( NAMED_UNIT ( * ) PLANE_ANGLE_UNIT ( ) SI_UNIT ( $, .RADIAN. ) );
#378 = ORIENTED_EDGE ( 'NONE', *, *, #160, .F. ) ;
#379 = CIRCLE ( 'NONE', #140, 205.0000000000000300 ) ;
#380 = AXIS2_PLACEMENT_3D ( 'NONE', #224, #263, #61 ) ;
#381 = ORIENTED_EDGE ( 'NONE', *, *, #214, .F. ) ;
#382 = EDGE_CURVE ( 'NONE', #150, #297, #182, .T. ) ;
#383 = ORIENTED_EDGE ( 'NONE', *, *, #271, .T. ) ;
#384 = EDGE_LOOP ( 'NONE', ( #257, #85, #251, #265 ) ) ;
#385 = ORIENTED_EDGE ( 'NONE', *, *, #354, .T. ) ;
#386 = DIRECTION ( 'NONE',  ( 1.000000000000000000, -1.982489495665708100E-016, 0.0000000000000000000 ) ) ;
#387 = COORDINATED_UNIVERSAL_TIME_OFFSET ( 1, 0, .AHEAD. ) ;
#388 = VERTEX_POINT ( 'NONE', #313 ) ;
#389 = DIRECTION ( 'NONE',  ( 1.000000000000000000, -1.982489495665708100E-016, 0.0000000000000000000 ) ) ;
#390 = EDGE_CURVE ( 'NONE', #198, #162, #264, .T. ) ;
#391 = CIRCLE ( 'NONE', #2, 179.0000000000000000 ) ;
#392 = DIRECTION ( 'NONE',  ( 1.982489495665708100E-016, 1.000000000000000000, -0.0000000000000000000 ) ) ;
#393 = EDGE_LOOP ( 'NONE', ( #123, #262, #404, #1 ) ) ;
#394 = ORIENTED_EDGE ( 'NONE', *, *, #390, .T. ) ;
#395 = DIRECTION ( 'NONE',  ( -1.000000000000000000, 1.938238520644477200E-016, 0.0000000000000000000 ) ) ;
#396 = ADVANCED_FACE ( 'NONE', ( #357 ), #171, .F. ) ;
#397 = ORIENTED_EDGE ( 'NONE', *, *, #370, .F. ) ;
#398 = DIRECTION ( 'NONE',  ( 1.982489495665708100E-016, 1.000000000000000000, -0.0000000000000000000 ) ) ;
#399 = EDGE_CURVE ( 'NONE', #228, #366, #319, .T. ) ;
#400 = APPLICATION_PROTOCOL_DEFINITION ( 'international standard', 'config_control_design', 1994, #346 ) ;
#401 = DIRECTION ( 'NONE',  ( -1.982489495665708100E-016, -1.000000000000000000, 0.0000000000000000000 ) ) ;
#402 = CIRCLE ( 'NONE', #151, 183.0000000000000000 ) ;
#403 = DIRECTION ( 'NONE',  ( 1.982489495665708100E-016, 1.000000000000000000, -0.0000000000000000000 ) ) ;
#404 = ORIENTED_EDGE ( 'NONE', *, *, #199, .T. ) ;
#405 = CARTESIAN_POINT ( 'NONE',  ( -201.0000000000000000, 9.535919009413856200E-014, 2.461540066286179900E-014 ) ) ;
ENDSEC;
END-ISO-10303-21;
