ISO-10303-21;
HEADER;
/* Generated by software containing ST-Developer
 * from STEP Tools, Inc. (www.steptools.com) 
 */

FILE_DESCRIPTION(
/* description */ (''),
/* implementation_level */ '2;1');

FILE_NAME(
/* name */ 
'C:\\Users\\cad\\Desktop\\Zeichnungen neu von Ralph\\3D_Kupplung_R666-
SE\\3D_R666-SE-12-DN10_17113300.stp',
/* time_stamp */ '2021-06-17T15:06:12+02:00',
/* author */ ('cad'),
/* organization */ (''),
/* preprocessor_version */ 'ST-DEVELOPER v18.1',
/* originating_system */ 'Autodesk Inventor 2022',
/* authorisation */ '');

FILE_SCHEMA (('AUTOMOTIVE_DESIGN { 1 0 10303 214 3 1 1 }'));
ENDSEC;

DATA;
#10=MECHANICAL_DESIGN_GEOMETRIC_PRESENTATION_REPRESENTATION('',(#13),#387);
#11=SHAPE_REPRESENTATION_RELATIONSHIP('SRR','None',#394,#12);
#12=ADVANCED_BREP_SHAPE_REPRESENTATION('',(#14),#386);
#13=STYLED_ITEM('',(#403),#14);
#14=MANIFOLD_SOLID_BREP('Volumenk\X\F6rper1',#203);
#15=TOROIDAL_SURFACE('',#252,6.4,0.4);
#16=FACE_BOUND('',#40,.T.);
#17=FACE_BOUND('',#43,.T.);
#18=FACE_BOUND('',#49,.T.);
#19=PLANE('',#230);
#20=PLANE('',#236);
#21=PLANE('',#249);
#22=CYLINDRICAL_SURFACE('',#227,4.5);
#23=CYLINDRICAL_SURFACE('',#238,6.);
#24=CYLINDRICAL_SURFACE('',#246,7.25);
#25=FACE_OUTER_BOUND('',#37,.T.);
#26=FACE_OUTER_BOUND('',#38,.T.);
#27=FACE_OUTER_BOUND('',#39,.T.);
#28=FACE_OUTER_BOUND('',#41,.T.);
#29=FACE_OUTER_BOUND('',#42,.T.);
#30=FACE_OUTER_BOUND('',#44,.T.);
#31=FACE_OUTER_BOUND('',#45,.T.);
#32=FACE_OUTER_BOUND('',#46,.T.);
#33=FACE_OUTER_BOUND('',#47,.T.);
#34=FACE_OUTER_BOUND('',#48,.T.);
#35=FACE_OUTER_BOUND('',#50,.T.);
#36=FACE_OUTER_BOUND('',#51,.T.);
#37=EDGE_LOOP('',(#132,#133,#134,#135,#136));
#38=EDGE_LOOP('',(#137,#138,#139,#140,#141,#142));
#39=EDGE_LOOP('',(#143));
#40=EDGE_LOOP('',(#144));
#41=EDGE_LOOP('',(#145,#146,#147,#148,#149));
#42=EDGE_LOOP('',(#150));
#43=EDGE_LOOP('',(#151));
#44=EDGE_LOOP('',(#152,#153,#154,#155,#156,#157));
#45=EDGE_LOOP('',(#158,#159,#160,#161,#162));
#46=EDGE_LOOP('',(#163,#164,#165,#166,#167));
#47=EDGE_LOOP('',(#168,#169,#170,#171,#172,#173));
#48=EDGE_LOOP('',(#174));
#49=EDGE_LOOP('',(#175));
#50=EDGE_LOOP('',(#176,#177,#178,#179,#180));
#51=EDGE_LOOP('',(#181,#182,#183,#184,#185));
#52=LINE('',#333,#60);
#53=LINE('',#337,#61);
#54=LINE('',#350,#62);
#55=LINE('',#359,#63);
#56=LINE('',#362,#64);
#57=LINE('',#369,#65);
#58=LINE('',#376,#66);
#59=LINE('',#381,#67);
#60=VECTOR('',#262,4.65);
#61=VECTOR('',#267,4.5);
#62=VECTOR('',#282,5.85);
#63=VECTOR('',#293,6.);
#64=VECTOR('',#298,4.65);
#65=VECTOR('',#305,7.1);
#66=VECTOR('',#314,7.25);
#67=VECTOR('',#321,7.1);
#68=CIRCLE('',#224,4.5);
#69=CIRCLE('',#225,4.5);
#70=CIRCLE('',#226,4.8);
#71=CIRCLE('',#228,4.5);
#72=CIRCLE('',#229,4.5);
#73=CIRCLE('',#231,6.95);
#74=CIRCLE('',#233,6.);
#75=CIRCLE('',#234,6.);
#76=CIRCLE('',#235,5.7);
#77=CIRCLE('',#237,4.79999999999999);
#78=CIRCLE('',#239,6.);
#79=CIRCLE('',#240,6.);
#80=CIRCLE('',#243,7.25);
#81=CIRCLE('',#244,7.25);
#82=CIRCLE('',#245,6.95);
#83=CIRCLE('',#247,7.25);
#84=CIRCLE('',#248,7.25);
#85=CIRCLE('',#250,6.4);
#86=CIRCLE('',#253,0.4);
#87=VERTEX_POINT('',#328);
#88=VERTEX_POINT('',#329);
#89=VERTEX_POINT('',#332);
#90=VERTEX_POINT('',#336);
#91=VERTEX_POINT('',#338);
#92=VERTEX_POINT('',#342);
#93=VERTEX_POINT('',#345);
#94=VERTEX_POINT('',#346);
#95=VERTEX_POINT('',#349);
#96=VERTEX_POINT('',#353);
#97=VERTEX_POINT('',#356);
#98=VERTEX_POINT('',#357);
#99=VERTEX_POINT('',#364);
#100=VERTEX_POINT('',#365);
#101=VERTEX_POINT('',#368);
#102=VERTEX_POINT('',#372);
#103=VERTEX_POINT('',#373);
#104=VERTEX_POINT('',#378);
#105=EDGE_CURVE('',#87,#88,#68,.T.);
#106=EDGE_CURVE('',#88,#87,#69,.T.);
#107=EDGE_CURVE('',#87,#89,#52,.T.);
#108=EDGE_CURVE('',#89,#89,#70,.T.);
#109=EDGE_CURVE('',#88,#90,#53,.T.);
#110=EDGE_CURVE('',#91,#90,#71,.T.);
#111=EDGE_CURVE('',#90,#91,#72,.T.);
#112=EDGE_CURVE('',#92,#92,#73,.T.);
#113=EDGE_CURVE('',#93,#94,#74,.T.);
#114=EDGE_CURVE('',#94,#93,#75,.T.);
#115=EDGE_CURVE('',#93,#95,#54,.T.);
#116=EDGE_CURVE('',#95,#95,#76,.T.);
#117=EDGE_CURVE('',#96,#96,#77,.T.);
#118=EDGE_CURVE('',#97,#98,#78,.T.);
#119=EDGE_CURVE('',#97,#94,#55,.T.);
#120=EDGE_CURVE('',#98,#97,#79,.T.);
#121=EDGE_CURVE('',#96,#91,#56,.T.);
#122=EDGE_CURVE('',#99,#100,#80,.T.);
#123=EDGE_CURVE('',#100,#99,#81,.T.);
#124=EDGE_CURVE('',#99,#101,#57,.T.);
#125=EDGE_CURVE('',#101,#101,#82,.T.);
#126=EDGE_CURVE('',#102,#103,#83,.T.);
#127=EDGE_CURVE('',#103,#102,#84,.T.);
#128=EDGE_CURVE('',#103,#100,#58,.T.);
#129=EDGE_CURVE('',#104,#104,#85,.T.);
#130=EDGE_CURVE('',#92,#102,#59,.T.);
#131=EDGE_CURVE('',#98,#104,#86,.T.);
#132=ORIENTED_EDGE('',*,*,#105,.T.);
#133=ORIENTED_EDGE('',*,*,#106,.T.);
#134=ORIENTED_EDGE('',*,*,#107,.T.);
#135=ORIENTED_EDGE('',*,*,#108,.T.);
#136=ORIENTED_EDGE('',*,*,#107,.F.);
#137=ORIENTED_EDGE('',*,*,#105,.F.);
#138=ORIENTED_EDGE('',*,*,#106,.F.);
#139=ORIENTED_EDGE('',*,*,#109,.T.);
#140=ORIENTED_EDGE('',*,*,#110,.F.);
#141=ORIENTED_EDGE('',*,*,#111,.F.);
#142=ORIENTED_EDGE('',*,*,#109,.F.);
#143=ORIENTED_EDGE('',*,*,#112,.F.);
#144=ORIENTED_EDGE('',*,*,#108,.F.);
#145=ORIENTED_EDGE('',*,*,#113,.T.);
#146=ORIENTED_EDGE('',*,*,#114,.T.);
#147=ORIENTED_EDGE('',*,*,#115,.T.);
#148=ORIENTED_EDGE('',*,*,#116,.T.);
#149=ORIENTED_EDGE('',*,*,#115,.F.);
#150=ORIENTED_EDGE('',*,*,#116,.F.);
#151=ORIENTED_EDGE('',*,*,#117,.F.);
#152=ORIENTED_EDGE('',*,*,#118,.F.);
#153=ORIENTED_EDGE('',*,*,#119,.T.);
#154=ORIENTED_EDGE('',*,*,#113,.F.);
#155=ORIENTED_EDGE('',*,*,#114,.F.);
#156=ORIENTED_EDGE('',*,*,#119,.F.);
#157=ORIENTED_EDGE('',*,*,#120,.F.);
#158=ORIENTED_EDGE('',*,*,#117,.T.);
#159=ORIENTED_EDGE('',*,*,#121,.T.);
#160=ORIENTED_EDGE('',*,*,#110,.T.);
#161=ORIENTED_EDGE('',*,*,#111,.T.);
#162=ORIENTED_EDGE('',*,*,#121,.F.);
#163=ORIENTED_EDGE('',*,*,#122,.T.);
#164=ORIENTED_EDGE('',*,*,#123,.T.);
#165=ORIENTED_EDGE('',*,*,#124,.T.);
#166=ORIENTED_EDGE('',*,*,#125,.T.);
#167=ORIENTED_EDGE('',*,*,#124,.F.);
#168=ORIENTED_EDGE('',*,*,#126,.F.);
#169=ORIENTED_EDGE('',*,*,#127,.F.);
#170=ORIENTED_EDGE('',*,*,#128,.T.);
#171=ORIENTED_EDGE('',*,*,#122,.F.);
#172=ORIENTED_EDGE('',*,*,#123,.F.);
#173=ORIENTED_EDGE('',*,*,#128,.F.);
#174=ORIENTED_EDGE('',*,*,#125,.F.);
#175=ORIENTED_EDGE('',*,*,#129,.F.);
#176=ORIENTED_EDGE('',*,*,#112,.T.);
#177=ORIENTED_EDGE('',*,*,#130,.T.);
#178=ORIENTED_EDGE('',*,*,#126,.T.);
#179=ORIENTED_EDGE('',*,*,#127,.T.);
#180=ORIENTED_EDGE('',*,*,#130,.F.);
#181=ORIENTED_EDGE('',*,*,#118,.T.);
#182=ORIENTED_EDGE('',*,*,#131,.T.);
#183=ORIENTED_EDGE('',*,*,#129,.T.);
#184=ORIENTED_EDGE('',*,*,#131,.F.);
#185=ORIENTED_EDGE('',*,*,#120,.T.);
#186=CONICAL_SURFACE('',#223,4.65,0.785398163397457);
#187=CONICAL_SURFACE('',#232,5.85,0.78539816339745);
#188=CONICAL_SURFACE('',#241,4.65,0.78539816339744);
#189=CONICAL_SURFACE('',#242,7.1,0.785398163397448);
#190=CONICAL_SURFACE('',#251,7.1,0.785398163397455);
#191=ADVANCED_FACE('',(#25),#186,.F.);
#192=ADVANCED_FACE('',(#26),#22,.F.);
#193=ADVANCED_FACE('',(#27,#16),#19,.T.);
#194=ADVANCED_FACE('',(#28),#187,.T.);
#195=ADVANCED_FACE('',(#29,#17),#20,.T.);
#196=ADVANCED_FACE('',(#30),#23,.T.);
#197=ADVANCED_FACE('',(#31),#188,.F.);
#198=ADVANCED_FACE('',(#32),#189,.T.);
#199=ADVANCED_FACE('',(#33),#24,.T.);
#200=ADVANCED_FACE('',(#34,#18),#21,.T.);
#201=ADVANCED_FACE('',(#35),#190,.T.);
#202=ADVANCED_FACE('',(#36),#15,.F.);
#203=CLOSED_SHELL('',(#191,#192,#193,#194,#195,#196,#197,#198,#199,#200,
#201,#202));
#204=DERIVED_UNIT_ELEMENT(#206,1.);
#205=DERIVED_UNIT_ELEMENT(#389,-3.);
#206=(
MASS_UNIT()
NAMED_UNIT(*)
SI_UNIT($,.GRAM.)
);
#207=DERIVED_UNIT((#204,#205));
#208=MEASURE_REPRESENTATION_ITEM('density measure',
POSITIVE_RATIO_MEASURE(1.),#207);
#209=PROPERTY_DEFINITION_REPRESENTATION(#214,#211);
#210=PROPERTY_DEFINITION_REPRESENTATION(#215,#212);
#211=REPRESENTATION('material name',(#213),#386);
#212=REPRESENTATION('density',(#208),#386);
#213=DESCRIPTIVE_REPRESENTATION_ITEM('Generisch','Generisch');
#214=PROPERTY_DEFINITION('material property','material name',#396);
#215=PROPERTY_DEFINITION('material property','density of part',#396);
#216=DATE_TIME_ROLE('creation_date');
#217=APPLIED_DATE_AND_TIME_ASSIGNMENT(#218,#216,(#396));
#218=DATE_AND_TIME(#219,#220);
#219=CALENDAR_DATE(2021,17,6);
#220=LOCAL_TIME(0,0,0.,#221);
#221=COORDINATED_UNIVERSAL_TIME_OFFSET(0,0,.BEHIND.);
#222=AXIS2_PLACEMENT_3D('placement',#326,#254,#255);
#223=AXIS2_PLACEMENT_3D('',#327,#256,#257);
#224=AXIS2_PLACEMENT_3D('',#330,#258,#259);
#225=AXIS2_PLACEMENT_3D('',#331,#260,#261);
#226=AXIS2_PLACEMENT_3D('',#334,#263,#264);
#227=AXIS2_PLACEMENT_3D('',#335,#265,#266);
#228=AXIS2_PLACEMENT_3D('',#339,#268,#269);
#229=AXIS2_PLACEMENT_3D('',#340,#270,#271);
#230=AXIS2_PLACEMENT_3D('',#341,#272,#273);
#231=AXIS2_PLACEMENT_3D('',#343,#274,#275);
#232=AXIS2_PLACEMENT_3D('',#344,#276,#277);
#233=AXIS2_PLACEMENT_3D('',#347,#278,#279);
#234=AXIS2_PLACEMENT_3D('',#348,#280,#281);
#235=AXIS2_PLACEMENT_3D('',#351,#283,#284);
#236=AXIS2_PLACEMENT_3D('',#352,#285,#286);
#237=AXIS2_PLACEMENT_3D('',#354,#287,#288);
#238=AXIS2_PLACEMENT_3D('',#355,#289,#290);
#239=AXIS2_PLACEMENT_3D('',#358,#291,#292);
#240=AXIS2_PLACEMENT_3D('',#360,#294,#295);
#241=AXIS2_PLACEMENT_3D('',#361,#296,#297);
#242=AXIS2_PLACEMENT_3D('',#363,#299,#300);
#243=AXIS2_PLACEMENT_3D('',#366,#301,#302);
#244=AXIS2_PLACEMENT_3D('',#367,#303,#304);
#245=AXIS2_PLACEMENT_3D('',#370,#306,#307);
#246=AXIS2_PLACEMENT_3D('',#371,#308,#309);
#247=AXIS2_PLACEMENT_3D('',#374,#310,#311);
#248=AXIS2_PLACEMENT_3D('',#375,#312,#313);
#249=AXIS2_PLACEMENT_3D('',#377,#315,#316);
#250=AXIS2_PLACEMENT_3D('',#379,#317,#318);
#251=AXIS2_PLACEMENT_3D('',#380,#319,#320);
#252=AXIS2_PLACEMENT_3D('',#382,#322,#323);
#253=AXIS2_PLACEMENT_3D('',#383,#324,#325);
#254=DIRECTION('axis',(0.,0.,1.));
#255=DIRECTION('refdir',(1.,0.,0.));
#256=DIRECTION('center_axis',(1.,0.,0.));
#257=DIRECTION('ref_axis',(0.,-1.,0.));
#258=DIRECTION('center_axis',(-1.,0.,0.));
#259=DIRECTION('ref_axis',(0.,-1.,0.));
#260=DIRECTION('center_axis',(-1.,0.,0.));
#261=DIRECTION('ref_axis',(0.,-1.,0.));
#262=DIRECTION('',(0.707106781186542,0.707106781186553,-8.65956056235501E-17));
#263=DIRECTION('center_axis',(1.,0.,0.));
#264=DIRECTION('ref_axis',(0.,-1.,0.));
#265=DIRECTION('center_axis',(1.,0.,0.));
#266=DIRECTION('ref_axis',(0.,1.,0.));
#267=DIRECTION('',(-1.,0.,0.));
#268=DIRECTION('center_axis',(1.,0.,0.));
#269=DIRECTION('ref_axis',(0.,-1.,0.));
#270=DIRECTION('center_axis',(1.,0.,0.));
#271=DIRECTION('ref_axis',(0.,-1.,0.));
#272=DIRECTION('center_axis',(1.,0.,0.));
#273=DIRECTION('ref_axis',(0.,0.,-1.));
#274=DIRECTION('center_axis',(-1.,0.,0.));
#275=DIRECTION('ref_axis',(0.,-1.,0.));
#276=DIRECTION('center_axis',(1.,0.,0.));
#277=DIRECTION('ref_axis',(0.,-1.,0.));
#278=DIRECTION('center_axis',(-1.,0.,0.));
#279=DIRECTION('ref_axis',(0.,-1.,0.));
#280=DIRECTION('center_axis',(-1.,0.,0.));
#281=DIRECTION('ref_axis',(0.,-1.,0.));
#282=DIRECTION('',(-0.707106781186546,-0.707106781186549,-8.65956056235495E-17));
#283=DIRECTION('center_axis',(1.,0.,0.));
#284=DIRECTION('ref_axis',(0.,-1.,0.));
#285=DIRECTION('center_axis',(-1.,0.,0.));
#286=DIRECTION('ref_axis',(0.,0.,1.));
#287=DIRECTION('center_axis',(-1.,0.,0.));
#288=DIRECTION('ref_axis',(0.,-1.,0.));
#289=DIRECTION('center_axis',(1.,0.,0.));
#290=DIRECTION('ref_axis',(0.,1.,0.));
#291=DIRECTION('center_axis',(1.,0.,0.));
#292=DIRECTION('ref_axis',(0.,-1.,1.83697019872103E-16));
#293=DIRECTION('',(-1.,0.,0.));
#294=DIRECTION('center_axis',(1.,0.,0.));
#295=DIRECTION('ref_axis',(0.,-1.,1.83697019872103E-16));
#296=DIRECTION('center_axis',(-1.,0.,0.));
#297=DIRECTION('ref_axis',(0.,-1.,0.));
#298=DIRECTION('',(0.707106781186553,-0.707106781186542,8.65956056235486E-17));
#299=DIRECTION('center_axis',(1.,0.,0.));
#300=DIRECTION('ref_axis',(0.,-1.,0.));
#301=DIRECTION('center_axis',(-1.,0.,0.));
#302=DIRECTION('ref_axis',(0.,-1.,0.));
#303=DIRECTION('center_axis',(-1.,0.,0.));
#304=DIRECTION('ref_axis',(0.,-1.,0.));
#305=DIRECTION('',(-0.707106781186547,-0.707106781186547,-8.65956056235493E-17));
#306=DIRECTION('center_axis',(1.,0.,0.));
#307=DIRECTION('ref_axis',(0.,-1.,0.));
#308=DIRECTION('center_axis',(1.,0.,0.));
#309=DIRECTION('ref_axis',(0.,1.,0.));
#310=DIRECTION('center_axis',(1.,0.,0.));
#311=DIRECTION('ref_axis',(0.,-1.,0.));
#312=DIRECTION('center_axis',(1.,0.,0.));
#313=DIRECTION('ref_axis',(0.,-1.,0.));
#314=DIRECTION('',(-1.,0.,0.));
#315=DIRECTION('center_axis',(-1.,0.,0.));
#316=DIRECTION('ref_axis',(0.,0.,1.));
#317=DIRECTION('center_axis',(-1.,0.,0.));
#318=DIRECTION('ref_axis',(0.,-1.,1.83697019872103E-16));
#319=DIRECTION('center_axis',(-1.,0.,0.));
#320=DIRECTION('ref_axis',(0.,-1.,0.));
#321=DIRECTION('',(-0.707106781186543,0.707106781186552,8.65956056235499E-17));
#322=DIRECTION('center_axis',(1.,0.,0.));
#323=DIRECTION('ref_axis',(0.,0.,-1.));
#324=DIRECTION('center_axis',(0.,-1.,-1.22464679914735E-16));
#325=DIRECTION('ref_axis',(0.,-1.22464679914735E-16,1.));
#326=CARTESIAN_POINT('',(0.,0.,0.));
#327=CARTESIAN_POINT('Origin',(-0.150000000000002,0.,0.));
#328=CARTESIAN_POINT('',(-0.300000000000002,4.5,-5.51091059616309E-16));
#329=CARTESIAN_POINT('',(-0.300000000000002,-4.5,-5.51091059616309E-16));
#330=CARTESIAN_POINT('Origin',(-0.300000000000002,0.,0.));
#331=CARTESIAN_POINT('Origin',(-0.300000000000002,0.,0.));
#332=CARTESIAN_POINT('',(-2.22044604925031E-15,4.8,5.8783046359073E-16));
#333=CARTESIAN_POINT('',(-0.150000000000002,4.65,-5.69460761603519E-16));
#334=CARTESIAN_POINT('Origin',(-2.22044604925031E-15,0.,0.));
#335=CARTESIAN_POINT('Origin',(-6.5,0.,0.));
#336=CARTESIAN_POINT('',(-12.7,-4.5,-5.51091059616309E-16));
#337=CARTESIAN_POINT('',(-6.5,-4.5,-5.51091059616309E-16));
#338=CARTESIAN_POINT('',(-12.7,4.5,5.51091059616309E-16));
#339=CARTESIAN_POINT('Origin',(-12.7,0.,0.));
#340=CARTESIAN_POINT('Origin',(-12.7,0.,0.));
#341=CARTESIAN_POINT('Origin',(-2.22044604925031E-15,4.5,0.));
#342=CARTESIAN_POINT('',(-2.22044604925031E-15,6.95,-8.51129525407411E-16));
#343=CARTESIAN_POINT('Origin',(-2.22044604925031E-15,0.,0.));
#344=CARTESIAN_POINT('Origin',(-12.85,0.,0.));
#345=CARTESIAN_POINT('',(-12.7,6.,-7.34788079488412E-16));
#346=CARTESIAN_POINT('',(-12.7,-6.,-7.34788079488412E-16));
#347=CARTESIAN_POINT('Origin',(-12.7,0.,0.));
#348=CARTESIAN_POINT('Origin',(-12.7,0.,0.));
#349=CARTESIAN_POINT('',(-13.,5.7,6.98048675513991E-16));
#350=CARTESIAN_POINT('',(-12.85,5.85,7.16418377501202E-16));
#351=CARTESIAN_POINT('Origin',(-13.,0.,0.));
#352=CARTESIAN_POINT('Origin',(-13.,6.,0.));
#353=CARTESIAN_POINT('',(-13.,4.79999999999999,-5.87830463590729E-16));
#354=CARTESIAN_POINT('Origin',(-13.,0.,0.));
#355=CARTESIAN_POINT('Origin',(-8.,0.,0.));
#356=CARTESIAN_POINT('',(-3.4,-6.,-7.34788079488412E-16));
#357=CARTESIAN_POINT('',(-3.4,-7.34788079488412E-16,6.));
#358=CARTESIAN_POINT('Origin',(-3.4,0.,0.));
#359=CARTESIAN_POINT('',(-8.,-6.,-7.34788079488412E-16));
#360=CARTESIAN_POINT('Origin',(-3.4,0.,0.));
#361=CARTESIAN_POINT('Origin',(-12.85,0.,0.));
#362=CARTESIAN_POINT('',(-12.85,4.65,-5.69460761603519E-16));
#363=CARTESIAN_POINT('Origin',(-2.85,0.,0.));
#364=CARTESIAN_POINT('',(-2.7,7.25,-8.87868929381831E-16));
#365=CARTESIAN_POINT('',(-2.7,-7.25,-8.87868929381831E-16));
#366=CARTESIAN_POINT('Origin',(-2.7,0.,0.));
#367=CARTESIAN_POINT('Origin',(-2.7,0.,0.));
#368=CARTESIAN_POINT('',(-3.,6.95,8.51129525407411E-16));
#369=CARTESIAN_POINT('',(-2.85,7.1,8.69499227394621E-16));
#370=CARTESIAN_POINT('Origin',(-3.,0.,0.));
#371=CARTESIAN_POINT('Origin',(-1.5,0.,0.));
#372=CARTESIAN_POINT('',(-0.299999999999998,7.25,8.87868929381831E-16));
#373=CARTESIAN_POINT('',(-0.299999999999998,-7.25,-8.87868929381831E-16));
#374=CARTESIAN_POINT('Origin',(-0.299999999999998,0.,0.));
#375=CARTESIAN_POINT('Origin',(-0.299999999999998,0.,0.));
#376=CARTESIAN_POINT('',(-1.5,-7.25,-8.87868929381831E-16));
#377=CARTESIAN_POINT('Origin',(-3.,7.25,0.));
#378=CARTESIAN_POINT('',(-3.,-7.83773951454306E-16,6.4));
#379=CARTESIAN_POINT('Origin',(-3.,0.,0.));
#380=CARTESIAN_POINT('Origin',(-0.15,0.,0.));
#381=CARTESIAN_POINT('',(-0.15,7.1,8.69499227394621E-16));
#382=CARTESIAN_POINT('Origin',(-3.4,0.,0.));
#383=CARTESIAN_POINT('Origin',(-3.4,-7.83773951454306E-16,6.4));
#384=UNCERTAINTY_MEASURE_WITH_UNIT(LENGTH_MEASURE(0.01),#388,
'DISTANCE_ACCURACY_VALUE',
'Maximum model space distance between geometric entities at asserted c
onnectivities');
#385=UNCERTAINTY_MEASURE_WITH_UNIT(LENGTH_MEASURE(0.01),#388,
'DISTANCE_ACCURACY_VALUE',
'Maximum model space distance between geometric entities at asserted c
onnectivities');
#386=(
GEOMETRIC_REPRESENTATION_CONTEXT(3)
GLOBAL_UNCERTAINTY_ASSIGNED_CONTEXT((#384))
GLOBAL_UNIT_ASSIGNED_CONTEXT((#388,#390,#391))
REPRESENTATION_CONTEXT('','3D')
);
#387=(
GEOMETRIC_REPRESENTATION_CONTEXT(3)
GLOBAL_UNCERTAINTY_ASSIGNED_CONTEXT((#385))
GLOBAL_UNIT_ASSIGNED_CONTEXT((#388,#390,#391))
REPRESENTATION_CONTEXT('','3D')
);
#388=(
LENGTH_UNIT()
NAMED_UNIT(*)
SI_UNIT(.MILLI.,.METRE.)
);
#389=(
LENGTH_UNIT()
NAMED_UNIT(*)
SI_UNIT(.CENTI.,.METRE.)
);
#390=(
NAMED_UNIT(*)
PLANE_ANGLE_UNIT()
SI_UNIT($,.RADIAN.)
);
#391=(
NAMED_UNIT(*)
SI_UNIT($,.STERADIAN.)
SOLID_ANGLE_UNIT()
);
#392=SHAPE_DEFINITION_REPRESENTATION(#393,#394);
#393=PRODUCT_DEFINITION_SHAPE('',$,#396);
#394=SHAPE_REPRESENTATION('',(#222),#386);
#395=PRODUCT_DEFINITION_CONTEXT('part definition',#400,'design');
#396=PRODUCT_DEFINITION('3D_R666-SE-12-DN10_17113300',
'3D_R666-SE-12-DN10_17113300',#397,#395);
#397=PRODUCT_DEFINITION_FORMATION('',$,#402);
#398=PRODUCT_RELATED_PRODUCT_CATEGORY('3D_R666-SE-12-DN10_17113300',
'3D_R666-SE-12-DN10_17113300',(#402));
#399=APPLICATION_PROTOCOL_DEFINITION('international standard',
'automotive_design',2009,#400);
#400=APPLICATION_CONTEXT(
'Core Data for Automotive Mechanical Design Process');
#401=PRODUCT_CONTEXT('part definition',#400,'mechanical');
#402=PRODUCT('3D_R666-SE-12-DN10_17113300',
'3D_R666-SE-12-DN10_17113300',$,(#401));
#403=PRESENTATION_STYLE_ASSIGNMENT((#404));
#404=SURFACE_STYLE_USAGE(.BOTH.,#407);
#405=SURFACE_STYLE_RENDERING_WITH_PROPERTIES($,#411,(#406));
#406=SURFACE_STYLE_TRANSPARENT(0.);
#407=SURFACE_SIDE_STYLE('',(#408,#405));
#408=SURFACE_STYLE_FILL_AREA(#409);
#409=FILL_AREA_STYLE('',(#410));
#410=FILL_AREA_STYLE_COLOUR('',#411);
#411=COLOUR_RGB('',0.749019607843137,0.749019607843137,0.749019607843137);
ENDSEC;
END-ISO-10303-21;
