ISO-10303-21;
HEADER;
FILE_DESCRIPTION(('STEP AP214'),'1');
FILE_NAME('V-Boerdel-DN150.stp','2023-07-13T07:47:42',(' '),(' '),'Spatial InterOp 3D',' ',' ');
FILE_SCHEMA(('automotive_design'));
ENDSEC;
DATA;
#1=MECHANICAL_DESIGN_GEOMETRIC_PRESENTATION_REPRESENTATION(' ',(#10,#11,#12,#13,#14,#15,#16,#17,#18,#19,#20,#21,#22,#23),#6);
#2=PRODUCT_DEFINITION_CONTEXT('',#24,'design');
#3=APPLICATION_PROTOCOL_DEFINITION('INTERNATIONAL STANDARD','automotive_design',1994,#24);
#4=PRODUCT_CATEGORY_RELATIONSHIP('NONE','NONE',#25,#26);
#5=SHAPE_DEFINITION_REPRESENTATION(#27,#28);
#6= (GEOMETRIC_REPRESENTATION_CONTEXT(3)GLOBAL_UNCERTAINTY_ASSIGNED_CONTEXT((#31))GLOBAL_UNIT_ASSIGNED_CONTEXT((#33,#34,#35))REPRESENTATION_CONTEXT('NONE','WORKSPACE'));
#10=STYLED_ITEM('',(#37),#38);
#11=STYLED_ITEM('',(#39),#40);
#12=STYLED_ITEM('',(#41),#42);
#13=STYLED_ITEM('',(#43),#44);
#14=STYLED_ITEM('',(#45),#46);
#15=STYLED_ITEM('',(#47),#48);
#16=STYLED_ITEM('',(#49),#50);
#17=STYLED_ITEM('',(#51),#52);
#18=STYLED_ITEM('',(#53),#54);
#19=STYLED_ITEM('',(#55),#56);
#20=STYLED_ITEM('',(#57),#58);
#21=STYLED_ITEM('',(#59),#60);
#22=STYLED_ITEM('',(#61),#62);
#23=STYLED_ITEM('',(#63),#64);
#24=APPLICATION_CONTEXT(' ');
#25=PRODUCT_CATEGORY('part','NONE');
#26=PRODUCT_RELATED_PRODUCT_CATEGORY('detail',' ',(#65));
#27=PRODUCT_DEFINITION_SHAPE('NONE','NONE',#66);
#28=ADVANCED_BREP_SHAPE_REPRESENTATION('1',(#64,#67),#6);
#31=UNCERTAINTY_MEASURE_WITH_UNIT(LENGTH_MEASURE(1.0E-006),#33,'','');
#33= (CONVERSION_BASED_UNIT('MILLIMETRE',#70)LENGTH_UNIT()NAMED_UNIT(#73));
#34= (NAMED_UNIT(#75)PLANE_ANGLE_UNIT()SI_UNIT($,.RADIAN.));
#35= (NAMED_UNIT(#75)SOLID_ANGLE_UNIT()SI_UNIT($,.STERADIAN.));
#37=PRESENTATION_STYLE_ASSIGNMENT((#81));
#38=ADVANCED_FACE('',(#82),#83,.T.);
#39=PRESENTATION_STYLE_ASSIGNMENT((#84));
#40=ADVANCED_FACE('',(#85),#86,.F.);
#41=PRESENTATION_STYLE_ASSIGNMENT((#87));
#42=ADVANCED_FACE('',(#88),#89,.T.);
#43=PRESENTATION_STYLE_ASSIGNMENT((#90));
#44=ADVANCED_FACE('',(#91),#92,.F.);
#45=PRESENTATION_STYLE_ASSIGNMENT((#93));
#46=ADVANCED_FACE('',(#94),#95,.T.);
#47=PRESENTATION_STYLE_ASSIGNMENT((#96));
#48=ADVANCED_FACE('',(#97),#98,.T.);
#49=PRESENTATION_STYLE_ASSIGNMENT((#99));
#50=ADVANCED_FACE('',(#100),#101,.F.);
#51=PRESENTATION_STYLE_ASSIGNMENT((#102));
#52=ADVANCED_FACE('',(#103,#104),#105,.T.);
#53=PRESENTATION_STYLE_ASSIGNMENT((#106));
#54=ADVANCED_FACE('',(#107),#108,.T.);
#55=PRESENTATION_STYLE_ASSIGNMENT((#109));
#56=ADVANCED_FACE('',(#110),#111,.F.);
#57=PRESENTATION_STYLE_ASSIGNMENT((#112));
#58=ADVANCED_FACE('',(#113,#114),#115,.T.);
#59=PRESENTATION_STYLE_ASSIGNMENT((#116));
#60=ADVANCED_FACE('',(#117),#118,.T.);
#61=PRESENTATION_STYLE_ASSIGNMENT((#119));
#62=ADVANCED_FACE('',(#120,#121),#122,.T.);
#63=PRESENTATION_STYLE_ASSIGNMENT((#123));
#64=MANIFOLD_SOLID_BREP('1',#124);
#65=PRODUCT('1','1','PART-1-DESC',(#125));
#66=PRODUCT_DEFINITION('NONE','NONE',#126,#2);
#67=AXIS2_PLACEMENT_3D('',#127,#128,#129);
#70=LENGTH_MEASURE_WITH_UNIT(LENGTH_MEASURE(1.0),#130);
#73=DIMENSIONAL_EXPONENTS(1.0,0.0,0.0,0.0,0.0,0.0,0.0);
#75=DIMENSIONAL_EXPONENTS(0.0,0.0,0.0,0.0,0.0,0.0,0.0);
#81=SURFACE_STYLE_USAGE(.BOTH.,#131);
#82=FACE_OUTER_BOUND('',#132,.T.);
#83=CYLINDRICAL_SURFACE('',#133,106.0);
#84=SURFACE_STYLE_USAGE(.BOTH.,#134);
#85=FACE_OUTER_BOUND('',#135,.T.);
#86=TOROIDAL_SURFACE('',#136,89.1500000000001,5.0);
#87=SURFACE_STYLE_USAGE(.BOTH.,#137);
#88=FACE_OUTER_BOUND('',#138,.T.);
#89=CYLINDRICAL_SURFACE('',#139,84.1500000000001);
#90=SURFACE_STYLE_USAGE(.BOTH.,#140);
#91=FACE_OUTER_BOUND('',#141,.T.);
#92=CYLINDRICAL_SURFACE('',#142,80.55);
#93=SURFACE_STYLE_USAGE(.BOTH.,#143);
#94=FACE_OUTER_BOUND('',#144,.T.);
#95=TOROIDAL_SURFACE('',#145,89.55,9.0);
#96=SURFACE_STYLE_USAGE(.BOTH.,#146);
#97=FACE_OUTER_BOUND('',#147,.T.);
#98=TOROIDAL_SURFACE('',#148,89.55,9.0);
#99=SURFACE_STYLE_USAGE(.BOTH.,#149);
#100=FACE_OUTER_BOUND('',#150,.T.);
#101=CYLINDRICAL_SURFACE('',#151,80.55);
#102=SURFACE_STYLE_USAGE(.BOTH.,#152);
#103=FACE_OUTER_BOUND('',#153,.T.);
#104=FACE_BOUND('',#154,.T.);
#105=PLANE('',#155);
#106=SURFACE_STYLE_USAGE(.BOTH.,#156);
#107=FACE_OUTER_BOUND('',#157,.T.);
#108=CYLINDRICAL_SURFACE('',#158,84.1500000000001);
#109=SURFACE_STYLE_USAGE(.BOTH.,#159);
#110=FACE_OUTER_BOUND('',#160,.T.);
#111=TOROIDAL_SURFACE('',#161,89.1500000000001,5.0);
#112=SURFACE_STYLE_USAGE(.BOTH.,#162);
#113=FACE_OUTER_BOUND('',#163,.T.);
#114=FACE_BOUND('',#164,.T.);
#115=PLANE('',#165);
#116=SURFACE_STYLE_USAGE(.BOTH.,#166);
#117=FACE_OUTER_BOUND('',#167,.T.);
#118=CYLINDRICAL_SURFACE('',#168,106.0);
#119=SURFACE_STYLE_USAGE(.BOTH.,#169);
#120=FACE_BOUND('',#170,.T.);
#121=FACE_OUTER_BOUND('',#171,.T.);
#122=PLANE('',#172);
#123=SURFACE_STYLE_USAGE(.BOTH.,#173);
#124=CLOSED_SHELL('',(#38,#40,#42,#44,#46,#48,#50,#52,#54,#56,#58,#60,#62));
#125=PRODUCT_CONTEXT('',#24,'mechanical');
#126=PRODUCT_DEFINITION_FORMATION_WITH_SPECIFIED_SOURCE(' ','NONE',#65,.NOT_KNOWN.);
#127=CARTESIAN_POINT('',(0.0,0.0,0.0));
#128=DIRECTION('',(0.0,0.0,1.0));
#129=DIRECTION('',(1.0,0.0,0.0));
#130= (NAMED_UNIT(#73)LENGTH_UNIT()SI_UNIT(.MILLI.,.METRE.));
#131=SURFACE_SIDE_STYLE('',(#175));
#132=EDGE_LOOP('',(#176,#177,#178,#179));
#133=AXIS2_PLACEMENT_3D('',#180,#181,#182);
#134=SURFACE_SIDE_STYLE('',(#183));
#135=EDGE_LOOP('',(#184,#185,#186,#187,#188,#189));
#136=AXIS2_PLACEMENT_3D('',#190,#191,#192);
#137=SURFACE_SIDE_STYLE('',(#193));
#138=EDGE_LOOP('',(#194,#195,#196,#197,#198));
#139=AXIS2_PLACEMENT_3D('',#199,#200,#201);
#140=SURFACE_SIDE_STYLE('',(#202));
#141=EDGE_LOOP('',(#203,#204,#205,#206,#207));
#142=AXIS2_PLACEMENT_3D('',#208,#209,#210);
#143=SURFACE_SIDE_STYLE('',(#211));
#144=EDGE_LOOP('',(#212,#213,#214,#215,#216));
#145=AXIS2_PLACEMENT_3D('',#217,#218,#219);
#146=SURFACE_SIDE_STYLE('',(#220));
#147=EDGE_LOOP('',(#221,#222,#223,#224,#225,#226));
#148=AXIS2_PLACEMENT_3D('',#227,#228,#229);
#149=SURFACE_SIDE_STYLE('',(#230));
#150=EDGE_LOOP('',(#231,#232,#233,#234,#235));
#151=AXIS2_PLACEMENT_3D('',#236,#237,#238);
#152=SURFACE_SIDE_STYLE('',(#239));
#153=EDGE_LOOP('',(#240,#241));
#154=EDGE_LOOP('',(#242,#243));
#155=AXIS2_PLACEMENT_3D('',#244,#245,#246);
#156=SURFACE_SIDE_STYLE('',(#247));
#157=EDGE_LOOP('',(#248,#249,#250,#251,#252));
#158=AXIS2_PLACEMENT_3D('',#253,#254,#255);
#159=SURFACE_SIDE_STYLE('',(#256));
#160=EDGE_LOOP('',(#257,#258,#259,#260,#261));
#161=AXIS2_PLACEMENT_3D('',#262,#263,#264);
#162=SURFACE_SIDE_STYLE('',(#265));
#163=EDGE_LOOP('',(#266,#267));
#164=EDGE_LOOP('',(#268,#269,#270));
#165=AXIS2_PLACEMENT_3D('',#271,#272,#273);
#166=SURFACE_SIDE_STYLE('',(#274));
#167=EDGE_LOOP('',(#275,#276,#277,#278));
#168=AXIS2_PLACEMENT_3D('',#279,#280,#281);
#169=SURFACE_SIDE_STYLE('',(#282));
#170=EDGE_LOOP('',(#283,#284,#285));
#171=EDGE_LOOP('',(#286,#287));
#172=AXIS2_PLACEMENT_3D('',#288,#289,#290);
#173=SURFACE_SIDE_STYLE('',(#291));
#175=SURFACE_STYLE_FILL_AREA(#292);
#176=ORIENTED_EDGE('',*,*,#293,.F.);
#177=ORIENTED_EDGE('',*,*,#294,.T.);
#178=ORIENTED_EDGE('',*,*,#295,.F.);
#179=ORIENTED_EDGE('',*,*,#296,.F.);
#180=CARTESIAN_POINT('',(0.0,-2.0,0.0));
#181=DIRECTION('',(0.0,1.0,0.0));
#182=DIRECTION('',(-1.0,0.0,0.0));
#183=SURFACE_STYLE_FILL_AREA(#297);
#184=ORIENTED_EDGE('',*,*,#298,.F.);
#185=ORIENTED_EDGE('',*,*,#299,.T.);
#186=ORIENTED_EDGE('',*,*,#300,.T.);
#187=ORIENTED_EDGE('',*,*,#301,.F.);
#188=ORIENTED_EDGE('',*,*,#302,.F.);
#189=ORIENTED_EDGE('',*,*,#303,.F.);
#190=CARTESIAN_POINT('',(0.0,-9.0,0.0));
#191=DIRECTION('',(0.0,1.0,0.0));
#192=DIRECTION('',(0.0,0.0,1.0));
#193=SURFACE_STYLE_FILL_AREA(#304);
#194=ORIENTED_EDGE('',*,*,#305,.F.);
#195=ORIENTED_EDGE('',*,*,#306,.T.);
#196=ORIENTED_EDGE('',*,*,#307,.F.);
#197=ORIENTED_EDGE('',*,*,#308,.F.);
#198=ORIENTED_EDGE('',*,*,#300,.F.);
#199=CARTESIAN_POINT('',(0.0,-19.5,0.0));
#200=DIRECTION('',(0.0,1.0,0.0));
#201=DIRECTION('',(-1.0,0.0,0.0));
#202=SURFACE_STYLE_FILL_AREA(#309);
#203=ORIENTED_EDGE('',*,*,#310,.F.);
#204=ORIENTED_EDGE('',*,*,#311,.F.);
#205=ORIENTED_EDGE('',*,*,#312,.F.);
#206=ORIENTED_EDGE('',*,*,#313,.T.);
#207=ORIENTED_EDGE('',*,*,#314,.T.);
#208=CARTESIAN_POINT('',(0.0,-19.5,0.0));
#209=DIRECTION('',(0.0,1.0,0.0));
#210=DIRECTION('',(-1.0,0.0,0.0));
#211=SURFACE_STYLE_FILL_AREA(#315);
#212=ORIENTED_EDGE('',*,*,#316,.F.);
#213=ORIENTED_EDGE('',*,*,#317,.T.);
#214=ORIENTED_EDGE('',*,*,#318,.F.);
#215=ORIENTED_EDGE('',*,*,#313,.F.);
#216=ORIENTED_EDGE('',*,*,#319,.F.);
#217=CARTESIAN_POINT('',(0.0,-9.0,0.0));
#218=DIRECTION('',(0.0,1.0,0.0));
#219=DIRECTION('',(0.0,0.0,1.0));
#220=SURFACE_STYLE_FILL_AREA(#320);
#221=ORIENTED_EDGE('',*,*,#316,.T.);
#222=ORIENTED_EDGE('',*,*,#321,.F.);
#223=ORIENTED_EDGE('',*,*,#314,.F.);
#224=ORIENTED_EDGE('',*,*,#318,.T.);
#225=ORIENTED_EDGE('',*,*,#322,.T.);
#226=ORIENTED_EDGE('',*,*,#323,.T.);
#227=CARTESIAN_POINT('',(0.0,-9.0,0.0));
#228=DIRECTION('',(0.0,1.0,0.0));
#229=DIRECTION('',(0.0,0.0,1.0));
#230=SURFACE_STYLE_FILL_AREA(#324);
#231=ORIENTED_EDGE('',*,*,#310,.T.);
#232=ORIENTED_EDGE('',*,*,#321,.T.);
#233=ORIENTED_EDGE('',*,*,#319,.T.);
#234=ORIENTED_EDGE('',*,*,#312,.T.);
#235=ORIENTED_EDGE('',*,*,#325,.F.);
#236=CARTESIAN_POINT('',(0.0,-19.5,0.0));
#237=DIRECTION('',(0.0,1.0,0.0));
#238=DIRECTION('',(-1.0,0.0,0.0));
#239=SURFACE_STYLE_FILL_AREA(#326);
#240=ORIENTED_EDGE('',*,*,#306,.F.);
#241=ORIENTED_EDGE('',*,*,#327,.F.);
#242=ORIENTED_EDGE('',*,*,#325,.T.);
#243=ORIENTED_EDGE('',*,*,#311,.T.);
#244=CARTESIAN_POINT('',(-82.35,-30.0,0.0));
#245=DIRECTION('',(0.0,-1.0,0.0));
#246=DIRECTION('',(1.0,0.0,0.0));
#247=SURFACE_STYLE_FILL_AREA(#328);
#248=ORIENTED_EDGE('',*,*,#305,.T.);
#249=ORIENTED_EDGE('',*,*,#299,.F.);
#250=ORIENTED_EDGE('',*,*,#329,.F.);
#251=ORIENTED_EDGE('',*,*,#307,.T.);
#252=ORIENTED_EDGE('',*,*,#327,.T.);
#253=CARTESIAN_POINT('',(0.0,-19.5,0.0));
#254=DIRECTION('',(0.0,1.0,0.0));
#255=DIRECTION('',(-1.0,0.0,0.0));
#256=SURFACE_STYLE_FILL_AREA(#330);
#257=ORIENTED_EDGE('',*,*,#298,.T.);
#258=ORIENTED_EDGE('',*,*,#331,.F.);
#259=ORIENTED_EDGE('',*,*,#301,.T.);
#260=ORIENTED_EDGE('',*,*,#308,.T.);
#261=ORIENTED_EDGE('',*,*,#329,.T.);
#262=CARTESIAN_POINT('',(0.0,-9.0,0.0));
#263=DIRECTION('',(0.0,1.0,0.0));
#264=DIRECTION('',(0.0,0.0,1.0));
#265=SURFACE_STYLE_FILL_AREA(#332);
#266=ORIENTED_EDGE('',*,*,#294,.F.);
#267=ORIENTED_EDGE('',*,*,#333,.F.);
#268=ORIENTED_EDGE('',*,*,#302,.T.);
#269=ORIENTED_EDGE('',*,*,#331,.T.);
#270=ORIENTED_EDGE('',*,*,#303,.T.);
#271=CARTESIAN_POINT('',(-97.575,-4.0,0.0));
#272=DIRECTION('',(0.0,-1.0,0.0));
#273=DIRECTION('',(1.0,0.0,0.0));
#274=SURFACE_STYLE_FILL_AREA(#334);
#275=ORIENTED_EDGE('',*,*,#293,.T.);
#276=ORIENTED_EDGE('',*,*,#335,.F.);
#277=ORIENTED_EDGE('',*,*,#295,.T.);
#278=ORIENTED_EDGE('',*,*,#333,.T.);
#279=CARTESIAN_POINT('',(0.0,-2.0,0.0));
#280=DIRECTION('',(0.0,1.0,0.0));
#281=DIRECTION('',(-1.0,0.0,0.0));
#282=SURFACE_STYLE_FILL_AREA(#336);
#283=ORIENTED_EDGE('',*,*,#323,.F.);
#284=ORIENTED_EDGE('',*,*,#322,.F.);
#285=ORIENTED_EDGE('',*,*,#317,.F.);
#286=ORIENTED_EDGE('',*,*,#296,.T.);
#287=ORIENTED_EDGE('',*,*,#335,.T.);
#288=CARTESIAN_POINT('',(-97.775,0.0,0.0));
#289=DIRECTION('',(0.0,1.0,0.0));
#290=DIRECTION('',(-1.0,0.0,0.0));
#291=SURFACE_STYLE_FILL_AREA(#337);
#292=FILL_AREA_STYLE('',(#338));
#293=EDGE_CURVE('',#339,#340,#341,.T.);
#294=EDGE_CURVE('',#339,#342,#343,.T.);
#295=EDGE_CURVE('',#344,#342,#345,.T.);
#296=EDGE_CURVE('',#340,#344,#346,.T.);
#297=FILL_AREA_STYLE('',(#347));
#298=EDGE_CURVE('',#348,#349,#350,.T.);
#299=EDGE_CURVE('',#348,#351,#352,.T.);
#300=EDGE_CURVE('',#351,#353,#354,.T.);
#301=EDGE_CURVE('',#355,#353,#356,.T.);
#302=EDGE_CURVE('',#357,#355,#358,.T.);
#303=EDGE_CURVE('',#349,#357,#359,.T.);
#304=FILL_AREA_STYLE('',(#360));
#305=EDGE_CURVE('',#361,#351,#362,.T.);
#306=EDGE_CURVE('',#361,#363,#364,.T.);
#307=EDGE_CURVE('',#365,#363,#366,.T.);
#308=EDGE_CURVE('',#353,#365,#367,.T.);
#309=FILL_AREA_STYLE('',(#368));
#310=EDGE_CURVE('',#369,#370,#371,.T.);
#311=EDGE_CURVE('',#372,#369,#373,.T.);
#312=EDGE_CURVE('',#374,#372,#375,.T.);
#313=EDGE_CURVE('',#374,#376,#377,.T.);
#314=EDGE_CURVE('',#376,#370,#378,.T.);
#315=FILL_AREA_STYLE('',(#379));
#316=EDGE_CURVE('',#380,#381,#382,.T.);
#317=EDGE_CURVE('',#380,#383,#384,.T.);
#318=EDGE_CURVE('',#376,#383,#385,.T.);
#319=EDGE_CURVE('',#381,#374,#386,.T.);
#320=FILL_AREA_STYLE('',(#387));
#321=EDGE_CURVE('',#370,#381,#388,.T.);
#322=EDGE_CURVE('',#383,#389,#390,.T.);
#323=EDGE_CURVE('',#389,#380,#391,.T.);
#324=FILL_AREA_STYLE('',(#392));
#325=EDGE_CURVE('',#369,#372,#393,.T.);
#326=FILL_AREA_STYLE('',(#394));
#327=EDGE_CURVE('',#363,#361,#395,.T.);
#328=FILL_AREA_STYLE('',(#396));
#329=EDGE_CURVE('',#365,#348,#397,.T.);
#330=FILL_AREA_STYLE('',(#398));
#331=EDGE_CURVE('',#355,#349,#399,.T.);
#332=FILL_AREA_STYLE('',(#400));
#333=EDGE_CURVE('',#342,#339,#401,.T.);
#334=FILL_AREA_STYLE('',(#402));
#335=EDGE_CURVE('',#344,#340,#403,.T.);
#336=FILL_AREA_STYLE('',(#404));
#337=FILL_AREA_STYLE('',(#405));
#338=FILL_AREA_STYLE_COLOUR('',#406);
#339=VERTEX_POINT('',#407);
#340=VERTEX_POINT('',#408);
#341=LINE('',#409,#410);
#342=VERTEX_POINT('',#411);
#343=CIRCLE('',#412,106.0);
#344=VERTEX_POINT('',#413);
#345=LINE('',#414,#415);
#346=CIRCLE('',#416,106.0);
#347=FILL_AREA_STYLE_COLOUR('',#417);
#348=VERTEX_POINT('',#418);
#349=VERTEX_POINT('',#419);
#350=CIRCLE('',#420,5.0);
#351=VERTEX_POINT('',#421);
#352=CIRCLE('',#422,84.1500000000001);
#353=VERTEX_POINT('',#423);
#354=CIRCLE('',#424,84.1500000000001);
#355=VERTEX_POINT('',#425);
#356=CIRCLE('',#426,5.0);
#357=VERTEX_POINT('',#427);
#358=CIRCLE('',#428,89.1500000000001);
#359=CIRCLE('',#429,89.1500000000001);
#360=FILL_AREA_STYLE_COLOUR('',#430);
#361=VERTEX_POINT('',#431);
#362=LINE('',#432,#433);
#363=VERTEX_POINT('',#434);
#364=CIRCLE('',#435,84.1500000000001);
#365=VERTEX_POINT('',#436);
#366=LINE('',#437,#438);
#367=CIRCLE('',#439,84.1500000000001);
#368=FILL_AREA_STYLE_COLOUR('',#440);
#369=VERTEX_POINT('',#441);
#370=VERTEX_POINT('',#442);
#371=LINE('',#443,#444);
#372=VERTEX_POINT('',#445);
#373=CIRCLE('',#446,80.55);
#374=VERTEX_POINT('',#447);
#375=LINE('',#448,#449);
#376=VERTEX_POINT('',#450);
#377=CIRCLE('',#451,80.55);
#378=CIRCLE('',#452,80.55);
#379=FILL_AREA_STYLE_COLOUR('',#453);
#380=VERTEX_POINT('',#454);
#381=VERTEX_POINT('',#455);
#382=CIRCLE('',#456,9.0);
#383=VERTEX_POINT('',#457);
#384=CIRCLE('',#458,89.55);
#385=CIRCLE('',#459,9.0);
#386=CIRCLE('',#460,80.55);
#387=FILL_AREA_STYLE_COLOUR('',#461);
#388=CIRCLE('',#462,80.55);
#389=VERTEX_POINT('',#463);
#390=CIRCLE('',#464,89.55);
#391=CIRCLE('',#465,89.55);
#392=FILL_AREA_STYLE_COLOUR('',#466);
#393=CIRCLE('',#467,80.55);
#394=FILL_AREA_STYLE_COLOUR('',#468);
#395=CIRCLE('',#469,84.1500000000001);
#396=FILL_AREA_STYLE_COLOUR('',#470);
#397=CIRCLE('',#471,84.1500000000001);
#398=FILL_AREA_STYLE_COLOUR('',#472);
#399=CIRCLE('',#473,89.1500000000001);
#400=FILL_AREA_STYLE_COLOUR('',#474);
#401=CIRCLE('',#475,106.0);
#402=FILL_AREA_STYLE_COLOUR('',#476);
#403=CIRCLE('',#477,106.0);
#404=FILL_AREA_STYLE_COLOUR('',#478);
#405=FILL_AREA_STYLE_COLOUR('',#479);
#406=COLOUR_RGB('',1.0,1.0,0.0);
#407=CARTESIAN_POINT('',(-106.0,-4.0,0.0));
#408=CARTESIAN_POINT('',(-106.0,0.0,0.0));
#409=CARTESIAN_POINT('',(-106.0,-2.0,-1.29812560709619E-014));
#410=VECTOR('',#480,1.0);
#411=CARTESIAN_POINT('',(106.0,-4.0,1.29812560709619E-014));
#412=AXIS2_PLACEMENT_3D('',#481,#482,#483);
#413=CARTESIAN_POINT('',(106.0,0.0,1.29812560709619E-014));
#414=CARTESIAN_POINT('',(106.0,-2.0,1.29812560709619E-014));
#415=VECTOR('',#484,1.0);
#416=AXIS2_PLACEMENT_3D('',#485,#486,#487);
#417=COLOUR_RGB('',1.0,1.0,0.0);
#418=CARTESIAN_POINT('',(1.0305402814825E-014,-9.0,-84.1500000000001));
#419=CARTESIAN_POINT('',(1.09177262143987E-014,-4.0,-89.1500000000001));
#420=AXIS2_PLACEMENT_3D('',#488,#489,#490);
#421=CARTESIAN_POINT('',(-84.1500000000001,-9.0,0.0));
#422=AXIS2_PLACEMENT_3D('',#491,#492,#493);
#423=CARTESIAN_POINT('',(-1.0305402814825E-014,-9.0,84.1500000000001));
#424=AXIS2_PLACEMENT_3D('',#494,#495,#496);
#425=CARTESIAN_POINT('',(-1.09177262143987E-014,-4.0,89.1500000000001));
#426=AXIS2_PLACEMENT_3D('',#497,#498,#499);
#427=CARTESIAN_POINT('',(-89.1500000000001,-4.0,0.0));
#428=AXIS2_PLACEMENT_3D('',#500,#501,#502);
#429=AXIS2_PLACEMENT_3D('',#503,#504,#505);
#430=COLOUR_RGB('',1.0,1.0,0.0);
#431=CARTESIAN_POINT('',(-84.1500000000001,-30.0,0.0));
#432=CARTESIAN_POINT('',(-84.1500000000001,-19.5,-1.0305402814825E-014));
#433=VECTOR('',#506,1.0);
#434=CARTESIAN_POINT('',(84.1500000000001,-30.0,1.0305402814825E-014));
#435=AXIS2_PLACEMENT_3D('',#507,#508,#509);
#436=CARTESIAN_POINT('',(84.1500000000001,-9.0,1.0305402814825E-014));
#437=CARTESIAN_POINT('',(84.1500000000001,-19.5,1.0305402814825E-014));
#438=VECTOR('',#510,1.0);
#439=AXIS2_PLACEMENT_3D('',#511,#512,#513);
#440=COLOUR_RGB('',1.0,1.0,0.0);
#441=CARTESIAN_POINT('',(-80.55,-30.0,0.0));
#442=CARTESIAN_POINT('',(-80.55,-9.0,0.0));
#443=CARTESIAN_POINT('',(-80.55,-19.5,-9.86452996713192E-015));
#444=VECTOR('',#514,1.0);
#445=CARTESIAN_POINT('',(80.55,-30.0,9.86452996713192E-015));
#446=AXIS2_PLACEMENT_3D('',#515,#516,#517);
#447=CARTESIAN_POINT('',(80.55,-9.0,9.86452996713192E-015));
#448=CARTESIAN_POINT('',(80.55,-19.5,9.86452996713192E-015));
#449=VECTOR('',#518,1.0);
#450=CARTESIAN_POINT('',(9.86452996713192E-015,-9.0,-80.55));
#451=AXIS2_PLACEMENT_3D('',#519,#520,#521);
#452=AXIS2_PLACEMENT_3D('',#522,#523,#524);
#453=COLOUR_RGB('',1.0,1.0,0.0);
#454=CARTESIAN_POINT('',(-1.09667120863645E-014,0.0,89.55));
#455=CARTESIAN_POINT('',(-9.86452996713192E-015,-9.0,80.55));
#456=AXIS2_PLACEMENT_3D('',#525,#526,#527);
#457=CARTESIAN_POINT('',(1.09667120863645E-014,0.0,-89.55));
#458=AXIS2_PLACEMENT_3D('',#528,#529,#530);
#459=AXIS2_PLACEMENT_3D('',#531,#532,#533);
#460=AXIS2_PLACEMENT_3D('',#534,#535,#536);
#461=COLOUR_RGB('',1.0,1.0,0.0);
#462=AXIS2_PLACEMENT_3D('',#537,#538,#539);
#463=CARTESIAN_POINT('',(-89.55,0.0,0.0));
#464=AXIS2_PLACEMENT_3D('',#540,#541,#542);
#465=AXIS2_PLACEMENT_3D('',#543,#544,#545);
#466=COLOUR_RGB('',1.0,1.0,0.0);
#467=AXIS2_PLACEMENT_3D('',#546,#547,#548);
#468=COLOUR_RGB('',1.0,1.0,0.0);
#469=AXIS2_PLACEMENT_3D('',#549,#550,#551);
#470=COLOUR_RGB('',1.0,1.0,0.0);
#471=AXIS2_PLACEMENT_3D('',#552,#553,#554);
#472=COLOUR_RGB('',1.0,1.0,0.0);
#473=AXIS2_PLACEMENT_3D('',#555,#556,#557);
#474=COLOUR_RGB('',1.0,1.0,0.0);
#475=AXIS2_PLACEMENT_3D('',#558,#559,#560);
#476=COLOUR_RGB('',1.0,1.0,0.0);
#477=AXIS2_PLACEMENT_3D('',#561,#562,#563);
#478=COLOUR_RGB('',1.0,1.0,0.0);
#479=COLOUR_RGB('',1.0,1.0,0.0);
#480=DIRECTION('',(0.0,1.0,0.0));
#481=CARTESIAN_POINT('',(0.0,-4.0,0.0));
#482=DIRECTION('',(0.0,1.0,0.0));
#483=DIRECTION('',(-1.0,0.0,0.0));
#484=DIRECTION('',(-0.0,-1.0,-0.0));
#485=CARTESIAN_POINT('',(0.0,0.0,0.0));
#486=DIRECTION('',(0.0,1.0,0.0));
#487=DIRECTION('',(-1.0,0.0,0.0));
#488=CARTESIAN_POINT('',(1.09177262143987E-014,-9.0,-89.1500000000001));
#489=DIRECTION('',(-1.0,0.0,-1.22464679914735E-016));
#490=DIRECTION('',(1.22464679914735E-016,-0.0,-1.0));
#491=CARTESIAN_POINT('',(0.0,-9.0,0.0));
#492=DIRECTION('',(0.0,1.0,0.0));
#493=DIRECTION('',(-1.0,0.0,0.0));
#494=CARTESIAN_POINT('',(0.0,-9.0,0.0));
#495=DIRECTION('',(0.0,1.0,0.0));
#496=DIRECTION('',(-1.0,0.0,0.0));
#497=CARTESIAN_POINT('',(-1.09177262143987E-014,-9.0,89.1500000000001));
#498=DIRECTION('',(-1.0,0.0,-1.22464679914735E-016));
#499=DIRECTION('',(-1.22464679914735E-016,0.0,1.0));
#500=CARTESIAN_POINT('',(0.0,-4.0,0.0));
#501=DIRECTION('',(0.0,1.0,0.0));
#502=DIRECTION('',(-1.0,0.0,0.0));
#503=CARTESIAN_POINT('',(0.0,-4.0,0.0));
#504=DIRECTION('',(0.0,1.0,0.0));
#505=DIRECTION('',(-1.0,0.0,0.0));
#506=DIRECTION('',(0.0,1.0,0.0));
#507=CARTESIAN_POINT('',(0.0,-30.0,0.0));
#508=DIRECTION('',(0.0,1.0,0.0));
#509=DIRECTION('',(-1.0,0.0,0.0));
#510=DIRECTION('',(-0.0,-1.0,-0.0));
#511=CARTESIAN_POINT('',(0.0,-9.0,0.0));
#512=DIRECTION('',(0.0,1.0,0.0));
#513=DIRECTION('',(-1.0,0.0,0.0));
#514=DIRECTION('',(0.0,1.0,0.0));
#515=CARTESIAN_POINT('',(0.0,-30.0,0.0));
#516=DIRECTION('',(0.0,1.0,0.0));
#517=DIRECTION('',(-1.0,0.0,0.0));
#518=DIRECTION('',(0.0,-1.0,0.0));
#519=CARTESIAN_POINT('',(0.0,-9.0,0.0));
#520=DIRECTION('',(0.0,1.0,0.0));
#521=DIRECTION('',(-1.0,0.0,0.0));
#522=CARTESIAN_POINT('',(0.0,-9.0,0.0));
#523=DIRECTION('',(0.0,1.0,0.0));
#524=DIRECTION('',(-1.0,0.0,0.0));
#525=CARTESIAN_POINT('',(-1.09667120863645E-014,-9.0,89.55));
#526=DIRECTION('',(-1.0,0.0,-1.22464679914735E-016));
#527=DIRECTION('',(-1.22464679914735E-016,-0.0,1.0));
#528=CARTESIAN_POINT('',(0.0,0.0,0.0));
#529=DIRECTION('',(0.0,1.0,0.0));
#530=DIRECTION('',(-1.0,0.0,0.0));
#531=CARTESIAN_POINT('',(1.09667120863645E-014,-9.0,-89.55));
#532=DIRECTION('',(-1.0,0.0,-1.22464679914735E-016));
#533=DIRECTION('',(1.22464679914735E-016,0.0,-1.0));
#534=CARTESIAN_POINT('',(0.0,-9.0,0.0));
#535=DIRECTION('',(0.0,1.0,0.0));
#536=DIRECTION('',(-1.0,0.0,0.0));
#537=CARTESIAN_POINT('',(0.0,-9.0,0.0));
#538=DIRECTION('',(0.0,1.0,0.0));
#539=DIRECTION('',(-1.0,0.0,0.0));
#540=CARTESIAN_POINT('',(0.0,0.0,0.0));
#541=DIRECTION('',(0.0,1.0,0.0));
#542=DIRECTION('',(-1.0,0.0,0.0));
#543=CARTESIAN_POINT('',(0.0,0.0,0.0));
#544=DIRECTION('',(0.0,1.0,0.0));
#545=DIRECTION('',(-1.0,0.0,0.0));
#546=CARTESIAN_POINT('',(0.0,-30.0,0.0));
#547=DIRECTION('',(0.0,1.0,0.0));
#548=DIRECTION('',(-1.0,0.0,0.0));
#549=CARTESIAN_POINT('',(0.0,-30.0,0.0));
#550=DIRECTION('',(0.0,1.0,0.0));
#551=DIRECTION('',(-1.0,0.0,0.0));
#552=CARTESIAN_POINT('',(0.0,-9.0,0.0));
#553=DIRECTION('',(0.0,1.0,0.0));
#554=DIRECTION('',(-1.0,0.0,0.0));
#555=CARTESIAN_POINT('',(0.0,-4.0,0.0));
#556=DIRECTION('',(0.0,1.0,0.0));
#557=DIRECTION('',(-1.0,0.0,0.0));
#558=CARTESIAN_POINT('',(0.0,-4.0,0.0));
#559=DIRECTION('',(0.0,1.0,0.0));
#560=DIRECTION('',(-1.0,0.0,0.0));
#561=CARTESIAN_POINT('',(0.0,0.0,0.0));
#562=DIRECTION('',(0.0,1.0,0.0));
#563=DIRECTION('',(-1.0,0.0,0.0));
ENDSEC;
END-ISO-10303-21;
