ISO-10303-21;
HEADER;
FILE_DESCRIPTION (( 'STEP AP203' ),
    '1' );
FILE_NAME ('3D_GR1234_48.3x2_188702260.STEP',
    '2024-10-14T12:00:18',
    ( '' ),
    ( '' ),
    'SwSTEP 2.0',
    'SolidWorks 2024',
    '' );
FILE_SCHEMA (( 'CONFIG_CONTROL_DESIGN' ));
ENDSEC;

DATA;
#1 = CC_DESIGN_PERSON_AND_ORGANIZATION_ASSIGNMENT ( #328, #32, ( #342 ) ) ;
#2 = CARTESIAN_POINT ( 'NONE',  ( 0.000000000000000000, 11.08692071745779195, 0.000000000000000000 ) ) ;
#3 = DATE_AND_TIME ( #39, #186 ) ;
#4 = ADVANCED_FACE ( 'NONE', ( #97 ), #62, .F. ) ;
#5 = AXIS2_PLACEMENT_3D ( 'NONE', #181, #344, #88 ) ;
#6 = CARTESIAN_POINT ( 'NONE',  ( -21.64999999999999147, -11.91307928254221160, 0.000000000000000000 ) ) ;
#7 = DIRECTION ( 'NONE',  ( 1.192056640631309908E-17, -1.000000000000000000, -0.000000000000000000 ) ) ;
#8 = DIRECTION ( 'NONE',  ( -1.000000000000000000, 0.000000000000000000, 0.000000000000000000 ) ) ;
#9 = DIRECTION ( 'NONE',  ( -1.192056640631309908E-17, 1.000000000000000000, 0.000000000000000000 ) ) ;
#10 = EDGE_CURVE ( 'NONE', #243, #91, #15, .T. ) ;
#11 = CARTESIAN_POINT ( 'NONE',  ( -21.64999999999999147, -11.91307928254221160, 0.000000000000000000 ) ) ;
#12 = CARTESIAN_POINT ( 'NONE',  ( 22.14999999999998792, -10.91307928254221160, 2.712592660111386056E-15 ) ) ;
#13 = ORIENTED_EDGE ( 'NONE', *, *, #69, .T. ) ;
#14 = AXIS2_PLACEMENT_3D ( 'NONE', #41, #169, #306 ) ;
#15 = CIRCLE ( 'NONE', #179, 22.14999999999999147 ) ;
#16 = DIRECTION ( 'NONE',  ( 1.192056640631309908E-17, -1.000000000000000000, -0.000000000000000000 ) ) ;
#17 = CARTESIAN_POINT ( 'NONE',  ( 24.14999999999999858, 11.08692071745778840, -2.957522019940857930E-15 ) ) ;
#18 = CC_DESIGN_PERSON_AND_ORGANIZATION_ASSIGNMENT ( #155, #233, ( #313 ) ) ;
#19 = ORIENTED_EDGE ( 'NONE', *, *, #307, .T. ) ;
#20 = CARTESIAN_POINT ( 'NONE',  ( 7.650801976983116084E-16, -10.91307928254221160, 0.000000000000000000 ) ) ;
#21 = CARTESIAN_POINT ( 'NONE',  ( 0.000000000000000000, 11.08692071745779195, 0.000000000000000000 ) ) ;
#22 = EDGE_CURVE ( 'NONE', #227, #309, #357, .T. ) ;
#23 = FACE_OUTER_BOUND ( 'NONE', #255, .T. ) ;
#24 = FACE_OUTER_BOUND ( 'NONE', #282, .T. ) ;
#25 = VECTOR ( 'NONE', #153, 1000.000000000000000 ) ;
#26 = CC_DESIGN_DATE_AND_TIME_ASSIGNMENT ( #3, #130, ( #335 ) ) ;
#27 = CARTESIAN_POINT ( 'NONE',  ( 22.14999999999999147, 35.23692071745778520, 0.000000000000000000 ) ) ;
#28 = CIRCLE ( 'NONE', #103, 22.14999999999998792 ) ;
#29 = CARTESIAN_POINT ( 'NONE',  ( 5.028277367594234378E-16, 11.08692071745778840, 0.000000000000000000 ) ) ;
#30 = APPROVAL_ROLE ( '' ) ;
#31 = EDGE_LOOP ( 'NONE', ( #368, #329, #339, #302 ) ) ;
#32 = PERSON_AND_ORGANIZATION_ROLE ( 'design_owner' ) ;
#33 = AXIS2_PLACEMENT_3D ( 'NONE', #49, #236, #188 ) ;
#34 = AXIS2_PLACEMENT_3D ( 'NONE', #331, #337, #134 ) ;
#35 = ORIENTED_EDGE ( 'NONE', *, *, #241, .F. ) ;
#36 = ORIENTED_EDGE ( 'NONE', *, *, #63, .T. ) ;
#37 = EDGE_CURVE ( 'NONE', #51, #193, #168, .T. ) ;
#38 = ORIENTED_EDGE ( 'NONE', *, *, #37, .F. ) ;
#39 = CALENDAR_DATE ( 2024, 14, 10 ) ;
#40 = VECTOR ( 'NONE', #83, 1000.000000000000000 ) ;
#41 = CARTESIAN_POINT ( 'NONE',  ( 0.000000000000000000, 11.08692071745779018, 0.000000000000000000 ) ) ;
#42 = DIRECTION ( 'NONE',  ( 1.192056640631309908E-17, -1.000000000000000000, -0.000000000000000000 ) ) ;
#43 = FACE_OUTER_BOUND ( 'NONE', #105, .T. ) ;
#44 = ADVANCED_FACE ( 'NONE', ( #43 ), #137, .T. ) ;
#45 = VERTEX_POINT ( 'NONE', #164 ) ;
#46 = DIRECTION ( 'NONE',  ( 1.192056640631309908E-17, -1.000000000000000000, -0.000000000000000000 ) ) ;
#47 = CARTESIAN_POINT ( 'NONE',  ( -24.14999999999999858, 11.08692071745778840, 0.000000000000000000 ) ) ;
#48 = CYLINDRICAL_SURFACE ( 'NONE', #366, 22.14999999999999147 ) ;
#49 = CARTESIAN_POINT ( 'NONE',  ( 0.000000000000000000, 0.000000000000000000, 0.000000000000000000 ) ) ;
#50 = AXIS2_PLACEMENT_3D ( 'NONE', #148, #319, #204 ) ;
#51 = VERTEX_POINT ( 'NONE', #128 ) ;
#52 = DIRECTION ( 'NONE',  ( -1.192056640631309908E-17, 1.000000000000000000, 0.000000000000000000 ) ) ;
#53 = CARTESIAN_POINT ( 'NONE',  ( 0.000000000000000000, 11.08692071745779195, 0.000000000000000000 ) ) ;
#54 = FACE_OUTER_BOUND ( 'NONE', #171, .T. ) ;
#55 = DIRECTION ( 'NONE',  ( 1.192056640631309908E-17, -1.000000000000000000, -0.000000000000000000 ) ) ;
#56 = DIRECTION ( 'NONE',  ( 1.000000000000000000, 0.000000000000000000, 0.000000000000000000 ) ) ;
#57 = CARTESIAN_POINT ( 'NONE',  ( 22.14999999999999503, 11.08692071745778840, 0.000000000000000000 ) ) ;
#58 = PERSON ( 'UNSPECIFIED', 'UNSPECIFIED', 'UNSPECIFIED', ('UNSPECIFIED'), ('UNSPECIFIED'), ('UNSPECIFIED') ) ;
#59 = CC_DESIGN_SECURITY_CLASSIFICATION ( #335, ( #245 ) ) ;
#60 = DIRECTION ( 'NONE',  ( -1.192056640631309908E-17, 1.000000000000000000, 0.000000000000000000 ) ) ;
#61 = AXIS2_PLACEMENT_3D ( 'NONE', #364, #42, #277 ) ;
#62 = CYLINDRICAL_SURFACE ( 'NONE', #269, 19.14999999999999503 ) ;
#63 = EDGE_CURVE ( 'NONE', #218, #248, #72, .T. ) ;
#64 = CIRCLE ( 'NONE', #162, 19.14999999999999147 ) ;
#65 = CARTESIAN_POINT ( 'NONE',  ( 7.770007641046246936E-16, -11.91307928254221160, 0.000000000000000000 ) ) ;
#66 = MECHANICAL_CONTEXT ( 'NONE', #117, 'mechanical' ) ;
#67 = ORIENTED_EDGE ( 'NONE', *, *, #165, .T. ) ;
#68 = PERSON_AND_ORGANIZATION ( #58, #317 ) ;
#69 = EDGE_CURVE ( 'NONE', #216, #227, #180, .T. ) ;
#70 = DIRECTION ( 'NONE',  ( -1.000000000000000000, 0.000000000000000000, 0.000000000000000000 ) ) ;
#71 = PERSON_AND_ORGANIZATION ( #58, #317 ) ;
#72 = CIRCLE ( 'NONE', #275, 19.14999999999999147 ) ;
#73 = ADVANCED_FACE ( 'NONE', ( #372 ), #185, .F. ) ;
#74 = DIRECTION ( 'NONE',  ( 1.000000000000000000, 0.000000000000000000, 0.000000000000000000 ) ) ;
#75 = ORIENTED_EDGE ( 'NONE', *, *, #212, .F. ) ;
#76 = APPROVAL_PERSON_ORGANIZATION ( #217, #94, #30 ) ;
#77 = ORIENTED_EDGE ( 'NONE', *, *, #37, .T. ) ;
#78 = VECTOR ( 'NONE', #79, 1000.000000000000000 ) ;
#79 = DIRECTION ( 'NONE',  ( 1.192056640631309908E-17, -1.000000000000000000, -0.000000000000000000 ) ) ;
#80 = CARTESIAN_POINT ( 'NONE',  ( 7.770007641046246936E-16, -11.91307928254221160, 0.000000000000000000 ) ) ;
#81 = ORIENTED_EDGE ( 'NONE', *, *, #301, .T. ) ;
#82 = FACE_OUTER_BOUND ( 'NONE', #225, .T. ) ;
#83 = DIRECTION ( 'NONE',  ( 1.192056640631309908E-17, -1.000000000000000000, -0.000000000000000000 ) ) ;
#84 = CONICAL_SURFACE ( 'NONE', #215, 22.14999999999998792, 0.4636476090008032624 ) ;
#85 = AXIS2_PLACEMENT_3D ( 'NONE', #149, #256, #293 ) ;
#86 = DIRECTION ( 'NONE',  ( 1.000000000000000000, 0.000000000000000000, 0.000000000000000000 ) ) ;
#87 = CARTESIAN_POINT ( 'NONE',  ( 5.028277367594234378E-16, 11.08692071745778840, 0.000000000000000000 ) ) ;
#88 = DIRECTION ( 'NONE',  ( -1.000000000000000000, 0.000000000000000000, 0.000000000000000000 ) ) ;
#89 = DIRECTION ( 'NONE',  ( 1.192056640631309908E-17, -1.000000000000000000, -0.000000000000000000 ) ) ;
#90 = CALENDAR_DATE ( 2024, 14, 10 ) ;
#91 = VERTEX_POINT ( 'NONE', #369 ) ;
#92 = APPROVAL_PERSON_ORGANIZATION ( #68, #283, #192 ) ;
#93 = CALENDAR_DATE ( 2024, 14, 10 ) ;
#94 = APPROVAL ( #298, 'UNSPECIFIED' ) ;
#95 = DATE_AND_TIME ( #379, #296 ) ;
#96 = ORIENTED_EDGE ( 'NONE', *, *, #273, .F. ) ;
#97 = FACE_OUTER_BOUND ( 'NONE', #264, .T. ) ;
#98 = AXIS2_PLACEMENT_3D ( 'NONE', #6, #9, #250 ) ;
#99 = AXIS2_PLACEMENT_3D ( 'NONE', #2, #101, #70 ) ;
#100 = ADVANCED_FACE ( 'NONE', ( #54 ), #177, .F. ) ;
#101 = DIRECTION ( 'NONE',  ( 0.000000000000000000, 0.000000000000000000, -1.000000000000000000 ) ) ;
#102 = VECTOR ( 'NONE', #354, 1000.000000000000114 ) ;
#103 = AXIS2_PLACEMENT_3D ( 'NONE', #231, #343, #260 ) ;
#104 = CARTESIAN_POINT ( 'NONE',  ( 7.770007641046246936E-16, -11.91307928254221160, 0.000000000000000000 ) ) ;
#105 = EDGE_LOOP ( 'NONE', ( #265, #19, #312 ) ) ;
#106 = SHAPE_DEFINITION_REPRESENTATION ( #161, #384 ) ;
#107 = ADVANCED_FACE ( 'NONE', ( #23 ), #288, .T. ) ;
#108 = ORIENTED_EDGE ( 'NONE', *, *, #359, .T. ) ;
#109 = AXIS2_PLACEMENT_3D ( 'NONE', #29, #257, #350 ) ;
#110 = CARTESIAN_POINT ( 'NONE',  ( 0.000000000000000000, 11.08692071745779018, 0.000000000000000000 ) ) ;
#111 = FACE_OUTER_BOUND ( 'NONE', #327, .T. ) ;
#112 = APPROVAL ( #197, 'UNSPECIFIED' ) ;
#113 = APPLICATION_PROTOCOL_DEFINITION ( 'international standard', 'config_control_design', 1994, #117 ) ;
#114 = VERTEX_POINT ( 'NONE', #228 ) ;
#115 = DIRECTION ( 'NONE',  ( 1.000000000000000000, 0.000000000000000000, 0.000000000000000000 ) ) ;
#116 = DIRECTION ( 'NONE',  ( 1.192056640631309908E-17, -1.000000000000000000, -0.000000000000000000 ) ) ;
#117 = APPLICATION_CONTEXT ( 'configuration controlled 3d designs of mechanical parts and assemblies' ) ;
#118 = EDGE_CURVE ( 'NONE', #309, #227, #28, .T. ) ;
#119 = CARTESIAN_POINT ( 'NONE',  ( 2.149460580469620995E-16, 35.23692071745778520, 0.000000000000000000 ) ) ;
#120 = CARTESIAN_POINT ( 'NONE',  ( -22.14999999999998792, -10.91307928254221160, 0.000000000000000000 ) ) ;
#121 = DIRECTION ( 'NONE',  ( -1.000000000000000000, -1.192056640631309908E-17, 0.000000000000000000 ) ) ;
#122 =( NAMED_UNIT ( * ) PLANE_ANGLE_UNIT ( ) SI_UNIT ( $, .RADIAN. ) );
#123 = ORIENTED_EDGE ( 'NONE', *, *, #222, .T. ) ;
#124 = LOCAL_TIME ( 14, 0, 18.00000000000000000, #224 ) ;
#125 = APPROVAL_DATE_TIME ( #95, #94 ) ;
#126 = ORIENTED_EDGE ( 'NONE', *, *, #292, .T. ) ;
#127 = ORIENTED_EDGE ( 'NONE', *, *, #383, .T. ) ;
#128 = CARTESIAN_POINT ( 'NONE',  ( 21.64999999999999147, -11.91307928254221160, 2.681976490132702269E-15 ) ) ;
#129 = ADVANCED_FACE ( 'NONE', ( #147, #367 ), #373, .F. ) ;
#130 = DATE_TIME_ROLE ( 'classification_date' ) ;
#131 = CC_DESIGN_PERSON_AND_ORGANIZATION_ASSIGNMENT ( #219, #338, ( #245 ) ) ;
#132 = CALENDAR_DATE ( 2024, 14, 10 ) ;
#133 = AXIS2_PLACEMENT_3D ( 'NONE', #53, #377, #209 ) ;
#134 = DIRECTION ( 'NONE',  ( 1.000000000000000000, 0.000000000000000000, 0.000000000000000000 ) ) ;
#135 = DATE_AND_TIME ( #132, #124 ) ;
#136 = ADVANCED_FACE ( 'NONE', ( #82 ), #152, .T. ) ;
#137 = SPHERICAL_SURFACE ( 'NONE', #99, 24.14999999999999858 ) ;
#138 = ORIENTED_EDGE ( 'NONE', *, *, #22, .F. ) ;
#139 = DIRECTION ( 'NONE',  ( 1.192056640631309908E-17, -1.000000000000000000, -0.000000000000000000 ) ) ;
#140 = ORIENTED_EDGE ( 'NONE', *, *, #165, .F. ) ;
#141 = CC_DESIGN_APPROVAL ( #283, ( #313 ) ) ;
#142 = ORIENTED_EDGE ( 'NONE', *, *, #63, .F. ) ;
#143 = MANIFOLD_SOLID_BREP ( 'Rotation1', #347 ) ;
#144 = DIRECTION ( 'NONE',  ( 0.000000000000000000, 0.000000000000000000, -1.000000000000000000 ) ) ;
#145 = DIRECTION ( 'NONE',  ( 0.000000000000000000, 0.000000000000000000, 1.000000000000000000 ) ) ;
#146 = ORIENTED_EDGE ( 'NONE', *, *, #10, .F. ) ;
#147 = FACE_BOUND ( 'NONE', #270, .T. ) ;
#148 = CARTESIAN_POINT ( 'NONE',  ( 3.701394628346979873E-16, 22.21795840493328100, 0.000000000000000000 ) ) ;
#149 = CARTESIAN_POINT ( 'NONE',  ( 2.149460580469620995E-16, 35.23692071745778520, 0.000000000000000000 ) ) ;
#150 = CARTESIAN_POINT ( 'NONE',  ( -1.766642688682890180E-15, 35.23692071745779231, 0.000000000000000000 ) ) ;
#151 = CIRCLE ( 'NONE', #340, 24.14999999999999858 ) ;
#152 = CONICAL_SURFACE ( 'NONE', #196, 22.14999999999998792, 0.4636476090008032624 ) ;
#153 = DIRECTION ( 'NONE',  ( 1.192056640631309908E-17, -1.000000000000000000, -0.000000000000000000 ) ) ;
#154 = CARTESIAN_POINT ( 'NONE',  ( -19.14999999999999147, -11.91307928254221160, 2.345198620367180217E-15 ) ) ;
#155 = PERSON_AND_ORGANIZATION ( #58, #317 ) ;
#156 = CIRCLE ( 'NONE', #363, 24.14999999999999858 ) ;
#157 = ORIENTED_EDGE ( 'NONE', *, *, #222, .F. ) ;
#158 = APPLICATION_PROTOCOL_DEFINITION ( 'international standard', 'config_control_design', 1994, #208 ) ;
#159 = VERTEX_POINT ( 'NONE', #57 ) ;
#160 = ORIENTED_EDGE ( 'NONE', *, *, #301, .F. ) ;
#161 = PRODUCT_DEFINITION_SHAPE ( 'NONE', 'NONE',  #313 ) ;
#162 = AXIS2_PLACEMENT_3D ( 'NONE', #65, #89, #56 ) ;
#163 = ADVANCED_FACE ( 'NONE', ( #349 ), #290, .F. ) ;
#164 = CARTESIAN_POINT ( 'NONE',  ( -24.14999999999999858, 11.08692071745778840, 0.000000000000000000 ) ) ;
#165 = EDGE_CURVE ( 'NONE', #45, #382, #156, .T. ) ;
#166 = DIRECTION ( 'NONE',  ( 1.000000000000000000, 0.000000000000000000, 0.000000000000000000 ) ) ;
#167 = CIRCLE ( 'NONE', #133, 24.14999999999999858 ) ;
#168 = CIRCLE ( 'NONE', #34, 21.64999999999999147 ) ;
#169 = DIRECTION ( 'NONE',  ( -1.224646799147353207E-16, -1.459848349351480351E-33, -1.000000000000000000 ) ) ;
#170 = AXIS2_PLACEMENT_3D ( 'NONE', #47, #174, #121 ) ;
#171 = EDGE_LOOP ( 'NONE', ( #240, #252, #272, #123 ) ) ;
#172 = DIRECTION ( 'NONE',  ( 1.000000000000000000, 0.000000000000000000, 0.000000000000000000 ) ) ;
#173 = ORIENTED_EDGE ( 'NONE', *, *, #118, .T. ) ;
#174 = DIRECTION ( 'NONE',  ( -1.192056640631309908E-17, 1.000000000000000000, 0.000000000000000000 ) ) ;
#175 = ORIENTED_EDGE ( 'NONE', *, *, #271, .T. ) ;
#176 = CC_DESIGN_APPROVAL ( #112, ( #335 ) ) ;
#177 = CYLINDRICAL_SURFACE ( 'NONE', #85, 19.14999999999999503 ) ;
#178 = DIRECTION ( 'NONE',  ( 1.000000000000000000, 0.000000000000000000, 0.000000000000000000 ) ) ;
#179 = AXIS2_PLACEMENT_3D ( 'NONE', #281, #247, #166 ) ;
#180 = LINE ( 'NONE', #258, #362 ) ;
#181 = CARTESIAN_POINT ( 'NONE',  ( 0.000000000000000000, 11.08692071745779195, 0.000000000000000000 ) ) ;
#182 = CC_DESIGN_PERSON_AND_ORGANIZATION_ASSIGNMENT ( #71, #365, ( #245 ) ) ;
#183 = LINE ( 'NONE', #291, #40 ) ;
#184 = CARTESIAN_POINT ( 'NONE',  ( -22.14999999999998792, -10.91307928254221160, 0.000000000000000000 ) ) ;
#185 = SPHERICAL_SURFACE ( 'NONE', #287, 22.14999999999999147 ) ;
#186 = LOCAL_TIME ( 14, 0, 18.00000000000000000, #387 ) ;
#187 = DIRECTION ( 'NONE',  ( -1.000000000000000000, 0.000000000000000000, 0.000000000000000000 ) ) ;
#188 = DIRECTION ( 'NONE',  ( 1.000000000000000000, 0.000000000000000000, 0.000000000000000000 ) ) ;
#189 = CARTESIAN_POINT ( 'NONE',  ( -22.14999999999999503, 11.08692071745778840, 2.712592660111387239E-15 ) ) ;
#190 = ORIENTED_EDGE ( 'NONE', *, *, #278, .T. ) ;
#191 = VECTOR ( 'NONE', #232, 1000.000000000000114 ) ;
#192 = APPROVAL_ROLE ( '' ) ;
#193 = VERTEX_POINT ( 'NONE', #11 ) ;
#194 = CIRCLE ( 'NONE', #202, 19.14999999999999858 ) ;
#195 = APPROVAL_ROLE ( '' ) ;
#196 = AXIS2_PLACEMENT_3D ( 'NONE', #20, #52, #284 ) ;
#197 = APPROVAL_STATUS ( 'not_yet_approved' ) ;
#198 = SECURITY_CLASSIFICATION_LEVEL ( 'unclassified' ) ;
#199 = DIRECTION ( 'NONE',  ( 1.000000000000000000, 0.000000000000000000, 0.000000000000000000 ) ) ;
#200 = CC_DESIGN_PERSON_AND_ORGANIZATION_ASSIGNMENT ( #333, #276, ( #335 ) ) ;
#201 = ORIENTED_EDGE ( 'NONE', *, *, #325, .T. ) ;
#202 = AXIS2_PLACEMENT_3D ( 'NONE', #251, #234, #294 ) ;
#203 = DIRECTION ( 'NONE',  ( 1.192056640631309908E-17, -1.000000000000000000, -0.000000000000000000 ) ) ;
#204 = DIRECTION ( 'NONE',  ( 1.000000000000000000, 0.000000000000000000, 0.000000000000000000 ) ) ;
#205 = CC_DESIGN_DATE_AND_TIME_ASSIGNMENT ( #214, #322, ( #313 ) ) ;
#206 = CIRCLE ( 'NONE', #50, 19.14999999999999858 ) ;
#207 = CARTESIAN_POINT ( 'NONE',  ( 5.028277367594234378E-16, 11.08692071745778840, 0.000000000000000000 ) ) ;
#208 = APPLICATION_CONTEXT ( 'configuration controlled 3d designs of mechanical parts and assemblies' ) ;
#209 = DIRECTION ( 'NONE',  ( -1.000000000000000000, 0.000000000000000000, 1.224646799147353207E-16 ) ) ;
#210 = DIRECTION ( 'NONE',  ( 0.000000000000000000, 0.000000000000000000, -1.000000000000000000 ) ) ;
#211 = LINE ( 'NONE', #314, #102 ) ;
#212 = EDGE_CURVE ( 'NONE', #114, #248, #226, .T. ) ;
#213 = CARTESIAN_POINT ( 'NONE',  ( 7.650801976983116084E-16, -10.91307928254221160, 0.000000000000000000 ) ) ;
#214 = DATE_AND_TIME ( #90, #361 ) ;
#215 = AXIS2_PLACEMENT_3D ( 'NONE', #213, #60, #187 ) ;
#216 = VERTEX_POINT ( 'NONE', #189 ) ;
#217 = PERSON_AND_ORGANIZATION ( #58, #317 ) ;
#218 = VERTEX_POINT ( 'NONE', #154 ) ;
#219 = PERSON_AND_ORGANIZATION ( #58, #317 ) ;
#220 = ORIENTED_EDGE ( 'NONE', *, *, #241, .T. ) ;
#221 = CIRCLE ( 'NONE', #310, 22.14999999999999503 ) ;
#222 = EDGE_CURVE ( 'NONE', #248, #218, #64, .T. ) ;
#223 = DIRECTION ( 'NONE',  ( 1.192056640631309908E-17, -1.000000000000000000, -0.000000000000000000 ) ) ;
#224 = COORDINATED_UNIVERSAL_TIME_OFFSET ( 1, 0, .AHEAD. ) ;
#225 = EDGE_LOOP ( 'NONE', ( #38, #126, #173, #324 ) ) ;
#226 = LINE ( 'NONE', #341, #78 ) ;
#227 = VERTEX_POINT ( 'NONE', #184 ) ;
#228 = CARTESIAN_POINT ( 'NONE',  ( 19.14999999999999858, 22.21795840493328100, -2.345198620367181400E-15 ) ) ;
#229 = DIRECTION ( 'NONE',  ( 1.000000000000000000, 0.000000000000000000, 0.000000000000000000 ) ) ;
#230 = FACE_OUTER_BOUND ( 'NONE', #285, .T. ) ;
#231 = CARTESIAN_POINT ( 'NONE',  ( 7.650801976983116084E-16, -10.91307928254221160, 0.000000000000000000 ) ) ;
#232 = DIRECTION ( 'NONE',  ( -0.4472135954999553742, 0.8944271909999170767, 0.000000000000000000 ) ) ;
#233 = PERSON_AND_ORGANIZATION_ROLE ( 'creator' ) ;
#234 = DIRECTION ( 'NONE',  ( 1.192056640631309908E-17, -1.000000000000000000, -0.000000000000000000 ) ) ;
#235 = ORIENTED_EDGE ( 'NONE', *, *, #278, .F. ) ;
#236 = DIRECTION ( 'NONE',  ( 0.000000000000000000, 0.000000000000000000, 1.000000000000000000 ) ) ;
#237 = AXIS2_PLACEMENT_3D ( 'NONE', #207, #318, #86 ) ;
#238 = ORIENTED_EDGE ( 'NONE', *, *, #307, .F. ) ;
#239 = DATE_AND_TIME ( #93, #305 ) ;
#240 = ORIENTED_EDGE ( 'NONE', *, *, #346, .F. ) ;
#241 = EDGE_CURVE ( 'NONE', #159, #309, #295, .T. ) ;
#242 = DESIGN_CONTEXT ( 'detailed design', #208, 'design' ) ;
#243 = VERTEX_POINT ( 'NONE', #262 ) ;
#244 = ORIENTED_EDGE ( 'NONE', *, *, #273, .T. ) ;
#245 = PRODUCT_DEFINITION_FORMATION_WITH_SPECIFIED_SOURCE ( 'ANY', '', #342, .NOT_KNOWN. ) ;
#246 = AXIS2_PLACEMENT_3D ( 'NONE', #119, #16, #115 ) ;
#247 = DIRECTION ( 'NONE',  ( 0.000000000000000000, 0.000000000000000000, 1.000000000000000000 ) ) ;
#248 = VERTEX_POINT ( 'NONE', #374 ) ;
#249 = PERSON_AND_ORGANIZATION ( #58, #317 ) ;
#250 = DIRECTION ( 'NONE',  ( -1.000000000000000000, -1.192056640631309908E-17, 0.000000000000000000 ) ) ;
#251 = CARTESIAN_POINT ( 'NONE',  ( 3.701394628346979873E-16, 22.21795840493328100, 0.000000000000000000 ) ) ;
#252 = ORIENTED_EDGE ( 'NONE', *, *, #383, .F. ) ;
#253 = DIRECTION ( 'NONE',  ( 1.000000000000000000, 0.000000000000000000, 0.000000000000000000 ) ) ;
#254 = CARTESIAN_POINT ( 'NONE',  ( 0.000000000000000000, 11.08692071745779018, 0.000000000000000000 ) ) ;
#255 = EDGE_LOOP ( 'NONE', ( #81, #13, #360, #35 ) ) ;
#256 = DIRECTION ( 'NONE',  ( 1.192056640631309908E-17, -1.000000000000000000, -0.000000000000000000 ) ) ;
#257 = DIRECTION ( 'NONE',  ( 1.192056640631309908E-17, -1.000000000000000000, -0.000000000000000000 ) ) ;
#258 = CARTESIAN_POINT ( 'NONE',  ( -22.14999999999999147, 35.23692071745778520, 2.712592660111386450E-15 ) ) ;
#259 = ADVANCED_FACE ( 'NONE', ( #352 ), #84, .T. ) ;
#260 = DIRECTION ( 'NONE',  ( 1.000000000000000000, 0.000000000000000000, 0.000000000000000000 ) ) ;
#261 =( LENGTH_UNIT ( ) NAMED_UNIT ( * ) SI_UNIT ( .MILLI., .METRE. ) );
#262 = CARTESIAN_POINT ( 'NONE',  ( -1.620336875955528270E-15, 33.23692071745778520, 0.000000000000000000 ) ) ;
#263 = COORDINATED_UNIVERSAL_TIME_OFFSET ( 1, 0, .AHEAD. ) ;
#264 = EDGE_LOOP ( 'NONE', ( #235, #380, #36, #75 ) ) ;
#265 = ORIENTED_EDGE ( 'NONE', *, *, #381, .F. ) ;
#266 = COORDINATED_UNIVERSAL_TIME_OFFSET ( 1, 0, .AHEAD. ) ;
#267 = CIRCLE ( 'NONE', #279, 21.64999999999999147 ) ;
#268 = ADVANCED_FACE ( 'NONE', ( #334, #111 ), #336, .F. ) ;
#269 = AXIS2_PLACEMENT_3D ( 'NONE', #299, #46, #172 ) ;
#270 = EDGE_LOOP ( 'NONE', ( #160, #358 ) ) ;
#271 = EDGE_CURVE ( 'NONE', #193, #51, #267, .T. ) ;
#272 = ORIENTED_EDGE ( 'NONE', *, *, #212, .T. ) ;
#273 = EDGE_CURVE ( 'NONE', #243, #114, #300, .T. ) ;
#274 = EDGE_LOOP ( 'NONE', ( #157, #142 ) ) ;
#275 = AXIS2_PLACEMENT_3D ( 'NONE', #104, #223, #74 ) ;
#276 = PERSON_AND_ORGANIZATION_ROLE ( 'classification_officer' ) ;
#277 = DIRECTION ( 'NONE',  ( 1.000000000000000000, 0.000000000000000000, 0.000000000000000000 ) ) ;
#278 = EDGE_CURVE ( 'NONE', #91, #114, #194, .T. ) ;
#279 = AXIS2_PLACEMENT_3D ( 'NONE', #80, #7, #199 ) ;
#280 = EDGE_CURVE ( 'NONE', #193, #227, #289, .T. ) ;
#281 = CARTESIAN_POINT ( 'NONE',  ( 0.000000000000000000, 11.08692071745779018, 0.000000000000000000 ) ) ;
#282 = EDGE_LOOP ( 'NONE', ( #326, #201, #220, #138 ) ) ;
#283 = APPROVAL ( #303, 'UNSPECIFIED' ) ;
#284 = DIRECTION ( 'NONE',  ( -1.000000000000000000, 0.000000000000000000, 0.000000000000000000 ) ) ;
#285 = EDGE_LOOP ( 'NONE', ( #238, #385, #140 ) ) ;
#286 = APPROVAL_PERSON_ORGANIZATION ( #249, #112, #195 ) ;
#287 = AXIS2_PLACEMENT_3D ( 'NONE', #254, #144, #8 ) ;
#288 = CYLINDRICAL_SURFACE ( 'NONE', #246, 22.14999999999999147 ) ;
#289 = LINE ( 'NONE', #120, #191 ) ;
#290 = SPHERICAL_SURFACE ( 'NONE', #311, 22.14999999999999147 ) ;
#291 = CARTESIAN_POINT ( 'NONE',  ( -19.14999999999999503, 35.23692071745778520, 2.345198620367180612E-15 ) ) ;
#292 = EDGE_CURVE ( 'NONE', #51, #309, #211, .T. ) ;
#293 = DIRECTION ( 'NONE',  ( 1.000000000000000000, 0.000000000000000000, 0.000000000000000000 ) ) ;
#294 = DIRECTION ( 'NONE',  ( 1.000000000000000000, 0.000000000000000000, 0.000000000000000000 ) ) ;
#295 = LINE ( 'NONE', #27, #25 ) ;
#296 = LOCAL_TIME ( 14, 0, 18.00000000000000000, #266 ) ;
#297 =( NAMED_UNIT ( * ) SI_UNIT ( $, .STERADIAN. ) SOLID_ANGLE_UNIT ( ) );
#298 = APPROVAL_STATUS ( 'not_yet_approved' ) ;
#299 = CARTESIAN_POINT ( 'NONE',  ( 2.149460580469620995E-16, 35.23692071745778520, 0.000000000000000000 ) ) ;
#300 = CIRCLE ( 'NONE', #14, 22.14999999999999147 ) ;
#301 = EDGE_CURVE ( 'NONE', #159, #216, #221, .T. ) ;
#302 = ORIENTED_EDGE ( 'NONE', *, *, #22, .T. ) ;
#303 = APPROVAL_STATUS ( 'not_yet_approved' ) ;
#304 = EDGE_LOOP ( 'NONE', ( #67, #108 ) ) ;
#305 = LOCAL_TIME ( 14, 0, 18.00000000000000000, #263 ) ;
#306 = DIRECTION ( 'NONE',  ( -1.000000000000000000, 0.000000000000000000, 1.224646799147353207E-16 ) ) ;
#307 = EDGE_CURVE ( 'NONE', #371, #45, #151, .T. ) ;
#308 = APPROVAL_DATE_TIME ( #135, #112 ) ;
#309 = VERTEX_POINT ( 'NONE', #12 ) ;
#310 = AXIS2_PLACEMENT_3D ( 'NONE', #321, #55, #178 ) ;
#311 = AXIS2_PLACEMENT_3D ( 'NONE', #110, #210, #320 ) ;
#312 = ORIENTED_EDGE ( 'NONE', *, *, #359, .F. ) ;
#313 = PRODUCT_DEFINITION ( 'UNKNOWN', '', #245, #242 ) ;
#314 = CARTESIAN_POINT ( 'NONE',  ( 22.14999999999998792, -10.91307928254221160, 2.712592660111386056E-15 ) ) ;
#315 = DIRECTION ( 'NONE',  ( 1.000000000000000000, 0.000000000000000000, 0.000000000000000000 ) ) ;
#316 = EDGE_LOOP ( 'NONE', ( #146, #244, #127 ) ) ;
#317 = ORGANIZATION ( 'UNSPECIFIED', 'UNSPECIFIED', '' ) ;
#318 = DIRECTION ( 'NONE',  ( 1.192056640631309908E-17, -1.000000000000000000, -0.000000000000000000 ) ) ;
#319 = DIRECTION ( 'NONE',  ( 1.192056640631309908E-17, -1.000000000000000000, -0.000000000000000000 ) ) ;
#320 = DIRECTION ( 'NONE',  ( -1.000000000000000000, 0.000000000000000000, 0.000000000000000000 ) ) ;
#321 = CARTESIAN_POINT ( 'NONE',  ( 5.028277367594234378E-16, 11.08692071745778840, 0.000000000000000000 ) ) ;
#322 = DATE_TIME_ROLE ( 'creation_date' ) ;
#323 = CIRCLE ( 'NONE', #237, 24.14999999999999858 ) ;
#324 = ORIENTED_EDGE ( 'NONE', *, *, #280, .F. ) ;
#325 = EDGE_CURVE ( 'NONE', #216, #159, #386, .T. ) ;
#326 = ORIENTED_EDGE ( 'NONE', *, *, #69, .F. ) ;
#327 = EDGE_LOOP ( 'NONE', ( #175, #77 ) ) ;
#328 = PERSON_AND_ORGANIZATION ( #58, #317 ) ;
#329 = ORIENTED_EDGE ( 'NONE', *, *, #271, .F. ) ;
#330 = UNCERTAINTY_MEASURE_WITH_UNIT (LENGTH_MEASURE( 1.000000000000000082E-05 ), #261, 'distance_accuracy_value', 'NONE');
#331 = CARTESIAN_POINT ( 'NONE',  ( 7.770007641046246936E-16, -11.91307928254221160, 0.000000000000000000 ) ) ;
#332 = ADVANCED_FACE ( 'NONE', ( #24 ), #48, .T. ) ;
#333 = PERSON_AND_ORGANIZATION ( #58, #317 ) ;
#334 = FACE_BOUND ( 'NONE', #274, .T. ) ;
#335 = SECURITY_CLASSIFICATION ( '', '', #198 ) ;
#336 = PLANE ( 'NONE',  #98 ) ;
#337 = DIRECTION ( 'NONE',  ( 1.192056640631309908E-17, -1.000000000000000000, -0.000000000000000000 ) ) ;
#338 = PERSON_AND_ORGANIZATION_ROLE ( 'creator' ) ;
#339 = ORIENTED_EDGE ( 'NONE', *, *, #280, .T. ) ;
#340 = AXIS2_PLACEMENT_3D ( 'NONE', #21, #145, #315 ) ;
#341 = CARTESIAN_POINT ( 'NONE',  ( 19.14999999999999503, 35.23692071745778520, 0.000000000000000000 ) ) ;
#342 = PRODUCT ( '3D_GR1234_48.3x2_188702260', '3D_GR1234_48.3x2_188702260', '', ( #66 ) ) ;
#343 = DIRECTION ( 'NONE',  ( 1.192056640631309908E-17, -1.000000000000000000, -0.000000000000000000 ) ) ;
#344 = DIRECTION ( 'NONE',  ( 0.000000000000000000, 0.000000000000000000, -1.000000000000000000 ) ) ;
#345 =( GEOMETRIC_REPRESENTATION_CONTEXT ( 3 ) GLOBAL_UNCERTAINTY_ASSIGNED_CONTEXT ( ( #330 ) ) GLOBAL_UNIT_ASSIGNED_CONTEXT ( ( #261, #122, #297 ) ) REPRESENTATION_CONTEXT ( 'NONE', 'WORKASPACE' ) );
#346 = EDGE_CURVE ( 'NONE', #91, #218, #183, .T. ) ;
#347 = CLOSED_SHELL ( 'NONE', ( #4, #163, #351, #107, #136, #259, #332, #129, #44, #73, #100, #268 ) ) ;
#348 = SPHERICAL_SURFACE ( 'NONE', #5, 24.14999999999999858 ) ;
#349 = FACE_OUTER_BOUND ( 'NONE', #316, .T. ) ;
#350 = DIRECTION ( 'NONE',  ( 1.000000000000000000, 0.000000000000000000, 0.000000000000000000 ) ) ;
#351 = ADVANCED_FACE ( 'NONE', ( #230 ), #348, .T. ) ;
#352 = FACE_OUTER_BOUND ( 'NONE', #31, .T. ) ;
#353 = COORDINATED_UNIVERSAL_TIME_OFFSET ( 1, 0, .AHEAD. ) ;
#354 = DIRECTION ( 'NONE',  ( 0.4472135954999553742, 0.8944271909999170767, 5.476786982641995429E-17 ) ) ;
#355 = ORIENTED_EDGE ( 'NONE', *, *, #10, .T. ) ;
#356 = CC_DESIGN_APPROVAL ( #94, ( #245 ) ) ;
#357 = CIRCLE ( 'NONE', #61, 22.14999999999998792 ) ;
#358 = ORIENTED_EDGE ( 'NONE', *, *, #325, .F. ) ;
#359 = EDGE_CURVE ( 'NONE', #382, #45, #323, .T. ) ;
#360 = ORIENTED_EDGE ( 'NONE', *, *, #118, .F. ) ;
#361 = LOCAL_TIME ( 14, 0, 18.00000000000000000, #353 ) ;
#362 = VECTOR ( 'NONE', #203, 1000.000000000000000 ) ;
#363 = AXIS2_PLACEMENT_3D ( 'NONE', #87, #139, #253 ) ;
#364 = CARTESIAN_POINT ( 'NONE',  ( 7.650801976983116084E-16, -10.91307928254221160, 0.000000000000000000 ) ) ;
#365 = PERSON_AND_ORGANIZATION_ROLE ( 'design_supplier' ) ;
#366 = AXIS2_PLACEMENT_3D ( 'NONE', #370, #116, #229 ) ;
#367 = FACE_OUTER_BOUND ( 'NONE', #304, .T. ) ;
#368 = ORIENTED_EDGE ( 'NONE', *, *, #292, .F. ) ;
#369 = CARTESIAN_POINT ( 'NONE',  ( -19.14999999999999858, 22.21795840493328100, 0.000000000000000000 ) ) ;
#370 = CARTESIAN_POINT ( 'NONE',  ( 2.149460580469620995E-16, 35.23692071745778520, 0.000000000000000000 ) ) ;
#371 = VERTEX_POINT ( 'NONE', #150 ) ;
#372 = FACE_OUTER_BOUND ( 'NONE', #378, .T. ) ;
#373 = PLANE ( 'NONE',  #170 ) ;
#374 = CARTESIAN_POINT ( 'NONE',  ( 19.14999999999999147, -11.91307928254221160, 0.000000000000000000 ) ) ;
#375 = APPROVAL_DATE_TIME ( #239, #283 ) ;
#376 = PRODUCT_RELATED_PRODUCT_CATEGORY ( 'detail', '', ( #342 ) ) ;
#377 = DIRECTION ( 'NONE',  ( -1.224646799147353207E-16, -1.459848349351480351E-33, -1.000000000000000000 ) ) ;
#378 = EDGE_LOOP ( 'NONE', ( #96, #355, #190 ) ) ;
#379 = CALENDAR_DATE ( 2024, 14, 10 ) ;
#380 = ORIENTED_EDGE ( 'NONE', *, *, #346, .T. ) ;
#381 = EDGE_CURVE ( 'NONE', #371, #382, #167, .T. ) ;
#382 = VERTEX_POINT ( 'NONE', #17 ) ;
#383 = EDGE_CURVE ( 'NONE', #114, #91, #206, .T. ) ;
#384 = ADVANCED_BREP_SHAPE_REPRESENTATION ( '3D_GR1234_48.3x2_188702260', ( #143, #33 ), #345 ) ;
#385 = ORIENTED_EDGE ( 'NONE', *, *, #381, .T. ) ;
#386 = CIRCLE ( 'NONE', #109, 22.14999999999999503 ) ;
#387 = COORDINATED_UNIVERSAL_TIME_OFFSET ( 1, 0, .AHEAD. ) ;
ENDSEC;
END-ISO-10303-21;
