ISO-10303-21;
HEADER;
FILE_DESCRIPTION (( 'STEP AP203' ),
    '1' );
FILE_NAME ('3D_M-2030P_25_174774025.STEP',
    '2024-09-10T06:57:04',
    ( '' ),
    ( '' ),
    'SwSTEP 2.0',
    'SolidWorks 2024',
    '' );
FILE_SCHEMA (( 'CONFIG_CONTROL_DESIGN' ));
ENDSEC;

DATA;
#1 = ORIENTED_EDGE ( 'NONE', *, *, #96, .T. ) ;
#2 = DATE_AND_TIME ( #57, #3 ) ;
#3 = LOCAL_TIME ( 8, 57, 4.000000000000000000, #124 ) ;
#4 = CIRCLE ( 'NONE', #35, 21.99999999999996447 ) ;
#5 = EDGE_CURVE ( 'NONE', #208, #86, #120, .T. ) ;
#6 = ORIENTED_EDGE ( 'NONE', *, *, #121, .T. ) ;
#7 = CONICAL_SURFACE ( 'NONE', #253, 21.99999999999996447, 0.3490658503988631756 ) ;
#8 = DIRECTION ( 'NONE',  ( -1.000000000000000000, -0.000000000000000000, -0.000000000000000000 ) ) ;
#9 = CARTESIAN_POINT ( 'NONE',  ( -2.999999999999988898, 2.694222958124172471E-15, 21.99999999999996447 ) ) ;
#10 = DIRECTION ( 'NONE',  ( -1.000000000000000000, -0.000000000000000000, -0.000000000000000000 ) ) ;
#11 = PERSON ( 'UNSPECIFIED', 'UNSPECIFIED', 'UNSPECIFIED', ('UNSPECIFIED'), ('UNSPECIFIED'), ('UNSPECIFIED') ) ;
#12 = DIRECTION ( 'NONE',  ( -1.000000000000000000, 0.000000000000000000, -0.000000000000000000 ) ) ;
#13 = EDGE_CURVE ( 'NONE', #159, #107, #4, .T. ) ;
#14 = DIRECTION ( 'NONE',  ( 0.000000000000000000, 0.000000000000000000, 1.000000000000000000 ) ) ;
#15 = AXIS2_PLACEMENT_3D ( 'NONE', #54, #94, #196 ) ;
#16 = CARTESIAN_POINT ( 'NONE',  ( -12.99999999999998401, 0.000000000000000000, 0.000000000000000000 ) ) ;
#17 = CC_DESIGN_APPROVAL ( #215, ( #138 ) ) ;
#18 = PERSON_AND_ORGANIZATION ( #11, #48 ) ;
#19 = LOCAL_TIME ( 8, 57, 4.000000000000000000, #34 ) ;
#20 = COORDINATED_UNIVERSAL_TIME_OFFSET ( 1, 0, .AHEAD. ) ;
#21 = VERTEX_POINT ( 'NONE', #23 ) ;
#22 = APPROVAL_DATE_TIME ( #223, #215 ) ;
#23 = CARTESIAN_POINT ( 'NONE',  ( -12.99999999999998401, 2.471355466934666399E-15, 18.36029765733797348 ) ) ;
#24 = CARTESIAN_POINT ( 'NONE',  ( -108.2865231617622612, 0.000000000000000000, 17.49999999999996803 ) ) ;
#25 = CC_DESIGN_PERSON_AND_ORGANIZATION_ASSIGNMENT ( #158, #162, ( #166 ) ) ;
#26 = CLOSED_SHELL ( 'NONE', ( #219, #73, #254, #117, #186, #229, #65 ) ) ;
#27 = CARTESIAN_POINT ( 'NONE',  ( 3.469446951953614189E-15, 17.49999999999996803, 0.000000000000000000 ) ) ;
#28 = LINE ( 'NONE', #24, #189 ) ;
#29 = ORIENTED_EDGE ( 'NONE', *, *, #13, .F. ) ;
#30 = FACE_OUTER_BOUND ( 'NONE', #101, .T. ) ;
#31 = DIRECTION ( 'NONE',  ( 0.9396926207859093161, 0.000000000000000000, -0.3420201433256661594 ) ) ;
#32 = CARTESIAN_POINT ( 'NONE',  ( -12.99999999999999112, -3.315318599521195210E-14, 0.000000000000000000 ) ) ;
#33 = DIRECTION ( 'NONE',  ( 0.000000000000000000, 0.000000000000000000, 1.000000000000000000 ) ) ;
#34 = COORDINATED_UNIVERSAL_TIME_OFFSET ( 1, 0, .AHEAD. ) ;
#35 = AXIS2_PLACEMENT_3D ( 'NONE', #84, #83, #206 ) ;
#36 = PERSON_AND_ORGANIZATION ( #11, #48 ) ;
#37 = DIRECTION ( 'NONE',  ( 0.000000000000000000, 0.000000000000000000, 1.000000000000000000 ) ) ;
#38 = CIRCLE ( 'NONE', #108, 18.36029765733797348 ) ;
#39 = EDGE_CURVE ( 'NONE', #127, #86, #28, .T. ) ;
#40 = APPROVAL_STATUS ( 'not_yet_approved' ) ;
#41 = ORIENTED_EDGE ( 'NONE', *, *, #121, .F. ) ;
#42 = ORIENTED_EDGE ( 'NONE', *, *, #96, .F. ) ;
#43 = EDGE_CURVE ( 'NONE', #21, #107, #88, .T. ) ;
#44 = ORIENTED_EDGE ( 'NONE', *, *, #207, .T. ) ;
#45 = EDGE_LOOP ( 'NONE', ( #165, #1, #191, #126 ) ) ;
#46 = EDGE_CURVE ( 'NONE', #21, #82, #174, .T. ) ;
#47 = CARTESIAN_POINT ( 'NONE',  ( -108.2865231617622612, 0.000000000000000000, 0.000000000000000000 ) ) ;
#48 = ORGANIZATION ( 'UNSPECIFIED', 'UNSPECIFIED', '' ) ;
#49 = CARTESIAN_POINT ( 'NONE',  ( -2.999999999999988898, 0.000000000000000000, 0.000000000000000000 ) ) ;
#50 = AXIS2_PLACEMENT_3D ( 'NONE', #129, #125, #230 ) ;
#51 = DESIGN_CONTEXT ( 'detailed design', #212, 'design' ) ;
#52 = APPROVAL_PERSON_ORGANIZATION ( #201, #211, #185 ) ;
#53 = DIRECTION ( 'NONE',  ( -1.000000000000000000, -0.000000000000000000, -0.000000000000000000 ) ) ;
#54 = CARTESIAN_POINT ( 'NONE',  ( -108.2865231617622612, 0.000000000000000000, 0.000000000000000000 ) ) ;
#55 = APPLICATION_PROTOCOL_DEFINITION ( 'international standard', 'config_control_design', 1994, #212 ) ;
#56 = EDGE_CURVE ( 'NONE', #127, #109, #59, .T. ) ;
#57 = CALENDAR_DATE ( 2024, 10, 9 ) ;
#58 = CC_DESIGN_SECURITY_CLASSIFICATION ( #218, ( #166 ) ) ;
#59 = CIRCLE ( 'NONE', #224, 17.49999999999996803 ) ;
#60 = PERSON_AND_ORGANIZATION_ROLE ( 'creator' ) ;
#61 = PERSON_AND_ORGANIZATION_ROLE ( 'design_supplier' ) ;
#62 =( GEOMETRIC_REPRESENTATION_CONTEXT ( 3 ) GLOBAL_UNCERTAINTY_ASSIGNED_CONTEXT ( ( #114 ) ) GLOBAL_UNIT_ASSIGNED_CONTEXT ( ( #133, #214, #197 ) ) REPRESENTATION_CONTEXT ( 'NONE', 'WORKASPACE' ) );
#63 = ORIENTED_EDGE ( 'NONE', *, *, #5, .T. ) ;
#64 = AXIS2_PLACEMENT_3D ( 'NONE', #49, #53, #14 ) ;
#65 = ADVANCED_FACE ( 'NONE', ( #169 ), #203, .F. ) ;
#66 = CARTESIAN_POINT ( 'NONE',  ( -2.999999999999988898, 2.694222958124172471E-15, 21.99999999999996447 ) ) ;
#67 = ORIENTED_EDGE ( 'NONE', *, *, #13, .T. ) ;
#68 = DIRECTION ( 'NONE',  ( -1.000000000000000000, -0.000000000000000000, -0.000000000000000000 ) ) ;
#69 = CC_DESIGN_DATE_AND_TIME_ASSIGNMENT ( #202, #155, ( #218 ) ) ;
#70 = LINE ( 'NONE', #170, #164 ) ;
#71 = CARTESIAN_POINT ( 'NONE',  ( -2.999999999999988898, 0.000000000000000000, 0.000000000000000000 ) ) ;
#72 = CC_DESIGN_APPROVAL ( #132, ( #218 ) ) ;
#73 = ADVANCED_FACE ( 'NONE', ( #213 ), #110, .T. ) ;
#74 = DIRECTION ( 'NONE',  ( 0.000000000000000000, 0.000000000000000000, 1.000000000000000000 ) ) ;
#75 = DIRECTION ( 'NONE',  ( 1.000000000000000000, 0.000000000000000000, 0.000000000000000000 ) ) ;
#76 = LINE ( 'NONE', #92, #151 ) ;
#77 = COORDINATED_UNIVERSAL_TIME_OFFSET ( 1, 0, .AHEAD. ) ;
#78 = CC_DESIGN_PERSON_AND_ORGANIZATION_ASSIGNMENT ( #100, #60, ( #138 ) ) ;
#79 = CALENDAR_DATE ( 2024, 10, 9 ) ;
#80 = ORIENTED_EDGE ( 'NONE', *, *, #153, .T. ) ;
#81 = APPROVAL_ROLE ( '' ) ;
#82 = VERTEX_POINT ( 'NONE', #250 ) ;
#83 = DIRECTION ( 'NONE',  ( -1.000000000000000000, -0.000000000000000000, -0.000000000000000000 ) ) ;
#84 = CARTESIAN_POINT ( 'NONE',  ( -2.999999999999988898, 0.000000000000000000, 0.000000000000000000 ) ) ;
#85 = CIRCLE ( 'NONE', #226, 17.49999999999996803 ) ;
#86 = VERTEX_POINT ( 'NONE', #136 ) ;
#87 = LOCAL_TIME ( 8, 57, 4.000000000000000000, #20 ) ;
#88 = LINE ( 'NONE', #66, #106 ) ;
#89 = DIRECTION ( 'NONE',  ( 0.000000000000000000, 0.000000000000000000, 1.000000000000000000 ) ) ;
#90 = DIRECTION ( 'NONE',  ( 0.000000000000000000, 0.000000000000000000, 1.000000000000000000 ) ) ;
#91 = CC_DESIGN_PERSON_AND_ORGANIZATION_ASSIGNMENT ( #36, #61, ( #166 ) ) ;
#92 = CARTESIAN_POINT ( 'NONE',  ( -2.999999999999988898, 0.000000000000000000, -21.99999999999996447 ) ) ;
#93 = AXIS2_PLACEMENT_3D ( 'NONE', #145, #68, #205 ) ;
#94 = DIRECTION ( 'NONE',  ( -1.000000000000000000, -0.000000000000000000, -0.000000000000000000 ) ) ;
#95 = DIRECTION ( 'NONE',  ( -1.000000000000000000, -0.000000000000000000, -0.000000000000000000 ) ) ;
#96 = EDGE_CURVE ( 'NONE', #109, #208, #70, .T. ) ;
#97 = APPROVAL_PERSON_ORGANIZATION ( #239, #215, #81 ) ;
#98 = AXIS2_PLACEMENT_3D ( 'NONE', #249, #115, #192 ) ;
#99 = APPROVAL_DATE_TIME ( #198, #132 ) ;
#100 = PERSON_AND_ORGANIZATION ( #11, #48 ) ;
#101 = EDGE_LOOP ( 'NONE', ( #44, #188 ) ) ;
#102 = ORIENTED_EDGE ( 'NONE', *, *, #182, .T. ) ;
#103 = DIRECTION ( 'NONE',  ( 1.000000000000000000, 0.000000000000000000, 0.000000000000000000 ) ) ;
#104 = DIRECTION ( 'NONE',  ( -1.000000000000000000, 0.000000000000000000, -0.000000000000000000 ) ) ;
#105 = LOCAL_TIME ( 8, 57, 4.000000000000000000, #77 ) ;
#106 = VECTOR ( 'NONE', #245, 1000.000000000000000 ) ;
#107 = VERTEX_POINT ( 'NONE', #9 ) ;
#108 = AXIS2_PLACEMENT_3D ( 'NONE', #16, #148, #116 ) ;
#109 = VERTEX_POINT ( 'NONE', #194 ) ;
#110 = CONICAL_SURFACE ( 'NONE', #98, 21.99999999999996447, 0.3490658503988631756 ) ;
#111 = PLANE ( 'NONE',  #141 ) ;
#112 = CIRCLE ( 'NONE', #210, 17.49999999999996803 ) ;
#113 = FACE_BOUND ( 'NONE', #168, .T. ) ;
#114 = UNCERTAINTY_MEASURE_WITH_UNIT (LENGTH_MEASURE( 1.000000000000000082E-05 ), #133, 'distance_accuracy_value', 'NONE');
#115 = DIRECTION ( 'NONE',  ( 1.000000000000000000, 0.000000000000000000, 0.000000000000000000 ) ) ;
#116 = DIRECTION ( 'NONE',  ( 0.000000000000000000, 0.000000000000000000, 1.000000000000000000 ) ) ;
#117 = ADVANCED_FACE ( 'NONE', ( #178 ), #7, .T. ) ;
#118 = CALENDAR_DATE ( 2024, 10, 9 ) ;
#119 = APPROVAL_STATUS ( 'not_yet_approved' ) ;
#120 = CIRCLE ( 'NONE', #50, 17.49999999999996803 ) ;
#121 = EDGE_CURVE ( 'NONE', #107, #159, #220, .T. ) ;
#122 = CARTESIAN_POINT ( 'NONE',  ( 0.000000000000000000, 0.000000000000000000, 0.000000000000000000 ) ) ;
#123 = DATE_TIME_ROLE ( 'creation_date' ) ;
#124 = COORDINATED_UNIVERSAL_TIME_OFFSET ( 1, 0, .AHEAD. ) ;
#125 = DIRECTION ( 'NONE',  ( -1.000000000000000000, -0.000000000000000000, -0.000000000000000000 ) ) ;
#126 = ORIENTED_EDGE ( 'NONE', *, *, #39, .F. ) ;
#127 = VERTEX_POINT ( 'NONE', #130 ) ;
#128 = CC_DESIGN_PERSON_AND_ORGANIZATION_ASSIGNMENT ( #200, #137, ( #222 ) ) ;
#129 = CARTESIAN_POINT ( 'NONE',  ( -2.999999999999988898, 0.000000000000000000, 0.000000000000000000 ) ) ;
#130 = CARTESIAN_POINT ( 'NONE',  ( 0.000000000000000000, 0.000000000000000000, 17.49999999999996803 ) ) ;
#131 = DIRECTION ( 'NONE',  ( -1.000000000000000000, -0.000000000000000000, -0.000000000000000000 ) ) ;
#132 = APPROVAL ( #119, 'UNSPECIFIED' ) ;
#133 =( LENGTH_UNIT ( ) NAMED_UNIT ( * ) SI_UNIT ( .MILLI., .METRE. ) );
#134 = CARTESIAN_POINT ( 'NONE',  ( -2.999999999999988898, 0.000000000000000000, 0.000000000000000000 ) ) ;
#135 = EDGE_CURVE ( 'NONE', #109, #127, #85, .T. ) ;
#136 = CARTESIAN_POINT ( 'NONE',  ( -2.999999999999988898, 0.000000000000000000, 17.49999999999996803 ) ) ;
#137 = PERSON_AND_ORGANIZATION_ROLE ( 'design_owner' ) ;
#138 = PRODUCT_DEFINITION ( 'UNKNOWN', '', #166, #51 ) ;
#139 = CC_DESIGN_APPROVAL ( #211, ( #166 ) ) ;
#140 = PERSON_AND_ORGANIZATION_ROLE ( 'classification_officer' ) ;
#141 = AXIS2_PLACEMENT_3D ( 'NONE', #32, #234, #236 ) ;
#142 = SECURITY_CLASSIFICATION_LEVEL ( 'unclassified' ) ;
#143 = PRODUCT_RELATED_PRODUCT_CATEGORY ( 'detail', '', ( #222 ) ) ;
#144 = EDGE_LOOP ( 'NONE', ( #163, #187 ) ) ;
#145 = CARTESIAN_POINT ( 'NONE',  ( -12.99999999999998401, 0.000000000000000000, 0.000000000000000000 ) ) ;
#146 = ORIENTED_EDGE ( 'NONE', *, *, #39, .T. ) ;
#147 = CARTESIAN_POINT ( 'NONE',  ( 0.000000000000000000, 0.000000000000000000, 0.000000000000000000 ) ) ;
#148 = DIRECTION ( 'NONE',  ( -1.000000000000000000, -0.000000000000000000, -0.000000000000000000 ) ) ;
#149 = DIRECTION ( 'NONE',  ( -0.000000000000000000, 0.000000000000000000, 1.000000000000000000 ) ) ;
#150 = DIRECTION ( 'NONE',  ( -0.000000000000000000, 0.000000000000000000, 1.000000000000000000 ) ) ;
#151 = VECTOR ( 'NONE', #31, 1000.000000000000000 ) ;
#152 = CARTESIAN_POINT ( 'NONE',  ( 0.000000000000000000, 0.000000000000000000, 0.000000000000000000 ) ) ;
#153 = EDGE_CURVE ( 'NONE', #86, #208, #112, .T. ) ;
#154 = FACE_OUTER_BOUND ( 'NONE', #167, .T. ) ;
#155 = DATE_TIME_ROLE ( 'classification_date' ) ;
#156 = APPLICATION_PROTOCOL_DEFINITION ( 'international standard', 'config_control_design', 1994, #231 ) ;
#157 = EDGE_LOOP ( 'NONE', ( #244, #243, #6, #240 ) ) ;
#158 = PERSON_AND_ORGANIZATION ( #11, #48 ) ;
#159 = VERTEX_POINT ( 'NONE', #209 ) ;
#160 = ORIENTED_EDGE ( 'NONE', *, *, #135, .T. ) ;
#161 = PRODUCT_DEFINITION_SHAPE ( 'NONE', 'NONE',  #138 ) ;
#162 = PERSON_AND_ORGANIZATION_ROLE ( 'creator' ) ;
#163 = ORIENTED_EDGE ( 'NONE', *, *, #56, .F. ) ;
#164 = VECTOR ( 'NONE', #10, 1000.000000000000000 ) ;
#165 = ORIENTED_EDGE ( 'NONE', *, *, #56, .T. ) ;
#166 = PRODUCT_DEFINITION_FORMATION_WITH_SPECIFIED_SOURCE ( 'ANY', '', #222, .NOT_KNOWN. ) ;
#167 = EDGE_LOOP ( 'NONE', ( #29, #41 ) ) ;
#168 = EDGE_LOOP ( 'NONE', ( #80, #63 ) ) ;
#169 = FACE_OUTER_BOUND ( 'NONE', #144, .T. ) ;
#170 = CARTESIAN_POINT ( 'NONE',  ( -108.2865231617622612, 2.143131898507864304E-15, -17.49999999999996803 ) ) ;
#171 = ADVANCED_BREP_SHAPE_REPRESENTATION ( '3D_M-2030P_25_174774025', ( #195, #199 ), #62 ) ;
#172 = FACE_OUTER_BOUND ( 'NONE', #190, .T. ) ;
#173 = APPROVAL_PERSON_ORGANIZATION ( #18, #132, #237 ) ;
#174 = CIRCLE ( 'NONE', #93, 18.36029765733797348 ) ;
#175 = CARTESIAN_POINT ( 'NONE',  ( -2.999999999999990230, 21.99999999999996447, 0.000000000000000000 ) ) ;
#176 = PLANE ( 'NONE',  #242 ) ;
#177 = AXIS2_PLACEMENT_3D ( 'NONE', #47, #95, #74 ) ;
#178 = FACE_OUTER_BOUND ( 'NONE', #227, .T. ) ;
#179 = AXIS2_PLACEMENT_3D ( 'NONE', #27, #104, #149 ) ;
#180 = SHAPE_DEFINITION_REPRESENTATION ( #161, #171 ) ;
#181 = ORIENTED_EDGE ( 'NONE', *, *, #207, .F. ) ;
#182 = EDGE_CURVE ( 'NONE', #82, #159, #76, .T. ) ;
#183 = CALENDAR_DATE ( 2024, 10, 9 ) ;
#184 = APPROVAL_DATE_TIME ( #2, #211 ) ;
#185 = APPROVAL_ROLE ( '' ) ;
#186 = ADVANCED_FACE ( 'NONE', ( #154, #113 ), #176, .F. ) ;
#187 = ORIENTED_EDGE ( 'NONE', *, *, #135, .F. ) ;
#188 = ORIENTED_EDGE ( 'NONE', *, *, #46, .T. ) ;
#189 = VECTOR ( 'NONE', #204, 1000.000000000000000 ) ;
#190 = EDGE_LOOP ( 'NONE', ( #42, #160, #146, #225 ) ) ;
#191 = ORIENTED_EDGE ( 'NONE', *, *, #153, .F. ) ;
#192 = DIRECTION ( 'NONE',  ( 0.000000000000000000, 0.000000000000000000, -1.000000000000000000 ) ) ;
#193 = CYLINDRICAL_SURFACE ( 'NONE', #15, 17.49999999999996803 ) ;
#194 = CARTESIAN_POINT ( 'NONE',  ( 0.000000000000000000, 2.143131898507864304E-15, -17.49999999999996803 ) ) ;
#195 = MANIFOLD_SOLID_BREP ( 'Rotation1', #26 ) ;
#196 = DIRECTION ( 'NONE',  ( 0.000000000000000000, 0.000000000000000000, 1.000000000000000000 ) ) ;
#197 =( NAMED_UNIT ( * ) SI_UNIT ( $, .STERADIAN. ) SOLID_ANGLE_UNIT ( ) );
#198 = DATE_AND_TIME ( #118, #247 ) ;
#199 = AXIS2_PLACEMENT_3D ( 'NONE', #122, #37, #103 ) ;
#200 = PERSON_AND_ORGANIZATION ( #11, #48 ) ;
#201 = PERSON_AND_ORGANIZATION ( #11, #48 ) ;
#202 = DATE_AND_TIME ( #255, #105 ) ;
#203 = PLANE ( 'NONE',  #179 ) ;
#204 = DIRECTION ( 'NONE',  ( -1.000000000000000000, -0.000000000000000000, -0.000000000000000000 ) ) ;
#205 = DIRECTION ( 'NONE',  ( 0.000000000000000000, 0.000000000000000000, 1.000000000000000000 ) ) ;
#206 = DIRECTION ( 'NONE',  ( 0.000000000000000000, 0.000000000000000000, 1.000000000000000000 ) ) ;
#207 = EDGE_CURVE ( 'NONE', #82, #21, #38, .T. ) ;
#208 = VERTEX_POINT ( 'NONE', #246 ) ;
#209 = CARTESIAN_POINT ( 'NONE',  ( -2.999999999999988898, 0.000000000000000000, -21.99999999999996447 ) ) ;
#210 = AXIS2_PLACEMENT_3D ( 'NONE', #134, #131, #33 ) ;
#211 = APPROVAL ( #40, 'UNSPECIFIED' ) ;
#212 = APPLICATION_CONTEXT ( 'configuration controlled 3d designs of mechanical parts and assemblies' ) ;
#213 = FACE_OUTER_BOUND ( 'NONE', #157, .T. ) ;
#214 =( NAMED_UNIT ( * ) PLANE_ANGLE_UNIT ( ) SI_UNIT ( $, .RADIAN. ) );
#215 = APPROVAL ( #221, 'UNSPECIFIED' ) ;
#216 = COORDINATED_UNIVERSAL_TIME_OFFSET ( 1, 0, .AHEAD. ) ;
#217 = PERSON_AND_ORGANIZATION ( #11, #48 ) ;
#218 = SECURITY_CLASSIFICATION ( '', '', #142 ) ;
#219 = ADVANCED_FACE ( 'NONE', ( #232 ), #193, .T. ) ;
#220 = CIRCLE ( 'NONE', #64, 21.99999999999996447 ) ;
#221 = APPROVAL_STATUS ( 'not_yet_approved' ) ;
#222 = PRODUCT ( '3D_M-2030P_25_174774025', '3D_M-2030P_25_174774025', '', ( #241 ) ) ;
#223 = DATE_AND_TIME ( #79, #87 ) ;
#224 = AXIS2_PLACEMENT_3D ( 'NONE', #147, #8, #89 ) ;
#225 = ORIENTED_EDGE ( 'NONE', *, *, #5, .F. ) ;
#226 = AXIS2_PLACEMENT_3D ( 'NONE', #152, #235, #90 ) ;
#227 = EDGE_LOOP ( 'NONE', ( #228, #181, #102, #67 ) ) ;
#228 = ORIENTED_EDGE ( 'NONE', *, *, #43, .F. ) ;
#229 = ADVANCED_FACE ( 'NONE', ( #172 ), #251, .T. ) ;
#230 = DIRECTION ( 'NONE',  ( 0.000000000000000000, 0.000000000000000000, 1.000000000000000000 ) ) ;
#231 = APPLICATION_CONTEXT ( 'configuration controlled 3d designs of mechanical parts and assemblies' ) ;
#232 = FACE_OUTER_BOUND ( 'NONE', #45, .T. ) ;
#233 = DIRECTION ( 'NONE',  ( 0.000000000000000000, 0.000000000000000000, -1.000000000000000000 ) ) ;
#234 = DIRECTION ( 'NONE',  ( 1.000000000000000000, 0.000000000000000000, 0.000000000000000000 ) ) ;
#235 = DIRECTION ( 'NONE',  ( -1.000000000000000000, -0.000000000000000000, -0.000000000000000000 ) ) ;
#236 = DIRECTION ( 'NONE',  ( 0.000000000000000000, 0.000000000000000000, -1.000000000000000000 ) ) ;
#237 = APPROVAL_ROLE ( '' ) ;
#238 = DATE_AND_TIME ( #183, #19 ) ;
#239 = PERSON_AND_ORGANIZATION ( #11, #48 ) ;
#240 = ORIENTED_EDGE ( 'NONE', *, *, #182, .F. ) ;
#241 = MECHANICAL_CONTEXT ( 'NONE', #231, 'mechanical' ) ;
#242 = AXIS2_PLACEMENT_3D ( 'NONE', #175, #12, #150 ) ;
#243 = ORIENTED_EDGE ( 'NONE', *, *, #43, .T. ) ;
#244 = ORIENTED_EDGE ( 'NONE', *, *, #46, .F. ) ;
#245 = DIRECTION ( 'NONE',  ( 0.9396926207859093161, 4.188538737676960334E-17, 0.3420201433256661594 ) ) ;
#246 = CARTESIAN_POINT ( 'NONE',  ( -2.999999999999988898, 2.143131898507864304E-15, -17.49999999999996803 ) ) ;
#247 = LOCAL_TIME ( 8, 57, 4.000000000000000000, #216 ) ;
#248 = CC_DESIGN_PERSON_AND_ORGANIZATION_ASSIGNMENT ( #217, #140, ( #218 ) ) ;
#249 = CARTESIAN_POINT ( 'NONE',  ( -2.999999999999988898, 0.000000000000000000, 0.000000000000000000 ) ) ;
#250 = CARTESIAN_POINT ( 'NONE',  ( -12.99999999999998401, 0.000000000000000000, -18.36029765733797348 ) ) ;
#251 = CYLINDRICAL_SURFACE ( 'NONE', #177, 17.49999999999996803 ) ;
#252 = CC_DESIGN_DATE_AND_TIME_ASSIGNMENT ( #238, #123, ( #138 ) ) ;
#253 = AXIS2_PLACEMENT_3D ( 'NONE', #71, #75, #233 ) ;
#254 = ADVANCED_FACE ( 'NONE', ( #30 ), #111, .F. ) ;
#255 = CALENDAR_DATE ( 2024, 10, 9 ) ;
ENDSEC;
END-ISO-10303-21;
