ISO-10303-21;
HEADER;
FILE_DESCRIPTION (( 'STEP AP203' ),
    '1' );
FILE_NAME ('3D_R-159_DN40_1780140.STEP',
    '2024-08-12T06:41:50',
    ( '' ),
    ( '' ),
    'SwSTEP 2.0',
    'SolidWorks 2024',
    '' );
FILE_SCHEMA (( 'CONFIG_CONTROL_DESIGN' ));
ENDSEC;

DATA;
#1 = ADVANCED_FACE ( 'NONE', ( #311 ), #299, .T. ) ;
#2 = VECTOR ( 'NONE', #107, 1000.000000000000000 ) ;
#3 = CARTESIAN_POINT ( 'NONE',  ( -106.4539725889686821, -18.87361110029826605, 3.377045725785883251E-15 ) ) ;
#4 = LOCAL_TIME ( 8, 41, 50.00000000000000000, #183 ) ;
#5 = PERSON_AND_ORGANIZATION_ROLE ( 'design_supplier' ) ;
#6 = VECTOR ( 'NONE', #327, 1000.000000000000114 ) ;
#7 = CARTESIAN_POINT ( 'NONE',  ( -51.45456193839169146, 5.279073001500636408, 0.000000000000000000 ) ) ;
#8 = APPLICATION_PROTOCOL_DEFINITION ( 'international standard', 'config_control_design', 1994, #171 ) ;
#9 = CC_DESIGN_PERSON_AND_ORGANIZATION_ASSIGNMENT ( #295, #154, ( #53 ) ) ;
#10 = DESIGN_CONTEXT ( 'detailed design', #171, 'design' ) ;
#11 = PERSON_AND_ORGANIZATION ( #363, #281 ) ;
#12 = PERSON_AND_ORGANIZATION ( #363, #281 ) ;
#13 = ORIENTED_EDGE ( 'NONE', *, *, #174, .F. ) ;
#14 = DIRECTION ( 'NONE',  ( 0.9999999997022959164, 2.440099081145985212E-05, 0.000000000000000000 ) ) ;
#15 = ORIENTED_EDGE ( 'NONE', *, *, #344, .F. ) ;
#16 = DIRECTION ( 'NONE',  ( -2.440099081145631830E-05, 0.9999999997022958054, 0.000000000000000000 ) ) ;
#17 = AXIS2_PLACEMENT_3D ( 'NONE', #48, #277, #341 ) ;
#18 = EDGE_LOOP ( 'NONE', ( #173, #185, #372, #52 ) ) ;
#19 = AXIS2_PLACEMENT_3D ( 'NONE', #242, #14, #16 ) ;
#20 = EDGE_CURVE ( 'NONE', #368, #71, #309, .T. ) ;
#21 = DIRECTION ( 'NONE',  ( -0.9999999997022959164, -2.440099081145985212E-05, -0.000000000000000000 ) ) ;
#22 = DIRECTION ( 'NONE',  ( -0.9999999997022959164, -2.440099081145985212E-05, -0.000000000000000000 ) ) ;
#23 = CIRCLE ( 'NONE', #99, 31.00004880198162027 ) ;
#24 = ORIENTED_EDGE ( 'NONE', *, *, #125, .T. ) ;
#25 = CARTESIAN_POINT ( 'NONE',  ( -106.4551512223197989, 29.42907299431107404, 0.000000000000000000 ) ) ;
#26 = ORIENTED_EDGE ( 'NONE', *, *, #190, .T. ) ;
#27 = EDGE_LOOP ( 'NONE', ( #292, #24, #80, #353 ) ) ;
#28 = FACE_OUTER_BOUND ( 'NONE', #322, .T. ) ;
#29 = CARTESIAN_POINT ( 'NONE',  ( -51.45515122231979177, 27.42907299431107759, 0.000000000000000000 ) ) ;
#30 = ORIENTED_EDGE ( 'NONE', *, *, #241, .F. ) ;
#31 = CARTESIAN_POINT ( 'NONE',  ( -106.4543947916046562, 5.277730951084153688, 0.000000000000000000 ) ) ;
#32 = EDGE_CURVE ( 'NONE', #114, #368, #244, .T. ) ;
#33 = UNCERTAINTY_MEASURE_WITH_UNIT (LENGTH_MEASURE( 1.000000000000000082E-05 ), #137, 'distance_accuracy_value', 'NONE');
#34 = ADVANCED_FACE ( 'NONE', ( #282 ), #42, .F. ) ;
#35 = APPROVAL ( #304, 'UNSPECIFIED' ) ;
#36 = CARTESIAN_POINT ( 'NONE',  ( -106.4536383608894994, -25.72226903968701350, 0.000000000000000000 ) ) ;
#37 = CALENDAR_DATE ( 2024, 12, 8 ) ;
#38 = VECTOR ( 'NONE', #352, 1000.000000000000000 ) ;
#39 = LINE ( 'NONE', #172, #217 ) ;
#40 = DATE_TIME_ROLE ( 'creation_date' ) ;
#41 = DATE_AND_TIME ( #64, #165 ) ;
#42 = CONICAL_SURFACE ( 'NONE', #303, 22.15139085707165378, 2.440099081385037900E-05 ) ;
#43 = EDGE_CURVE ( 'NONE', #166, #227, #203, .T. ) ;
#44 = CIRCLE ( 'NONE', #286, 31.00004880198162027 ) ;
#45 = DIRECTION ( 'NONE',  ( 2.440099081152090964E-05, -0.9999999997022958054, 0.000000000000000000 ) ) ;
#46 = EDGE_LOOP ( 'NONE', ( #196, #15, #289, #143 ) ) ;
#47 = CARTESIAN_POINT ( 'NONE',  ( -106.4543947916046562, 5.277730951084153688, 0.000000000000000000 ) ) ;
#48 = CARTESIAN_POINT ( 'NONE',  ( -51.45461074037330462, 5.279073000309819186, 0.000000000000000000 ) ) ;
#49 = CARTESIAN_POINT ( 'NONE',  ( -51.45407025842681037, -16.87092699369143745, 2.712592660184303625E-15 ) ) ;
#50 = LINE ( 'NONE', #115, #126 ) ;
#51 = CONICAL_SURFACE ( 'NONE', #260, 24.15134205449462712, 1.570771925804083757 ) ;
#52 = ORIENTED_EDGE ( 'NONE', *, *, #340, .F. ) ;
#53 = SECURITY_CLASSIFICATION ( '', '', #148 ) ;
#54 = CARTESIAN_POINT ( 'NONE',  ( -108.4546107064350480, 5.277682143833979822, 0.000000000000000000 ) ) ;
#55 = VECTOR ( 'NONE', #204, 1000.000000000000000 ) ;
#56 = EDGE_LOOP ( 'NONE', ( #275, #110, #349, #384 ) ) ;
#57 = ORIENTED_EDGE ( 'NONE', *, *, #357, .F. ) ;
#58 = FACE_OUTER_BOUND ( 'NONE', #27, .T. ) ;
#59 = EDGE_LOOP ( 'NONE', ( #255, #26, #382, #140 ) ) ;
#60 = DIRECTION ( 'NONE',  ( -2.440099081145631830E-05, 0.9999999997022958054, 0.000000000000000000 ) ) ;
#61 = EDGE_CURVE ( 'NONE', #385, #111, #153, .T. ) ;
#62 = EDGE_CURVE ( 'NONE', #71, #254, #356, .T. ) ;
#63 = CARTESIAN_POINT ( 'NONE',  ( -108.4551512223197989, 27.42907299431107759, 2.712762990977474965E-15 ) ) ;
#64 = CALENDAR_DATE ( 2024, 12, 8 ) ;
#65 = CARTESIAN_POINT ( 'NONE',  ( -108.4540701905502829, -16.87370870664311440, 0.000000000000000000 ) ) ;
#66 = DATE_AND_TIME ( #302, #150 ) ;
#67 = APPROVAL_ROLE ( '' ) ;
#68 = PERSON_AND_ORGANIZATION ( #363, #281 ) ;
#69 = EDGE_CURVE ( 'NONE', #201, #81, #267, .T. ) ;
#70 = AXIS2_PLACEMENT_3D ( 'NONE', #170, #141, #128 ) ;
#71 = VERTEX_POINT ( 'NONE', #386 ) ;
#72 = DIRECTION ( 'NONE',  ( 2.440099081153025072E-05, -0.9999999997022959164, 0.000000000000000000 ) ) ;
#73 = ORIENTED_EDGE ( 'NONE', *, *, #32, .F. ) ;
#74 = DIRECTION ( 'NONE',  ( -0.9999999997022959164, -2.440099081145985212E-05, -0.000000000000000000 ) ) ;
#75 = DIRECTION ( 'NONE',  ( 2.440099081124636593E-05, -0.9999999997022959164, 0.000000000000000000 ) ) ;
#76 = CARTESIAN_POINT ( 'NONE',  ( -108.4543947904138292, 5.277682149102544962, 0.000000000000000000 ) ) ;
#77 = EDGE_CURVE ( 'NONE', #227, #166, #248, .T. ) ;
#78 = ORIENTED_EDGE ( 'NONE', *, *, #133, .F. ) ;
#79 = DIRECTION ( 'NONE',  ( -0.9999999988091832215, -4.880198160830381192E-05, 0.000000000000000000 ) ) ;
#80 = ORIENTED_EDGE ( 'NONE', *, *, #270, .T. ) ;
#81 = VERTEX_POINT ( 'NONE', #84 ) ;
#82 = LINE ( 'NONE', #113, #314 ) ;
#83 = EDGE_LOOP ( 'NONE', ( #86, #127, #336, #30 ) ) ;
#84 = CARTESIAN_POINT ( 'NONE',  ( -108.4551512223197989, 27.42907299431107759, 2.712762990977474965E-15 ) ) ;
#85 = CARTESIAN_POINT ( 'NONE',  ( -106.4536383608894994, -25.72226903968701350, 0.000000000000000000 ) ) ;
#86 = ORIENTED_EDGE ( 'NONE', *, *, #62, .T. ) ;
#87 = ADVANCED_FACE ( 'NONE', ( #28 ), #332, .T. ) ;
#88 = AXIS2_PLACEMENT_3D ( 'NONE', #247, #375, #75 ) ;
#89 = DIRECTION ( 'NONE',  ( -1.000000000000000000, -3.089637378404785917E-17, 2.988259529324045092E-21 ) ) ;
#90 = AXIS2_PLACEMENT_3D ( 'NONE', #276, #188, #102 ) ;
#91 = LINE ( 'NONE', #36, #6 ) ;
#92 = DATE_AND_TIME ( #212, #316 ) ;
#93 = PERSON_AND_ORGANIZATION ( #363, #281 ) ;
#94 = ADVANCED_FACE ( 'NONE', ( #58 ), #213, .F. ) ;
#95 = ADVANCED_FACE ( 'NONE', ( #337 ), #354, .F. ) ;
#96 = ADVANCED_BREP_SHAPE_REPRESENTATION ( '3D_R-159_DN40_1780140', ( #338, #274 ), #225 ) ;
#97 = AXIS2_PLACEMENT_3D ( 'NONE', #343, #142, #355 ) ;
#98 = CC_DESIGN_SECURITY_CLASSIFICATION ( #53, ( #215 ) ) ;
#99 = AXIS2_PLACEMENT_3D ( 'NONE', #306, #308, #45 ) ;
#100 = CARTESIAN_POINT ( 'NONE',  ( -106.4551512223197989, 36.27773094185531733, 3.796408065616322873E-15 ) ) ;
#101 = ORIENTED_EDGE ( 'NONE', *, *, #125, .F. ) ;
#102 = DIRECTION ( 'NONE',  ( -2.440099081153025072E-05, 0.9999999997022956943, 0.000000000000000000 ) ) ;
#103 = DIRECTION ( 'NONE',  ( 4.880198160848200055E-05, -0.9999999988091832215, 1.224646798782770786E-16 ) ) ;
#104 = AXIS2_PLACEMENT_3D ( 'NONE', #131, #221, #160 ) ;
#105 = EDGE_CURVE ( 'NONE', #254, #166, #219, .T. ) ;
#106 = DIRECTION ( 'NONE',  ( -0.9999999997022959164, -2.440099081145985212E-05, -0.000000000000000000 ) ) ;
#107 = DIRECTION ( 'NONE',  ( -1.019370270702660286E-15, 1.000000000000000000, 0.000000000000000000 ) ) ;
#108 = ORIENTED_EDGE ( 'NONE', *, *, #61, .T. ) ;
#109 = DIRECTION ( 'NONE',  ( -0.9999999997022959164, -2.440099081145985212E-05, -0.000000000000000000 ) ) ;
#110 = ORIENTED_EDGE ( 'NONE', *, *, #136, .T. ) ;
#111 = VERTEX_POINT ( 'NONE', #100 ) ;
#112 = CARTESIAN_POINT ( 'NONE',  ( -106.4545619056442405, 5.277730947006404882, 0.000000000000000000 ) ) ;
#113 = CARTESIAN_POINT ( 'NONE',  ( -108.4551512223197989, 36.27773094185532443, 0.000000000000000000 ) ) ;
#114 = VERTEX_POINT ( 'NONE', #218 ) ;
#115 = CARTESIAN_POINT ( 'NONE',  ( -108.4540701905502829, -16.87370870664311440, 0.000000000000000000 ) ) ;
#116 = AXIS2_PLACEMENT_3D ( 'NONE', #112, #229, #351 ) ;
#117 = CONICAL_SURFACE ( 'NONE', #297, 30.99999999999999289, 2.440099081366786711E-05 ) ;
#118 = CARTESIAN_POINT ( 'NONE',  ( -108.4543947904138292, 5.277682149102544962, 0.000000000000000000 ) ) ;
#119 = CC_DESIGN_APPROVAL ( #35, ( #215 ) ) ;
#120 = VECTOR ( 'NONE', #358, 1000.000000000000114 ) ;
#121 = DATE_AND_TIME ( #37, #262 ) ;
#122 = DIRECTION ( 'NONE',  ( 2.440099081153368629E-05, -0.9999999997022958054, 0.000000000000000000 ) ) ;
#123 = CC_DESIGN_PERSON_AND_ORGANIZATION_ASSIGNMENT ( #176, #209, ( #215 ) ) ;
#124 = APPROVAL_STATUS ( 'not_yet_approved' ) ;
#125 = EDGE_CURVE ( 'NONE', #368, #114, #161, .T. ) ;
#126 = VECTOR ( 'NONE', #383, 1000.000000000000114 ) ;
#127 = ORIENTED_EDGE ( 'NONE', *, *, #105, .T. ) ;
#128 = DIRECTION ( 'NONE',  ( -2.440099081153025072E-05, 0.9999999997022956943, 0.000000000000000000 ) ) ;
#129 = APPROVAL_PERSON_ORGANIZATION ( #11, #180, #237 ) ;
#130 = LINE ( 'NONE', #307, #305 ) ;
#131 = CARTESIAN_POINT ( 'NONE',  ( -106.4545619056442405, 5.277730947006404882, 0.000000000000000000 ) ) ;
#132 = AXIS2_PLACEMENT_3D ( 'NONE', #256, #198, #321 ) ;
#133 = EDGE_CURVE ( 'NONE', #227, #385, #130, .T. ) ;
#134 = CARTESIAN_POINT ( 'NONE',  ( -108.4546107064350480, 5.277682143833979822, 0.000000000000000000 ) ) ;
#135 = AXIS2_PLACEMENT_3D ( 'NONE', #259, #362, #175 ) ;
#136 = EDGE_CURVE ( 'NONE', #111, #385, #264, .T. ) ;
#137 =( LENGTH_UNIT ( ) NAMED_UNIT ( * ) SI_UNIT ( .MILLI., .METRE. ) );
#138 = EDGE_LOOP ( 'NONE', ( #108, #197, #187, #313 ) ) ;
#139 = ORIENTED_EDGE ( 'NONE', *, *, #20, .T. ) ;
#140 = ORIENTED_EDGE ( 'NONE', *, *, #378, .F. ) ;
#141 = DIRECTION ( 'NONE',  ( 0.9999999997022959164, 2.440099081145985212E-05, 0.000000000000000000 ) ) ;
#142 = DIRECTION ( 'NONE',  ( -0.9999999997022959164, -2.440099081145985212E-05, -0.000000000000000000 ) ) ;
#143 = ORIENTED_EDGE ( 'NONE', *, *, #232, .T. ) ;
#144 = CARTESIAN_POINT ( 'NONE',  ( -106.4551512223197989, 36.27773094185532443, 3.796405077356795115E-15 ) ) ;
#145 = ADVANCED_FACE ( 'NONE', ( #156 ), #167, .F. ) ;
#146 = CARTESIAN_POINT ( 'NONE',  ( -108.4536383585078596, -25.72236664365022918, 3.796411053875853786E-15 ) ) ;
#147 = CIRCLE ( 'NONE', #97, 22.15139085707165378 ) ;
#148 = SECURITY_CLASSIFICATION_LEVEL ( 'unclassified' ) ;
#149 = CARTESIAN_POINT ( 'NONE',  ( -106.4551512223197989, 29.42907299431107404, 0.000000000000000000 ) ) ;
#150 = LOCAL_TIME ( 8, 41, 50.00000000000000000, #328 ) ;
#151 = APPROVAL_DATE_TIME ( #41, #35 ) ;
#152 = PRODUCT_RELATED_PRODUCT_CATEGORY ( 'detail', '', ( #159 ) ) ;
#153 = CIRCLE ( 'NONE', #88, 30.99999999999999289 ) ;
#154 = PERSON_AND_ORGANIZATION_ROLE ( 'classification_officer' ) ;
#155 = EDGE_CURVE ( 'NONE', #168, #350, #23, .T. ) ;
#156 = FACE_OUTER_BOUND ( 'NONE', #288, .T. ) ;
#157 = ORIENTED_EDGE ( 'NONE', *, *, #69, .T. ) ;
#158 = DIRECTION ( 'NONE',  ( 2.440099081124636593E-05, -0.9999999997022959164, 0.000000000000000000 ) ) ;
#159 = PRODUCT ( '3D_R-159_DN40_1780140', '3D_R-159_DN40_1780140', '', ( #211 ) ) ;
#160 = DIRECTION ( 'NONE',  ( 2.440099081145631830E-05, -0.9999999997022958054, 0.000000000000000000 ) ) ;
#161 = CIRCLE ( 'NONE', #369, 22.15000000059540497 ) ;
#162 = EDGE_CURVE ( 'NONE', #114, #81, #273, .T. ) ;
#163 = DIRECTION ( 'NONE',  ( 2.440099081120362465E-05, -0.9999999997022958054, 0.000000000000000000 ) ) ;
#164 = AXIS2_PLACEMENT_3D ( 'NONE', #54, #109, #226 ) ;
#165 = LOCAL_TIME ( 8, 41, 50.00000000000000000, #300 ) ;
#166 = VERTEX_POINT ( 'NONE', #149 ) ;
#167 = CONICAL_SURFACE ( 'NONE', #90, 22.15000000059540497, 1.570771925804082647 ) ;
#168 = VERTEX_POINT ( 'NONE', #263 ) ;
#169 = EDGE_LOOP ( 'NONE', ( #78, #228, #233, #318 ) ) ;
#170 = CARTESIAN_POINT ( 'NONE',  ( -51.45461074037330462, 5.279073000309819186, 0.000000000000000000 ) ) ;
#171 = APPLICATION_CONTEXT ( 'configuration controlled 3d designs of mechanical parts and assemblies' ) ;
#172 = CARTESIAN_POINT ( 'NONE',  ( -51.45397265446359825, -18.87092699130980833, 0.000000000000000000 ) ) ;
#173 = ORIENTED_EDGE ( 'NONE', *, *, #43, .T. ) ;
#174 = EDGE_CURVE ( 'NONE', #254, #71, #380, .T. ) ;
#175 = DIRECTION ( 'NONE',  ( -2.440099081152090964E-05, 0.9999999997022958054, 0.000000000000000000 ) ) ;
#176 = PERSON_AND_ORGANIZATION ( #363, #281 ) ;
#177 = DIRECTION ( 'NONE',  ( -0.9999999997022959164, -2.440099081145985212E-05, -0.000000000000000000 ) ) ;
#178 = SHAPE_DEFINITION_REPRESENTATION ( #220, #96 ) ;
#179 = APPROVAL_DATE_TIME ( #92, #202 ) ;
#180 = APPROVAL ( #365, 'UNSPECIFIED' ) ;
#181 = AXIS2_PLACEMENT_3D ( 'NONE', #76, #191, #222 ) ;
#182 = CARTESIAN_POINT ( 'NONE',  ( 0.000000000000000000, 0.000000000000000000, 0.000000000000000000 ) ) ;
#183 = COORDINATED_UNIVERSAL_TIME_OFFSET ( 1, 0, .AHEAD. ) ;
#184 = CONICAL_SURFACE ( 'NONE', #206, 24.14999999999999858, 2.440099081379394288E-05 ) ;
#185 = ORIENTED_EDGE ( 'NONE', *, *, #133, .T. ) ;
#186 = DIRECTION ( 'NONE',  ( 4.880198160737177752E-05, -0.9999999988091832215, 1.224646798782770786E-16 ) ) ;
#187 = ORIENTED_EDGE ( 'NONE', *, *, #155, .F. ) ;
#188 = DIRECTION ( 'NONE',  ( 0.9999999997022959164, 2.440099081145985212E-05, 0.000000000000000000 ) ) ;
#189 = CARTESIAN_POINT ( 'NONE',  ( -51.45456193839169146, 5.279073001500636408, 0.000000000000000000 ) ) ;
#190 = EDGE_CURVE ( 'NONE', #201, #168, #236, .T. ) ;
#191 = DIRECTION ( 'NONE',  ( 0.9999999997022959164, 2.440099081145985212E-05, 0.000000000000000000 ) ) ;
#192 =( NAMED_UNIT ( * ) SI_UNIT ( $, .STERADIAN. ) SOLID_ANGLE_UNIT ( ) );
#193 = ORIENTED_EDGE ( 'NONE', *, *, #174, .T. ) ;
#194 = AXIS2_PLACEMENT_3D ( 'NONE', #31, #253, #287 ) ;
#195 = FACE_OUTER_BOUND ( 'NONE', #56, .T. ) ;
#196 = ORIENTED_EDGE ( 'NONE', *, *, #190, .F. ) ;
#197 = ORIENTED_EDGE ( 'NONE', *, *, #379, .T. ) ;
#198 = DIRECTION ( 'NONE',  ( -0.9999999997022959164, -2.440099081145985212E-05, -0.000000000000000000 ) ) ;
#199 = CARTESIAN_POINT ( 'NONE',  ( -108.4551512223197989, 36.27773094193290149, 0.000000000000000000 ) ) ;
#200 = VECTOR ( 'NONE', #103, 1000.000000000000114 ) ;
#201 = VERTEX_POINT ( 'NONE', #65 ) ;
#202 = APPROVAL ( #124, 'UNSPECIFIED' ) ;
#203 = CIRCLE ( 'NONE', #104, 24.15134205449462712 ) ;
#204 = DIRECTION ( 'NONE',  ( 9.085275392249625437E-17, 1.000000000000000000, 0.000000000000000000 ) ) ;
#205 = DIRECTION ( 'NONE',  ( -0.9999999997022959164, -2.440099081145985212E-05, -0.000000000000000000 ) ) ;
#206 = AXIS2_PLACEMENT_3D ( 'NONE', #208, #177, #122 ) ;
#207 = ADVANCED_FACE ( 'NONE', ( #360 ), #184, .T. ) ;
#208 = CARTESIAN_POINT ( 'NONE',  ( -51.45456193839169146, 5.279073001500636408, 0.000000000000000000 ) ) ;
#209 = PERSON_AND_ORGANIZATION_ROLE ( 'creator' ) ;
#210 = APPLICATION_PROTOCOL_DEFINITION ( 'international standard', 'config_control_design', 1994, #216 ) ;
#211 = MECHANICAL_CONTEXT ( 'NONE', #216, 'mechanical' ) ;
#212 = CALENDAR_DATE ( 2024, 12, 8 ) ;
#213 = CONICAL_SURFACE ( 'NONE', #70, 22.15000000059540497, 1.570771925804082647 ) ;
#214 = ADVANCED_FACE ( 'NONE', ( #238 ), #335, .T. ) ;
#215 = PRODUCT_DEFINITION_FORMATION_WITH_SPECIFIED_SOURCE ( 'ANY', '', #159, .NOT_KNOWN. ) ;
#216 = APPLICATION_CONTEXT ( 'configuration controlled 3d designs of mechanical parts and assemblies' ) ;
#217 = VECTOR ( 'NONE', #79, 1000.000000000000114 ) ;
#218 = CARTESIAN_POINT ( 'NONE',  ( -51.45515122231979177, 27.42907299431108115, 0.000000000000000000 ) ) ;
#219 = LINE ( 'NONE', #370, #279 ) ;
#220 = PRODUCT_DEFINITION_SHAPE ( 'NONE', 'NONE',  #280 ) ;
#221 = DIRECTION ( 'NONE',  ( -0.9999999997022959164, -2.440099081145985212E-05, -0.000000000000000000 ) ) ;
#222 = DIRECTION ( 'NONE',  ( -2.440099081152090964E-05, 0.9999999997022958054, 0.000000000000000000 ) ) ;
#223 = DIRECTION ( 'NONE',  ( 2.440099081124636593E-05, -0.9999999997022959164, 0.000000000000000000 ) ) ;
#224 = EDGE_LOOP ( 'NONE', ( #73, #249, #243, #57 ) ) ;
#225 =( GEOMETRIC_REPRESENTATION_CONTEXT ( 3 ) GLOBAL_UNCERTAINTY_ASSIGNED_CONTEXT ( ( #33 ) ) GLOBAL_UNIT_ASSIGNED_CONTEXT ( ( #137, #323, #192 ) ) REPRESENTATION_CONTEXT ( 'NONE', 'WORKASPACE' ) );
#226 = DIRECTION ( 'NONE',  ( 2.440099081120362465E-05, -0.9999999997022958054, 0.000000000000000000 ) ) ;
#227 = VERTEX_POINT ( 'NONE', #3 ) ;
#228 = ORIENTED_EDGE ( 'NONE', *, *, #77, .T. ) ;
#229 = DIRECTION ( 'NONE',  ( -0.9999999997022959164, -2.440099081145985212E-05, -0.000000000000000000 ) ) ;
#230 = DIRECTION ( 'NONE',  ( 0.9999999997022959164, 2.440099081145985212E-05, 0.000000000000000000 ) ) ;
#231 = APPROVAL_PERSON_ORGANIZATION ( #329, #202, #67 ) ;
#232 = EDGE_CURVE ( 'NONE', #350, #168, #44, .T. ) ;
#233 = ORIENTED_EDGE ( 'NONE', *, *, #340, .T. ) ;
#234 = FACE_OUTER_BOUND ( 'NONE', #18, .T. ) ;
#235 = EDGE_CURVE ( 'NONE', #385, #168, #91, .T. ) ;
#236 = LINE ( 'NONE', #146, #120 ) ;
#237 = APPROVAL_ROLE ( '' ) ;
#238 = FACE_OUTER_BOUND ( 'NONE', #46, .T. ) ;
#239 = CALENDAR_DATE ( 2024, 12, 8 ) ;
#240 = DIRECTION ( 'NONE',  ( 0.000000000000000000, 0.000000000000000000, 1.000000000000000000 ) ) ;
#241 = EDGE_CURVE ( 'NONE', #71, #227, #39, .T. ) ;
#242 = CARTESIAN_POINT ( 'NONE',  ( -106.4545619056442405, 5.277730947006404882, 0.000000000000000000 ) ) ;
#243 = ORIENTED_EDGE ( 'NONE', *, *, #344, .T. ) ;
#244 = CIRCLE ( 'NONE', #17, 22.15000000059540497 ) ;
#245 = CC_DESIGN_DATE_AND_TIME_ASSIGNMENT ( #121, #330, ( #53 ) ) ;
#246 = DIRECTION ( 'NONE',  ( -0.9999999997022959164, -2.440099081145985212E-05, -0.000000000000000000 ) ) ;
#247 = CARTESIAN_POINT ( 'NONE',  ( -106.4543947916046562, 5.277730951084153688, 0.000000000000000000 ) ) ;
#248 = CIRCLE ( 'NONE', #116, 24.15134205449462712 ) ;
#249 = ORIENTED_EDGE ( 'NONE', *, *, #162, .T. ) ;
#250 = AXIS2_PLACEMENT_3D ( 'NONE', #47, #246, #158 ) ;
#251 = LINE ( 'NONE', #29, #55 ) ;
#252 = EDGE_LOOP ( 'NONE', ( #388, #101, #320, #157 ) ) ;
#253 = DIRECTION ( 'NONE',  ( -0.9999999997022959164, -2.440099081145985212E-05, -0.000000000000000000 ) ) ;
#254 = VERTEX_POINT ( 'NONE', #387 ) ;
#255 = ORIENTED_EDGE ( 'NONE', *, *, #69, .F. ) ;
#256 = CARTESIAN_POINT ( 'NONE',  ( -51.45456193839169146, 5.279073001500636408, 0.000000000000000000 ) ) ;
#257 = DIRECTION ( 'NONE',  ( 7.569865686975901786E-16, 1.000000000000000000, 0.000000000000000000 ) ) ;
#258 = ORIENTED_EDGE ( 'NONE', *, *, #241, .T. ) ;
#259 = CARTESIAN_POINT ( 'NONE',  ( -108.4543947904138292, 5.277682149102544962, 0.000000000000000000 ) ) ;
#260 = AXIS2_PLACEMENT_3D ( 'NONE', #317, #230, #60 ) ;
#261 = DIRECTION ( 'NONE',  ( 1.000000000000000000, 0.000000000000000000, 0.000000000000000000 ) ) ;
#262 = LOCAL_TIME ( 8, 41, 50.00000000000000000, #266 ) ;
#263 = CARTESIAN_POINT ( 'NONE',  ( -108.4536383585078596, -25.72236664357264857, 3.796411053866352745E-15 ) ) ;
#264 = CIRCLE ( 'NONE', #250, 30.99999999999999289 ) ;
#265 = PERSON_AND_ORGANIZATION ( #363, #281 ) ;
#266 = COORDINATED_UNIVERSAL_TIME_OFFSET ( 1, 0, .AHEAD. ) ;
#267 = CIRCLE ( 'NONE', #376, 22.15139085707165378 ) ;
#268 = CC_DESIGN_PERSON_AND_ORGANIZATION_ASSIGNMENT ( #265, #361, ( #159 ) ) ;
#269 = APPROVAL_DATE_TIME ( #66, #180 ) ;
#270 = EDGE_CURVE ( 'NONE', #114, #254, #251, .T. ) ;
#271 = ADVANCED_FACE ( 'NONE', ( #195 ), #367, .T. ) ;
#272 = ORIENTED_EDGE ( 'NONE', *, *, #43, .F. ) ;
#273 = LINE ( 'NONE', #63, #319 ) ;
#274 = AXIS2_PLACEMENT_3D ( 'NONE', #182, #240, #261 ) ;
#275 = ORIENTED_EDGE ( 'NONE', *, *, #379, .F. ) ;
#276 = CARTESIAN_POINT ( 'NONE',  ( -51.45461074037330462, 5.279073000309819186, 0.000000000000000000 ) ) ;
#277 = DIRECTION ( 'NONE',  ( -0.9999999997022959164, -2.440099081145985212E-05, -0.000000000000000000 ) ) ;
#278 = DIRECTION ( 'NONE',  ( 2.440099081153368290E-05, -0.9999999997022958054, 0.000000000000000000 ) ) ;
#279 = VECTOR ( 'NONE', #339, 1000.000000000000000 ) ;
#280 = PRODUCT_DEFINITION ( 'UNKNOWN', '', #215, #10 ) ;
#281 = ORGANIZATION ( 'UNSPECIFIED', 'UNSPECIFIED', '' ) ;
#282 = FACE_OUTER_BOUND ( 'NONE', #224, .T. ) ;
#283 = CC_DESIGN_APPROVAL ( #180, ( #53 ) ) ;
#284 = CARTESIAN_POINT ( 'NONE',  ( -51.45407025842681037, -16.87092699369144100, 2.835057340062581566E-15 ) ) ;
#285 = ORIENTED_EDGE ( 'NONE', *, *, #32, .T. ) ;
#286 = AXIS2_PLACEMENT_3D ( 'NONE', #118, #294, #296 ) ;
#287 = DIRECTION ( 'NONE',  ( 2.440099081124636593E-05, -0.9999999997022959164, 0.000000000000000000 ) ) ;
#288 = EDGE_LOOP ( 'NONE', ( #285, #139, #13, #345 ) ) ;
#289 = ORIENTED_EDGE ( 'NONE', *, *, #378, .T. ) ;
#290 = DIRECTION ( 'NONE',  ( 2.440099081120362465E-05, -0.9999999997022958054, 0.000000000000000000 ) ) ;
#291 = CARTESIAN_POINT ( 'NONE',  ( -106.4543947916046562, 5.277730951084153688, 0.000000000000000000 ) ) ;
#292 = ORIENTED_EDGE ( 'NONE', *, *, #20, .F. ) ;
#293 = CC_DESIGN_PERSON_AND_ORGANIZATION_ASSIGNMENT ( #68, #5, ( #215 ) ) ;
#294 = DIRECTION ( 'NONE',  ( -0.9999999997022959164, -2.440099081145985212E-05, -0.000000000000000000 ) ) ;
#295 = PERSON_AND_ORGANIZATION ( #363, #281 ) ;
#296 = DIRECTION ( 'NONE',  ( 2.440099081152090964E-05, -0.9999999997022958054, 0.000000000000000000 ) ) ;
#297 = AXIS2_PLACEMENT_3D ( 'NONE', #291, #22, #223 ) ;
#298 = CC_DESIGN_APPROVAL ( #202, ( #280 ) ) ;
#299 = CONICAL_SURFACE ( 'NONE', #181, 31.00004880198162382, 1.570771925804081981 ) ;
#300 = COORDINATED_UNIVERSAL_TIME_OFFSET ( 1, 0, .AHEAD. ) ;
#301 = CC_DESIGN_DATE_AND_TIME_ASSIGNMENT ( #326, #40, ( #280 ) ) ;
#302 = CALENDAR_DATE ( 2024, 12, 8 ) ;
#303 = AXIS2_PLACEMENT_3D ( 'NONE', #377, #342, #163 ) ;
#304 = APPROVAL_STATUS ( 'not_yet_approved' ) ;
#305 = VECTOR ( 'NONE', #186, 1000.000000000000114 ) ;
#306 = CARTESIAN_POINT ( 'NONE',  ( -108.4543947904138292, 5.277682149102544962, 0.000000000000000000 ) ) ;
#307 = CARTESIAN_POINT ( 'NONE',  ( -106.4539725889686821, -18.87361110029826605, 2.957686374214970994E-15 ) ) ;
#308 = DIRECTION ( 'NONE',  ( -0.9999999997022959164, -2.440099081145985212E-05, -0.000000000000000000 ) ) ;
#309 = LINE ( 'NONE', #49, #200 ) ;
#310 = ADVANCED_FACE ( 'NONE', ( #381 ), #117, .T. ) ;
#311 = FACE_OUTER_BOUND ( 'NONE', #59, .T. ) ;
#312 = FACE_OUTER_BOUND ( 'NONE', #252, .T. ) ;
#313 = ORIENTED_EDGE ( 'NONE', *, *, #235, .F. ) ;
#314 = VECTOR ( 'NONE', #257, 1000.000000000000000 ) ;
#315 = ADVANCED_FACE ( 'NONE', ( #234 ), #51, .F. ) ;
#316 = LOCAL_TIME ( 8, 41, 50.00000000000000000, #366 ) ;
#317 = CARTESIAN_POINT ( 'NONE',  ( -106.4545619056442405, 5.277730947006404882, 0.000000000000000000 ) ) ;
#318 = ORIENTED_EDGE ( 'NONE', *, *, #61, .F. ) ;
#319 = VECTOR ( 'NONE', #89, 1000.000000000000000 ) ;
#320 = ORIENTED_EDGE ( 'NONE', *, *, #357, .T. ) ;
#321 = DIRECTION ( 'NONE',  ( 2.440099081153368629E-05, -0.9999999997022958054, 0.000000000000000000 ) ) ;
#322 = EDGE_LOOP ( 'NONE', ( #346, #193, #258, #272 ) ) ;
#323 =( NAMED_UNIT ( * ) PLANE_ANGLE_UNIT ( ) SI_UNIT ( $, .RADIAN. ) );
#324 = AXIS2_PLACEMENT_3D ( 'NONE', #189, #21, #278 ) ;
#325 = DIRECTION ( 'NONE',  ( 2.440099081153368290E-05, -0.9999999997022958054, 0.000000000000000000 ) ) ;
#326 = DATE_AND_TIME ( #239, #4 ) ;
#327 = DIRECTION ( 'NONE',  ( -0.9999999988091832215, -4.880198160817773276E-05, 0.000000000000000000 ) ) ;
#328 = COORDINATED_UNIVERSAL_TIME_OFFSET ( 1, 0, .AHEAD. ) ;
#329 = PERSON_AND_ORGANIZATION ( #363, #281 ) ;
#330 = DATE_TIME_ROLE ( 'classification_date' ) ;
#331 = ADVANCED_FACE ( 'NONE', ( #312 ), #347, .F. ) ;
#332 = CONICAL_SURFACE ( 'NONE', #132, 24.14999999999999858, 2.440099081379394288E-05 ) ;
#333 = PERSON_AND_ORGANIZATION_ROLE ( 'creator' ) ;
#334 = APPROVAL_PERSON_ORGANIZATION ( #12, #35, #364 ) ;
#335 = CONICAL_SURFACE ( 'NONE', #135, 31.00004880198162382, 1.570771925804081981 ) ;
#336 = ORIENTED_EDGE ( 'NONE', *, *, #77, .F. ) ;
#337 = FACE_OUTER_BOUND ( 'NONE', #169, .T. ) ;
#338 = MANIFOLD_SOLID_BREP ( 'Rotation1', #371 ) ;
#339 = DIRECTION ( 'NONE',  ( -1.000000000000000000, -8.733248499370738216E-17, 2.988259529317133561E-21 ) ) ;
#340 = EDGE_CURVE ( 'NONE', #166, #111, #348, .T. ) ;
#341 = DIRECTION ( 'NONE',  ( 2.440099081153025072E-05, -0.9999999997022959164, 0.000000000000000000 ) ) ;
#342 = DIRECTION ( 'NONE',  ( -0.9999999997022959164, -2.440099081145985212E-05, -0.000000000000000000 ) ) ;
#343 = CARTESIAN_POINT ( 'NONE',  ( -108.4546107064350480, 5.277682143833979822, 0.000000000000000000 ) ) ;
#344 = EDGE_CURVE ( 'NONE', #81, #201, #147, .T. ) ;
#345 = ORIENTED_EDGE ( 'NONE', *, *, #270, .F. ) ;
#346 = ORIENTED_EDGE ( 'NONE', *, *, #105, .F. ) ;
#347 = CONICAL_SURFACE ( 'NONE', #164, 22.15139085707165378, 2.440099081385037900E-05 ) ;
#348 = LINE ( 'NONE', #25, #2 ) ;
#349 = ORIENTED_EDGE ( 'NONE', *, *, #235, .T. ) ;
#350 = VERTEX_POINT ( 'NONE', #199 ) ;
#351 = DIRECTION ( 'NONE',  ( 2.440099081145631830E-05, -0.9999999997022958054, 0.000000000000000000 ) ) ;
#352 = DIRECTION ( 'NONE',  ( -1.000000000000000000, -2.134082569948264618E-16, 2.988259529301693772E-21 ) ) ;
#353 = ORIENTED_EDGE ( 'NONE', *, *, #62, .F. ) ;
#354 = CONICAL_SURFACE ( 'NONE', #19, 24.15134205449462712, 1.570771925804083757 ) ;
#355 = DIRECTION ( 'NONE',  ( 2.440099081120362465E-05, -0.9999999997022958054, 0.000000000000000000 ) ) ;
#356 = CIRCLE ( 'NONE', #324, 24.15000000000000213 ) ;
#357 = EDGE_CURVE ( 'NONE', #368, #201, #50, .T. ) ;
#358 = DIRECTION ( 'NONE',  ( 4.880198160914813436E-05, -0.9999999988091832215, 1.224646798782770786E-16 ) ) ;
#359 = AXIS2_PLACEMENT_3D ( 'NONE', #7, #205, #325 ) ;
#360 = FACE_OUTER_BOUND ( 'NONE', #83, .T. ) ;
#361 = PERSON_AND_ORGANIZATION_ROLE ( 'design_owner' ) ;
#362 = DIRECTION ( 'NONE',  ( 0.9999999997022959164, 2.440099081145985212E-05, 0.000000000000000000 ) ) ;
#363 = PERSON ( 'UNSPECIFIED', 'UNSPECIFIED', 'UNSPECIFIED', ('UNSPECIFIED'), ('UNSPECIFIED'), ('UNSPECIFIED') ) ;
#364 = APPROVAL_ROLE ( '' ) ;
#365 = APPROVAL_STATUS ( 'not_yet_approved' ) ;
#366 = COORDINATED_UNIVERSAL_TIME_OFFSET ( 1, 0, .AHEAD. ) ;
#367 = CONICAL_SURFACE ( 'NONE', #194, 30.99999999999999289, 2.440099081366786711E-05 ) ;
#368 = VERTEX_POINT ( 'NONE', #284 ) ;
#369 = AXIS2_PLACEMENT_3D ( 'NONE', #373, #74, #72 ) ;
#370 = CARTESIAN_POINT ( 'NONE',  ( -51.45515122231979177, 29.42907299431107759, 2.957522019940858324E-15 ) ) ;
#371 = CLOSED_SHELL ( 'NONE', ( #207, #315, #310, #1, #34, #145, #94, #331, #214, #271, #95, #87 ) ) ;
#372 = ORIENTED_EDGE ( 'NONE', *, *, #136, .F. ) ;
#373 = CARTESIAN_POINT ( 'NONE',  ( -51.45461074037330462, 5.279073000309819186, 0.000000000000000000 ) ) ;
#374 = CC_DESIGN_PERSON_AND_ORGANIZATION_ASSIGNMENT ( #93, #333, ( #280 ) ) ;
#375 = DIRECTION ( 'NONE',  ( -0.9999999997022959164, -2.440099081145985212E-05, -0.000000000000000000 ) ) ;
#376 = AXIS2_PLACEMENT_3D ( 'NONE', #134, #106, #290 ) ;
#377 = CARTESIAN_POINT ( 'NONE',  ( -108.4546107064350480, 5.277682143833979822, 0.000000000000000000 ) ) ;
#378 = EDGE_CURVE ( 'NONE', #81, #350, #82, .T. ) ;
#379 = EDGE_CURVE ( 'NONE', #111, #350, #389, .T. ) ;
#380 = CIRCLE ( 'NONE', #359, 24.15000000000000213 ) ;
#381 = FACE_OUTER_BOUND ( 'NONE', #138, .T. ) ;
#382 = ORIENTED_EDGE ( 'NONE', *, *, #155, .T. ) ;
#383 = DIRECTION ( 'NONE',  ( -0.9999999988091832215, -4.880198160836024464E-05, 0.000000000000000000 ) ) ;
#384 = ORIENTED_EDGE ( 'NONE', *, *, #232, .F. ) ;
#385 = VERTEX_POINT ( 'NONE', #85 ) ;
#386 = CARTESIAN_POINT ( 'NONE',  ( -51.45397265446359825, -18.87092699124761808, 2.957522019933242267E-15 ) ) ;
#387 = CARTESIAN_POINT ( 'NONE',  ( -51.45515122231979177, 29.42907299437670687, 0.000000000000000000 ) ) ;
#388 = ORIENTED_EDGE ( 'NONE', *, *, #162, .F. ) ;
#389 = LINE ( 'NONE', #144, #38 ) ;
ENDSEC;
END-ISO-10303-21;
