ISO-10303-21;
HEADER;
/* Generated by software containing ST-Developer
 * from STEP Tools, Inc. (www.steptools.com) 
 */

FILE_DESCRIPTION(
/* description */ (''),
/* implementation_level */ '2;1');

FILE_NAME(
/* name */ 
'C:\\Users\\cad\\Desktop\\Zeichnungen neu von Ralph\\3D_Kupplung_R134-
PE\\3D_R134-PE-35-DN32_171011275.stp',
/* time_stamp */ '2021-06-21T11:53:22+02:00',
/* author */ ('cad'),
/* organization */ (''),
/* preprocessor_version */ 'ST-DEVELOPER v18.1',
/* originating_system */ 'Autodesk Inventor 2022',
/* authorisation */ '');

FILE_SCHEMA (('AUTOMOTIVE_DESIGN { 1 0 10303 214 3 1 1 }'));
ENDSEC;

DATA;
#10=MECHANICAL_DESIGN_GEOMETRIC_PRESENTATION_REPRESENTATION('',(#13),#620);
#11=SHAPE_REPRESENTATION_RELATIONSHIP('SRR','None',#627,#12);
#12=ADVANCED_BREP_SHAPE_REPRESENTATION('',(#14),#619);
#13=STYLED_ITEM('',(#636),#14);
#14=MANIFOLD_SOLID_BREP('Volumenk\X\F6rper1',#326);
#15=TOROIDAL_SURFACE('',#355,23.7806875021114,0.2);
#16=TOROIDAL_SURFACE('',#362,25.2090093457251,0.4);
#17=TOROIDAL_SURFACE('',#367,25.4,0.4);
#18=TOROIDAL_SURFACE('',#377,17.9,0.4);
#19=CYLINDRICAL_SURFACE('',#352,16.);
#20=CYLINDRICAL_SURFACE('',#374,25.);
#21=CYLINDRICAL_SURFACE('',#384,17.5);
#22=CYLINDRICAL_SURFACE('',#390,27.);
#23=FACE_BOUND('',#55,.T.);
#24=FACE_BOUND('',#61,.T.);
#25=FACE_BOUND('',#64,.T.);
#26=FACE_BOUND('',#68,.T.);
#27=FACE_BOUND('',#76,.T.);
#28=PLANE('',#350);
#29=PLANE('',#365);
#30=PLANE('',#372);
#31=PLANE('',#382);
#32=PLANE('',#397);
#33=FACE_OUTER_BOUND('',#53,.T.);
#34=FACE_OUTER_BOUND('',#54,.T.);
#35=FACE_OUTER_BOUND('',#56,.T.);
#36=FACE_OUTER_BOUND('',#57,.T.);
#37=FACE_OUTER_BOUND('',#58,.T.);
#38=FACE_OUTER_BOUND('',#59,.T.);
#39=FACE_OUTER_BOUND('',#60,.T.);
#40=FACE_OUTER_BOUND('',#62,.T.);
#41=FACE_OUTER_BOUND('',#63,.T.);
#42=FACE_OUTER_BOUND('',#65,.T.);
#43=FACE_OUTER_BOUND('',#66,.T.);
#44=FACE_OUTER_BOUND('',#67,.T.);
#45=FACE_OUTER_BOUND('',#69,.T.);
#46=FACE_OUTER_BOUND('',#70,.T.);
#47=FACE_OUTER_BOUND('',#71,.T.);
#48=FACE_OUTER_BOUND('',#72,.T.);
#49=FACE_OUTER_BOUND('',#73,.T.);
#50=FACE_OUTER_BOUND('',#74,.T.);
#51=FACE_OUTER_BOUND('',#75,.T.);
#52=FACE_OUTER_BOUND('',#77,.T.);
#53=EDGE_LOOP('',(#209,#210,#211,#212,#213));
#54=EDGE_LOOP('',(#214));
#55=EDGE_LOOP('',(#215));
#56=EDGE_LOOP('',(#216,#217,#218,#219,#220,#221));
#57=EDGE_LOOP('',(#222,#223,#224,#225,#226));
#58=EDGE_LOOP('',(#227,#228,#229,#230,#231,#232));
#59=EDGE_LOOP('',(#233,#234,#235,#236,#237));
#60=EDGE_LOOP('',(#238));
#61=EDGE_LOOP('',(#239));
#62=EDGE_LOOP('',(#240,#241,#242,#243,#244));
#63=EDGE_LOOP('',(#245));
#64=EDGE_LOOP('',(#246));
#65=EDGE_LOOP('',(#247,#248,#249,#250,#251,#252));
#66=EDGE_LOOP('',(#253,#254,#255,#256,#257));
#67=EDGE_LOOP('',(#258));
#68=EDGE_LOOP('',(#259));
#69=EDGE_LOOP('',(#260,#261,#262,#263,#264,#265));
#70=EDGE_LOOP('',(#266,#267,#268,#269,#270));
#71=EDGE_LOOP('',(#271,#272,#273,#274,#275,#276));
#72=EDGE_LOOP('',(#277,#278,#279,#280,#281));
#73=EDGE_LOOP('',(#282,#283,#284,#285,#286));
#74=EDGE_LOOP('',(#287,#288,#289,#290,#291));
#75=EDGE_LOOP('',(#292));
#76=EDGE_LOOP('',(#293));
#77=EDGE_LOOP('',(#294,#295,#296,#297,#298));
#78=LINE('',#528,#89);
#79=LINE('',#535,#90);
#80=LINE('',#547,#91);
#81=LINE('',#571,#92);
#82=LINE('',#588,#93);
#83=LINE('',#594,#94);
#84=LINE('',#600,#95);
#85=LINE('',#605,#96);
#86=LINE('',#607,#97);
#87=LINE('',#610,#98);
#88=LINE('',#616,#99);
#89=VECTOR('',#408,16.75);
#90=VECTOR('',#417,16.);
#91=VECTOR('',#432,24.4101921749739);
#92=VECTOR('',#463,25.);
#93=VECTOR('',#484,17.5);
#94=VECTOR('',#491,26.85);
#95=VECTOR('',#498,27.);
#96=VECTOR('',#505,26.85);
#97=VECTOR('',#508,24.85);
#98=VECTOR('',#511,17.35);
#99=VECTOR('',#520,16.15);
#100=CIRCLE('',#347,16.);
#101=CIRCLE('',#348,16.);
#102=CIRCLE('',#349,17.5);
#103=CIRCLE('',#351,23.7806875021114);
#104=CIRCLE('',#353,16.);
#105=CIRCLE('',#354,16.);
#106=CIRCLE('',#356,0.2);
#107=CIRCLE('',#357,23.9779446224188);
#108=CIRCLE('',#358,23.9779446224188);
#109=CIRCLE('',#360,24.8144951051102);
#110=CIRCLE('',#361,24.8144951051102);
#111=CIRCLE('',#363,25.2090093457251);
#112=CIRCLE('',#364,0.4);
#113=CIRCLE('',#366,26.7);
#114=CIRCLE('',#368,25.);
#115=CIRCLE('',#369,0.4);
#116=CIRCLE('',#370,25.4);
#117=CIRCLE('',#371,25.);
#118=CIRCLE('',#373,26.7);
#119=CIRCLE('',#375,25.);
#120=CIRCLE('',#376,25.);
#121=CIRCLE('',#378,17.5);
#122=CIRCLE('',#379,0.4);
#123=CIRCLE('',#380,17.9);
#124=CIRCLE('',#381,17.5);
#125=CIRCLE('',#383,24.7);
#126=CIRCLE('',#385,17.5);
#127=CIRCLE('',#386,17.5);
#128=CIRCLE('',#388,27.);
#129=CIRCLE('',#389,27.);
#130=CIRCLE('',#391,27.);
#131=CIRCLE('',#392,27.);
#132=CIRCLE('',#396,17.2);
#133=CIRCLE('',#398,16.3);
#134=VERTEX_POINT('',#523);
#135=VERTEX_POINT('',#524);
#136=VERTEX_POINT('',#527);
#137=VERTEX_POINT('',#531);
#138=VERTEX_POINT('',#534);
#139=VERTEX_POINT('',#536);
#140=VERTEX_POINT('',#540);
#141=VERTEX_POINT('',#542);
#142=VERTEX_POINT('',#546);
#143=VERTEX_POINT('',#548);
#144=VERTEX_POINT('',#552);
#145=VERTEX_POINT('',#556);
#146=VERTEX_POINT('',#559);
#147=VERTEX_POINT('',#560);
#148=VERTEX_POINT('',#562);
#149=VERTEX_POINT('',#567);
#150=VERTEX_POINT('',#570);
#151=VERTEX_POINT('',#572);
#152=VERTEX_POINT('',#576);
#153=VERTEX_POINT('',#577);
#154=VERTEX_POINT('',#579);
#155=VERTEX_POINT('',#584);
#156=VERTEX_POINT('',#587);
#157=VERTEX_POINT('',#589);
#158=VERTEX_POINT('',#593);
#159=VERTEX_POINT('',#595);
#160=VERTEX_POINT('',#599);
#161=VERTEX_POINT('',#601);
#162=VERTEX_POINT('',#609);
#163=VERTEX_POINT('',#613);
#164=EDGE_CURVE('',#134,#135,#100,.T.);
#165=EDGE_CURVE('',#135,#134,#101,.T.);
#166=EDGE_CURVE('',#134,#136,#78,.T.);
#167=EDGE_CURVE('',#136,#136,#102,.T.);
#168=EDGE_CURVE('',#137,#137,#103,.T.);
#169=EDGE_CURVE('',#135,#138,#79,.T.);
#170=EDGE_CURVE('',#139,#138,#104,.T.);
#171=EDGE_CURVE('',#138,#139,#105,.T.);
#172=EDGE_CURVE('',#137,#140,#106,.T.);
#173=EDGE_CURVE('',#140,#141,#107,.T.);
#174=EDGE_CURVE('',#141,#140,#108,.T.);
#175=EDGE_CURVE('',#141,#142,#80,.T.);
#176=EDGE_CURVE('',#143,#142,#109,.T.);
#177=EDGE_CURVE('',#142,#143,#110,.T.);
#178=EDGE_CURVE('',#144,#144,#111,.T.);
#179=EDGE_CURVE('',#144,#143,#112,.T.);
#180=EDGE_CURVE('',#145,#145,#113,.T.);
#181=EDGE_CURVE('',#146,#147,#114,.T.);
#182=EDGE_CURVE('',#147,#148,#115,.T.);
#183=EDGE_CURVE('',#148,#148,#116,.T.);
#184=EDGE_CURVE('',#147,#146,#117,.T.);
#185=EDGE_CURVE('',#149,#149,#118,.T.);
#186=EDGE_CURVE('',#146,#150,#81,.T.);
#187=EDGE_CURVE('',#151,#150,#119,.T.);
#188=EDGE_CURVE('',#150,#151,#120,.T.);
#189=EDGE_CURVE('',#152,#153,#121,.T.);
#190=EDGE_CURVE('',#153,#154,#122,.T.);
#191=EDGE_CURVE('',#154,#154,#123,.T.);
#192=EDGE_CURVE('',#153,#152,#124,.T.);
#193=EDGE_CURVE('',#155,#155,#125,.T.);
#194=EDGE_CURVE('',#152,#156,#82,.T.);
#195=EDGE_CURVE('',#157,#156,#126,.T.);
#196=EDGE_CURVE('',#156,#157,#127,.T.);
#197=EDGE_CURVE('',#145,#158,#83,.T.);
#198=EDGE_CURVE('',#158,#159,#128,.T.);
#199=EDGE_CURVE('',#159,#158,#129,.T.);
#200=EDGE_CURVE('',#159,#160,#84,.T.);
#201=EDGE_CURVE('',#161,#160,#130,.T.);
#202=EDGE_CURVE('',#160,#161,#131,.T.);
#203=EDGE_CURVE('',#161,#149,#85,.T.);
#204=EDGE_CURVE('',#151,#155,#86,.T.);
#205=EDGE_CURVE('',#157,#162,#87,.T.);
#206=EDGE_CURVE('',#162,#162,#132,.T.);
#207=EDGE_CURVE('',#163,#163,#133,.T.);
#208=EDGE_CURVE('',#163,#139,#88,.T.);
#209=ORIENTED_EDGE('',*,*,#164,.T.);
#210=ORIENTED_EDGE('',*,*,#165,.T.);
#211=ORIENTED_EDGE('',*,*,#166,.T.);
#212=ORIENTED_EDGE('',*,*,#167,.T.);
#213=ORIENTED_EDGE('',*,*,#166,.F.);
#214=ORIENTED_EDGE('',*,*,#168,.F.);
#215=ORIENTED_EDGE('',*,*,#167,.F.);
#216=ORIENTED_EDGE('',*,*,#164,.F.);
#217=ORIENTED_EDGE('',*,*,#165,.F.);
#218=ORIENTED_EDGE('',*,*,#169,.T.);
#219=ORIENTED_EDGE('',*,*,#170,.F.);
#220=ORIENTED_EDGE('',*,*,#171,.F.);
#221=ORIENTED_EDGE('',*,*,#169,.F.);
#222=ORIENTED_EDGE('',*,*,#168,.T.);
#223=ORIENTED_EDGE('',*,*,#172,.T.);
#224=ORIENTED_EDGE('',*,*,#173,.T.);
#225=ORIENTED_EDGE('',*,*,#174,.T.);
#226=ORIENTED_EDGE('',*,*,#172,.F.);
#227=ORIENTED_EDGE('',*,*,#174,.F.);
#228=ORIENTED_EDGE('',*,*,#175,.T.);
#229=ORIENTED_EDGE('',*,*,#176,.F.);
#230=ORIENTED_EDGE('',*,*,#177,.F.);
#231=ORIENTED_EDGE('',*,*,#175,.F.);
#232=ORIENTED_EDGE('',*,*,#173,.F.);
#233=ORIENTED_EDGE('',*,*,#178,.T.);
#234=ORIENTED_EDGE('',*,*,#179,.T.);
#235=ORIENTED_EDGE('',*,*,#176,.T.);
#236=ORIENTED_EDGE('',*,*,#177,.T.);
#237=ORIENTED_EDGE('',*,*,#179,.F.);
#238=ORIENTED_EDGE('',*,*,#180,.F.);
#239=ORIENTED_EDGE('',*,*,#178,.F.);
#240=ORIENTED_EDGE('',*,*,#181,.T.);
#241=ORIENTED_EDGE('',*,*,#182,.T.);
#242=ORIENTED_EDGE('',*,*,#183,.T.);
#243=ORIENTED_EDGE('',*,*,#182,.F.);
#244=ORIENTED_EDGE('',*,*,#184,.T.);
#245=ORIENTED_EDGE('',*,*,#185,.F.);
#246=ORIENTED_EDGE('',*,*,#183,.F.);
#247=ORIENTED_EDGE('',*,*,#181,.F.);
#248=ORIENTED_EDGE('',*,*,#186,.T.);
#249=ORIENTED_EDGE('',*,*,#187,.F.);
#250=ORIENTED_EDGE('',*,*,#188,.F.);
#251=ORIENTED_EDGE('',*,*,#186,.F.);
#252=ORIENTED_EDGE('',*,*,#184,.F.);
#253=ORIENTED_EDGE('',*,*,#189,.T.);
#254=ORIENTED_EDGE('',*,*,#190,.T.);
#255=ORIENTED_EDGE('',*,*,#191,.T.);
#256=ORIENTED_EDGE('',*,*,#190,.F.);
#257=ORIENTED_EDGE('',*,*,#192,.T.);
#258=ORIENTED_EDGE('',*,*,#193,.F.);
#259=ORIENTED_EDGE('',*,*,#191,.F.);
#260=ORIENTED_EDGE('',*,*,#189,.F.);
#261=ORIENTED_EDGE('',*,*,#194,.T.);
#262=ORIENTED_EDGE('',*,*,#195,.F.);
#263=ORIENTED_EDGE('',*,*,#196,.F.);
#264=ORIENTED_EDGE('',*,*,#194,.F.);
#265=ORIENTED_EDGE('',*,*,#192,.F.);
#266=ORIENTED_EDGE('',*,*,#180,.T.);
#267=ORIENTED_EDGE('',*,*,#197,.T.);
#268=ORIENTED_EDGE('',*,*,#198,.T.);
#269=ORIENTED_EDGE('',*,*,#199,.T.);
#270=ORIENTED_EDGE('',*,*,#197,.F.);
#271=ORIENTED_EDGE('',*,*,#198,.F.);
#272=ORIENTED_EDGE('',*,*,#199,.F.);
#273=ORIENTED_EDGE('',*,*,#200,.T.);
#274=ORIENTED_EDGE('',*,*,#201,.F.);
#275=ORIENTED_EDGE('',*,*,#202,.F.);
#276=ORIENTED_EDGE('',*,*,#200,.F.);
#277=ORIENTED_EDGE('',*,*,#201,.T.);
#278=ORIENTED_EDGE('',*,*,#202,.T.);
#279=ORIENTED_EDGE('',*,*,#203,.T.);
#280=ORIENTED_EDGE('',*,*,#185,.T.);
#281=ORIENTED_EDGE('',*,*,#203,.F.);
#282=ORIENTED_EDGE('',*,*,#187,.T.);
#283=ORIENTED_EDGE('',*,*,#188,.T.);
#284=ORIENTED_EDGE('',*,*,#204,.T.);
#285=ORIENTED_EDGE('',*,*,#193,.T.);
#286=ORIENTED_EDGE('',*,*,#204,.F.);
#287=ORIENTED_EDGE('',*,*,#195,.T.);
#288=ORIENTED_EDGE('',*,*,#196,.T.);
#289=ORIENTED_EDGE('',*,*,#205,.T.);
#290=ORIENTED_EDGE('',*,*,#206,.T.);
#291=ORIENTED_EDGE('',*,*,#205,.F.);
#292=ORIENTED_EDGE('',*,*,#206,.F.);
#293=ORIENTED_EDGE('',*,*,#207,.F.);
#294=ORIENTED_EDGE('',*,*,#207,.T.);
#295=ORIENTED_EDGE('',*,*,#208,.T.);
#296=ORIENTED_EDGE('',*,*,#170,.T.);
#297=ORIENTED_EDGE('',*,*,#171,.T.);
#298=ORIENTED_EDGE('',*,*,#208,.F.);
#299=CONICAL_SURFACE('',#346,16.75,0.78539816339745);
#300=CONICAL_SURFACE('',#359,24.4101921749739,0.165806278939461);
#301=CONICAL_SURFACE('',#387,26.85,0.785398163397443);
#302=CONICAL_SURFACE('',#393,26.85,0.785398163397452);
#303=CONICAL_SURFACE('',#394,24.85,0.785398163397444);
#304=CONICAL_SURFACE('',#395,17.35,0.785398163397452);
#305=CONICAL_SURFACE('',#399,16.15,0.785398163397445);
#306=ADVANCED_FACE('',(#33),#299,.F.);
#307=ADVANCED_FACE('',(#34,#23),#28,.T.);
#308=ADVANCED_FACE('',(#35),#19,.F.);
#309=ADVANCED_FACE('',(#36),#15,.T.);
#310=ADVANCED_FACE('',(#37),#300,.T.);
#311=ADVANCED_FACE('',(#38),#16,.F.);
#312=ADVANCED_FACE('',(#39,#24),#29,.T.);
#313=ADVANCED_FACE('',(#40),#17,.F.);
#314=ADVANCED_FACE('',(#41,#25),#30,.T.);
#315=ADVANCED_FACE('',(#42),#20,.T.);
#316=ADVANCED_FACE('',(#43),#18,.F.);
#317=ADVANCED_FACE('',(#44,#26),#31,.T.);
#318=ADVANCED_FACE('',(#45),#21,.T.);
#319=ADVANCED_FACE('',(#46),#301,.T.);
#320=ADVANCED_FACE('',(#47),#22,.T.);
#321=ADVANCED_FACE('',(#48),#302,.T.);
#322=ADVANCED_FACE('',(#49),#303,.T.);
#323=ADVANCED_FACE('',(#50),#304,.T.);
#324=ADVANCED_FACE('',(#51,#27),#32,.T.);
#325=ADVANCED_FACE('',(#52),#305,.F.);
#326=CLOSED_SHELL('',(#306,#307,#308,#309,#310,#311,#312,#313,#314,#315,
#316,#317,#318,#319,#320,#321,#322,#323,#324,#325));
#327=DERIVED_UNIT_ELEMENT(#329,1.);
#328=DERIVED_UNIT_ELEMENT(#622,-3.);
#329=(
MASS_UNIT()
NAMED_UNIT(*)
SI_UNIT($,.GRAM.)
);
#330=DERIVED_UNIT((#327,#328));
#331=MEASURE_REPRESENTATION_ITEM('density measure',
POSITIVE_RATIO_MEASURE(1.),#330);
#332=PROPERTY_DEFINITION_REPRESENTATION(#337,#334);
#333=PROPERTY_DEFINITION_REPRESENTATION(#338,#335);
#334=REPRESENTATION('material name',(#336),#619);
#335=REPRESENTATION('density',(#331),#619);
#336=DESCRIPTIVE_REPRESENTATION_ITEM('Generisch','Generisch');
#337=PROPERTY_DEFINITION('material property','material name',#629);
#338=PROPERTY_DEFINITION('material property','density of part',#629);
#339=DATE_TIME_ROLE('creation_date');
#340=APPLIED_DATE_AND_TIME_ASSIGNMENT(#341,#339,(#629));
#341=DATE_AND_TIME(#342,#343);
#342=CALENDAR_DATE(2021,21,6);
#343=LOCAL_TIME(0,0,0.,#344);
#344=COORDINATED_UNIVERSAL_TIME_OFFSET(0,0,.BEHIND.);
#345=AXIS2_PLACEMENT_3D('placement',#521,#400,#401);
#346=AXIS2_PLACEMENT_3D('',#522,#402,#403);
#347=AXIS2_PLACEMENT_3D('',#525,#404,#405);
#348=AXIS2_PLACEMENT_3D('',#526,#406,#407);
#349=AXIS2_PLACEMENT_3D('',#529,#409,#410);
#350=AXIS2_PLACEMENT_3D('',#530,#411,#412);
#351=AXIS2_PLACEMENT_3D('',#532,#413,#414);
#352=AXIS2_PLACEMENT_3D('',#533,#415,#416);
#353=AXIS2_PLACEMENT_3D('',#537,#418,#419);
#354=AXIS2_PLACEMENT_3D('',#538,#420,#421);
#355=AXIS2_PLACEMENT_3D('',#539,#422,#423);
#356=AXIS2_PLACEMENT_3D('',#541,#424,#425);
#357=AXIS2_PLACEMENT_3D('',#543,#426,#427);
#358=AXIS2_PLACEMENT_3D('',#544,#428,#429);
#359=AXIS2_PLACEMENT_3D('',#545,#430,#431);
#360=AXIS2_PLACEMENT_3D('',#549,#433,#434);
#361=AXIS2_PLACEMENT_3D('',#550,#435,#436);
#362=AXIS2_PLACEMENT_3D('',#551,#437,#438);
#363=AXIS2_PLACEMENT_3D('',#553,#439,#440);
#364=AXIS2_PLACEMENT_3D('',#554,#441,#442);
#365=AXIS2_PLACEMENT_3D('',#555,#443,#444);
#366=AXIS2_PLACEMENT_3D('',#557,#445,#446);
#367=AXIS2_PLACEMENT_3D('',#558,#447,#448);
#368=AXIS2_PLACEMENT_3D('',#561,#449,#450);
#369=AXIS2_PLACEMENT_3D('',#563,#451,#452);
#370=AXIS2_PLACEMENT_3D('',#564,#453,#454);
#371=AXIS2_PLACEMENT_3D('',#565,#455,#456);
#372=AXIS2_PLACEMENT_3D('',#566,#457,#458);
#373=AXIS2_PLACEMENT_3D('',#568,#459,#460);
#374=AXIS2_PLACEMENT_3D('',#569,#461,#462);
#375=AXIS2_PLACEMENT_3D('',#573,#464,#465);
#376=AXIS2_PLACEMENT_3D('',#574,#466,#467);
#377=AXIS2_PLACEMENT_3D('',#575,#468,#469);
#378=AXIS2_PLACEMENT_3D('',#578,#470,#471);
#379=AXIS2_PLACEMENT_3D('',#580,#472,#473);
#380=AXIS2_PLACEMENT_3D('',#581,#474,#475);
#381=AXIS2_PLACEMENT_3D('',#582,#476,#477);
#382=AXIS2_PLACEMENT_3D('',#583,#478,#479);
#383=AXIS2_PLACEMENT_3D('',#585,#480,#481);
#384=AXIS2_PLACEMENT_3D('',#586,#482,#483);
#385=AXIS2_PLACEMENT_3D('',#590,#485,#486);
#386=AXIS2_PLACEMENT_3D('',#591,#487,#488);
#387=AXIS2_PLACEMENT_3D('',#592,#489,#490);
#388=AXIS2_PLACEMENT_3D('',#596,#492,#493);
#389=AXIS2_PLACEMENT_3D('',#597,#494,#495);
#390=AXIS2_PLACEMENT_3D('',#598,#496,#497);
#391=AXIS2_PLACEMENT_3D('',#602,#499,#500);
#392=AXIS2_PLACEMENT_3D('',#603,#501,#502);
#393=AXIS2_PLACEMENT_3D('',#604,#503,#504);
#394=AXIS2_PLACEMENT_3D('',#606,#506,#507);
#395=AXIS2_PLACEMENT_3D('',#608,#509,#510);
#396=AXIS2_PLACEMENT_3D('',#611,#512,#513);
#397=AXIS2_PLACEMENT_3D('',#612,#514,#515);
#398=AXIS2_PLACEMENT_3D('',#614,#516,#517);
#399=AXIS2_PLACEMENT_3D('',#615,#518,#519);
#400=DIRECTION('axis',(0.,0.,1.));
#401=DIRECTION('refdir',(1.,0.,0.));
#402=DIRECTION('center_axis',(1.,0.,0.));
#403=DIRECTION('ref_axis',(0.,-1.,0.));
#404=DIRECTION('center_axis',(-1.,0.,0.));
#405=DIRECTION('ref_axis',(0.,-1.,0.));
#406=DIRECTION('center_axis',(-1.,0.,0.));
#407=DIRECTION('ref_axis',(0.,-1.,0.));
#408=DIRECTION('',(0.707106781186546,0.707106781186549,-8.65956056235495E-17));
#409=DIRECTION('center_axis',(1.,0.,0.));
#410=DIRECTION('ref_axis',(0.,-1.,0.));
#411=DIRECTION('center_axis',(1.,0.,0.));
#412=DIRECTION('ref_axis',(0.,0.,-1.));
#413=DIRECTION('center_axis',(-1.,0.,0.));
#414=DIRECTION('ref_axis',(0.,-1.,1.83697019872103E-16));
#415=DIRECTION('center_axis',(1.,0.,0.));
#416=DIRECTION('ref_axis',(0.,1.,0.));
#417=DIRECTION('',(-1.,0.,0.));
#418=DIRECTION('center_axis',(1.,0.,0.));
#419=DIRECTION('ref_axis',(0.,-1.,0.));
#420=DIRECTION('center_axis',(1.,0.,0.));
#421=DIRECTION('ref_axis',(0.,-1.,0.));
#422=DIRECTION('center_axis',(1.,0.,0.));
#423=DIRECTION('ref_axis',(0.,0.,-1.));
#424=DIRECTION('center_axis',(0.,-1.,-1.22464679914735E-16));
#425=DIRECTION('ref_axis',(0.,-1.22464679914735E-16,1.));
#426=DIRECTION('center_axis',(1.,0.,0.));
#427=DIRECTION('ref_axis',(0.,-1.,3.06161699786838E-17));
#428=DIRECTION('center_axis',(1.,0.,0.));
#429=DIRECTION('ref_axis',(0.,-1.,3.06161699786838E-17));
#430=DIRECTION('center_axis',(-1.,0.,0.));
#431=DIRECTION('ref_axis',(0.,1.,0.));
#432=DIRECTION('',(-0.986285601537231,-0.165047605860677,-2.02125022224213E-17));
#433=DIRECTION('center_axis',(-1.,0.,0.));
#434=DIRECTION('ref_axis',(0.,-1.,3.06161699786838E-17));
#435=DIRECTION('center_axis',(-1.,0.,0.));
#436=DIRECTION('ref_axis',(0.,-1.,3.06161699786838E-17));
#437=DIRECTION('center_axis',(1.,0.,0.));
#438=DIRECTION('ref_axis',(0.,0.,-1.));
#439=DIRECTION('center_axis',(1.,0.,0.));
#440=DIRECTION('ref_axis',(0.,-1.,1.83697019872103E-16));
#441=DIRECTION('center_axis',(0.,-1.,-1.22464679914735E-16));
#442=DIRECTION('ref_axis',(0.,-1.22464679914735E-16,1.));
#443=DIRECTION('center_axis',(1.,0.,0.));
#444=DIRECTION('ref_axis',(0.,0.,-1.));
#445=DIRECTION('center_axis',(-1.,0.,0.));
#446=DIRECTION('ref_axis',(0.,-1.,0.));
#447=DIRECTION('center_axis',(1.,0.,0.));
#448=DIRECTION('ref_axis',(0.,0.,-1.));
#449=DIRECTION('center_axis',(1.,0.,0.));
#450=DIRECTION('ref_axis',(0.,-1.,1.83697019872103E-16));
#451=DIRECTION('center_axis',(0.,-1.,-1.22464679914735E-16));
#452=DIRECTION('ref_axis',(0.,-1.22464679914735E-16,1.));
#453=DIRECTION('center_axis',(-1.,0.,0.));
#454=DIRECTION('ref_axis',(0.,-1.,1.83697019872103E-16));
#455=DIRECTION('center_axis',(1.,0.,0.));
#456=DIRECTION('ref_axis',(0.,-1.,1.83697019872103E-16));
#457=DIRECTION('center_axis',(-1.,0.,0.));
#458=DIRECTION('ref_axis',(0.,0.,1.));
#459=DIRECTION('center_axis',(1.,0.,0.));
#460=DIRECTION('ref_axis',(0.,-1.,0.));
#461=DIRECTION('center_axis',(1.,0.,0.));
#462=DIRECTION('ref_axis',(0.,1.,0.));
#463=DIRECTION('',(-1.,0.,0.));
#464=DIRECTION('center_axis',(-1.,0.,0.));
#465=DIRECTION('ref_axis',(0.,-1.,0.));
#466=DIRECTION('center_axis',(-1.,0.,0.));
#467=DIRECTION('ref_axis',(0.,-1.,0.));
#468=DIRECTION('center_axis',(1.,0.,0.));
#469=DIRECTION('ref_axis',(0.,0.,-1.));
#470=DIRECTION('center_axis',(1.,0.,0.));
#471=DIRECTION('ref_axis',(0.,-1.,1.83697019872103E-16));
#472=DIRECTION('center_axis',(0.,-1.,-1.22464679914735E-16));
#473=DIRECTION('ref_axis',(0.,-1.22464679914735E-16,1.));
#474=DIRECTION('center_axis',(-1.,0.,0.));
#475=DIRECTION('ref_axis',(0.,-1.,1.83697019872103E-16));
#476=DIRECTION('center_axis',(1.,0.,0.));
#477=DIRECTION('ref_axis',(0.,-1.,1.83697019872103E-16));
#478=DIRECTION('center_axis',(-1.,0.,0.));
#479=DIRECTION('ref_axis',(0.,0.,1.));
#480=DIRECTION('center_axis',(1.,0.,0.));
#481=DIRECTION('ref_axis',(0.,-1.,0.));
#482=DIRECTION('center_axis',(1.,0.,0.));
#483=DIRECTION('ref_axis',(0.,1.,0.));
#484=DIRECTION('',(-1.,0.,0.));
#485=DIRECTION('center_axis',(-1.,0.,0.));
#486=DIRECTION('ref_axis',(0.,-1.,0.));
#487=DIRECTION('center_axis',(-1.,0.,0.));
#488=DIRECTION('ref_axis',(0.,-1.,0.));
#489=DIRECTION('center_axis',(-1.,0.,0.));
#490=DIRECTION('ref_axis',(0.,-1.,0.));
#491=DIRECTION('',(-0.707106781186551,0.707106781186544,8.65956056235489E-17));
#492=DIRECTION('center_axis',(1.,0.,0.));
#493=DIRECTION('ref_axis',(0.,-1.,0.));
#494=DIRECTION('center_axis',(1.,0.,0.));
#495=DIRECTION('ref_axis',(0.,-1.,0.));
#496=DIRECTION('center_axis',(1.,0.,0.));
#497=DIRECTION('ref_axis',(0.,1.,0.));
#498=DIRECTION('',(-1.,0.,0.));
#499=DIRECTION('center_axis',(-1.,0.,0.));
#500=DIRECTION('ref_axis',(0.,-1.,0.));
#501=DIRECTION('center_axis',(-1.,0.,0.));
#502=DIRECTION('ref_axis',(0.,-1.,0.));
#503=DIRECTION('center_axis',(1.,0.,0.));
#504=DIRECTION('ref_axis',(0.,-1.,0.));
#505=DIRECTION('',(-0.707106781186545,-0.70710678118655,-8.65956056235497E-17));
#506=DIRECTION('center_axis',(1.,0.,0.));
#507=DIRECTION('ref_axis',(0.,-1.,0.));
#508=DIRECTION('',(-0.70710678118655,-0.707106781186545,-8.6595605623549E-17));
#509=DIRECTION('center_axis',(1.,0.,0.));
#510=DIRECTION('ref_axis',(0.,-1.,0.));
#511=DIRECTION('',(-0.707106781186545,-0.70710678118655,-8.65956056235497E-17));
#512=DIRECTION('center_axis',(1.,0.,0.));
#513=DIRECTION('ref_axis',(0.,-1.,0.));
#514=DIRECTION('center_axis',(-1.,0.,0.));
#515=DIRECTION('ref_axis',(0.,0.,1.));
#516=DIRECTION('center_axis',(-1.,0.,0.));
#517=DIRECTION('ref_axis',(0.,-1.,0.));
#518=DIRECTION('center_axis',(-1.,0.,0.));
#519=DIRECTION('ref_axis',(0.,-1.,0.));
#520=DIRECTION('',(0.70710678118655,-0.707106781186545,8.6595605623549E-17));
#521=CARTESIAN_POINT('',(0.,0.,0.));
#522=CARTESIAN_POINT('Origin',(-0.750000000000004,0.,0.));
#523=CARTESIAN_POINT('',(-1.5,16.,-1.95943487863576E-15));
#524=CARTESIAN_POINT('',(-1.5,-16.,-1.95943487863576E-15));
#525=CARTESIAN_POINT('Origin',(-1.5,0.,0.));
#526=CARTESIAN_POINT('Origin',(-1.5,0.,0.));
#527=CARTESIAN_POINT('',(-4.44089209850063E-15,17.5,2.14313189850787E-15));
#528=CARTESIAN_POINT('',(-0.750000000000004,16.75,-2.05128338857182E-15));
#529=CARTESIAN_POINT('Origin',(-4.44089209850063E-15,0.,0.));
#530=CARTESIAN_POINT('Origin',(-4.44089209850063E-15,16.,0.));
#531=CARTESIAN_POINT('',(-4.44089209850063E-15,-2.91229428309842E-15,23.7806875021114));
#532=CARTESIAN_POINT('Origin',(-4.44089209850063E-15,0.,0.));
#533=CARTESIAN_POINT('Origin',(-27.5,0.,0.));
#534=CARTESIAN_POINT('',(-54.7,-16.,-1.95943487863576E-15));
#535=CARTESIAN_POINT('',(-27.5,-16.,-1.95943487863576E-15));
#536=CARTESIAN_POINT('',(-54.7,16.,1.95943487863576E-15));
#537=CARTESIAN_POINT('Origin',(-54.7,0.,0.));
#538=CARTESIAN_POINT('Origin',(-54.7,0.,0.));
#539=CARTESIAN_POINT('Origin',(-0.200000000000005,0.,0.));
#540=CARTESIAN_POINT('',(-0.16699047882787,-2.93645131319777E-15,23.9779446224188));
#541=CARTESIAN_POINT('Origin',(-0.200000000000005,-2.91229428309842E-15,
23.7806875021114));
#542=CARTESIAN_POINT('',(-0.166990478827869,-23.9779446224188,-2.93645131319777E-15));
#543=CARTESIAN_POINT('Origin',(-0.16699047882787,0.,-3.67056414149721E-15));
#544=CARTESIAN_POINT('Origin',(-0.16699047882787,0.,-3.67056414149721E-15));
#545=CARTESIAN_POINT('Origin',(-2.75000000000001,0.,0.));
#546=CARTESIAN_POINT('',(-5.16601904234428,-24.8144951051102,-3.03889920029309E-15));
#547=CARTESIAN_POINT('',(-2.75000000000001,-24.4101921749739,-2.98938637136536E-15));
#548=CARTESIAN_POINT('',(-5.16601904234428,-3.03889920029308E-15,24.8144951051102));
#549=CARTESIAN_POINT('Origin',(-5.16601904234428,0.,-3.79862400036636E-15));
#550=CARTESIAN_POINT('Origin',(-5.16601904234428,0.,-3.79862400036636E-15));
#551=CARTESIAN_POINT('Origin',(-5.10000000000001,0.,0.));
#552=CARTESIAN_POINT('',(-5.50000000000001,-3.08721326049179E-15,25.2090093457251));
#553=CARTESIAN_POINT('Origin',(-5.50000000000001,0.,0.));
#554=CARTESIAN_POINT('Origin',(-5.10000000000001,-3.08721326049179E-15,
25.2090093457251));
#555=CARTESIAN_POINT('Origin',(-5.50000000000001,24.8703843499478,0.));
#556=CARTESIAN_POINT('',(-5.50000000000001,26.7,-3.26980695372343E-15));
#557=CARTESIAN_POINT('Origin',(-5.50000000000001,0.,0.));
#558=CARTESIAN_POINT('Origin',(-8.9,0.,0.));
#559=CARTESIAN_POINT('',(-8.9,-25.,-3.06161699786838E-15));
#560=CARTESIAN_POINT('',(-8.9,-3.06161699786838E-15,25.));
#561=CARTESIAN_POINT('Origin',(-8.9,0.,0.));
#562=CARTESIAN_POINT('',(-8.5,-3.11060286983428E-15,25.4));
#563=CARTESIAN_POINT('Origin',(-8.9,-3.11060286983428E-15,25.4));
#564=CARTESIAN_POINT('Origin',(-8.5,0.,0.));
#565=CARTESIAN_POINT('Origin',(-8.9,0.,0.));
#566=CARTESIAN_POINT('Origin',(-8.5,27.,0.));
#567=CARTESIAN_POINT('',(-8.5,26.7,3.26980695372343E-15));
#568=CARTESIAN_POINT('Origin',(-8.5,0.,0.));
#569=CARTESIAN_POINT('Origin',(-11.25,0.,0.));
#570=CARTESIAN_POINT('',(-13.7,-25.,-3.06161699786838E-15));
#571=CARTESIAN_POINT('',(-11.25,-25.,-3.06161699786838E-15));
#572=CARTESIAN_POINT('',(-13.7,25.,-3.06161699786838E-15));
#573=CARTESIAN_POINT('Origin',(-13.7,0.,0.));
#574=CARTESIAN_POINT('Origin',(-13.7,0.,0.));
#575=CARTESIAN_POINT('Origin',(-14.4,0.,0.));
#576=CARTESIAN_POINT('',(-14.4,-17.5,-2.14313189850787E-15));
#577=CARTESIAN_POINT('',(-14.4,-2.14313189850787E-15,17.5));
#578=CARTESIAN_POINT('Origin',(-14.4,0.,0.));
#579=CARTESIAN_POINT('',(-14.,-2.19211777047376E-15,17.9));
#580=CARTESIAN_POINT('Origin',(-14.4,-2.19211777047376E-15,17.9));
#581=CARTESIAN_POINT('Origin',(-14.,0.,0.));
#582=CARTESIAN_POINT('Origin',(-14.4,0.,0.));
#583=CARTESIAN_POINT('Origin',(-14.,25.,0.));
#584=CARTESIAN_POINT('',(-14.,24.7,3.02487759389396E-15));
#585=CARTESIAN_POINT('Origin',(-14.,0.,0.));
#586=CARTESIAN_POINT('Origin',(-34.5,0.,0.));
#587=CARTESIAN_POINT('',(-54.7,-17.5,-2.14313189850787E-15));
#588=CARTESIAN_POINT('',(-34.5,-17.5,-2.14313189850787E-15));
#589=CARTESIAN_POINT('',(-54.7,17.5,-2.14313189850787E-15));
#590=CARTESIAN_POINT('Origin',(-54.7,0.,0.));
#591=CARTESIAN_POINT('Origin',(-54.7,0.,0.));
#592=CARTESIAN_POINT('Origin',(-5.65000000000001,0.,0.));
#593=CARTESIAN_POINT('',(-5.80000000000001,27.,3.30654635769785E-15));
#594=CARTESIAN_POINT('',(-5.65000000000001,26.85,3.28817665571064E-15));
#595=CARTESIAN_POINT('',(-5.80000000000001,-27.,-3.30654635769785E-15));
#596=CARTESIAN_POINT('Origin',(-5.80000000000001,0.,0.));
#597=CARTESIAN_POINT('Origin',(-5.80000000000001,0.,0.));
#598=CARTESIAN_POINT('Origin',(-7.00000000000001,0.,0.));
#599=CARTESIAN_POINT('',(-8.2,-27.,-3.30654635769785E-15));
#600=CARTESIAN_POINT('',(-7.00000000000001,-27.,-3.30654635769785E-15));
#601=CARTESIAN_POINT('',(-8.2,27.,-3.30654635769785E-15));
#602=CARTESIAN_POINT('Origin',(-8.2,0.,0.));
#603=CARTESIAN_POINT('Origin',(-8.2,0.,0.));
#604=CARTESIAN_POINT('Origin',(-8.35,0.,0.));
#605=CARTESIAN_POINT('',(-8.35,26.85,3.28817665571064E-15));
#606=CARTESIAN_POINT('Origin',(-13.85,0.,0.));
#607=CARTESIAN_POINT('',(-13.85,24.85,3.04324729588117E-15));
#608=CARTESIAN_POINT('Origin',(-54.85,0.,0.));
#609=CARTESIAN_POINT('',(-55.,17.2,2.10639249453345E-15));
#610=CARTESIAN_POINT('',(-54.85,17.35,2.12476219652066E-15));
#611=CARTESIAN_POINT('Origin',(-55.,0.,0.));
#612=CARTESIAN_POINT('Origin',(-55.,17.5,0.));
#613=CARTESIAN_POINT('',(-55.,16.3,-1.99617428261019E-15));
#614=CARTESIAN_POINT('Origin',(-55.,0.,0.));
#615=CARTESIAN_POINT('Origin',(-54.85,0.,0.));
#616=CARTESIAN_POINT('',(-54.85,16.15,-1.97780458062298E-15));
#617=UNCERTAINTY_MEASURE_WITH_UNIT(LENGTH_MEASURE(0.01),#621,
'DISTANCE_ACCURACY_VALUE',
'Maximum model space distance between geometric entities at asserted c
onnectivities');
#618=UNCERTAINTY_MEASURE_WITH_UNIT(LENGTH_MEASURE(0.01),#621,
'DISTANCE_ACCURACY_VALUE',
'Maximum model space distance between geometric entities at asserted c
onnectivities');
#619=(
GEOMETRIC_REPRESENTATION_CONTEXT(3)
GLOBAL_UNCERTAINTY_ASSIGNED_CONTEXT((#617))
GLOBAL_UNIT_ASSIGNED_CONTEXT((#621,#623,#624))
REPRESENTATION_CONTEXT('','3D')
);
#620=(
GEOMETRIC_REPRESENTATION_CONTEXT(3)
GLOBAL_UNCERTAINTY_ASSIGNED_CONTEXT((#618))
GLOBAL_UNIT_ASSIGNED_CONTEXT((#621,#623,#624))
REPRESENTATION_CONTEXT('','3D')
);
#621=(
LENGTH_UNIT()
NAMED_UNIT(*)
SI_UNIT(.MILLI.,.METRE.)
);
#622=(
LENGTH_UNIT()
NAMED_UNIT(*)
SI_UNIT(.CENTI.,.METRE.)
);
#623=(
NAMED_UNIT(*)
PLANE_ANGLE_UNIT()
SI_UNIT($,.RADIAN.)
);
#624=(
NAMED_UNIT(*)
SI_UNIT($,.STERADIAN.)
SOLID_ANGLE_UNIT()
);
#625=SHAPE_DEFINITION_REPRESENTATION(#626,#627);
#626=PRODUCT_DEFINITION_SHAPE('',$,#629);
#627=SHAPE_REPRESENTATION('',(#345),#619);
#628=PRODUCT_DEFINITION_CONTEXT('part definition',#633,'design');
#629=PRODUCT_DEFINITION('3D_R134-PE-35-DN32_171011275',
'3D_R134-PE-35-DN32_171011275',#630,#628);
#630=PRODUCT_DEFINITION_FORMATION('',$,#635);
#631=PRODUCT_RELATED_PRODUCT_CATEGORY('3D_R134-PE-35-DN32_171011275',
'3D_R134-PE-35-DN32_171011275',(#635));
#632=APPLICATION_PROTOCOL_DEFINITION('international standard',
'automotive_design',2009,#633);
#633=APPLICATION_CONTEXT(
'Core Data for Automotive Mechanical Design Process');
#634=PRODUCT_CONTEXT('part definition',#633,'mechanical');
#635=PRODUCT('3D_R134-PE-35-DN32_171011275',
'3D_R134-PE-35-DN32_171011275',$,(#634));
#636=PRESENTATION_STYLE_ASSIGNMENT((#637));
#637=SURFACE_STYLE_USAGE(.BOTH.,#640);
#638=SURFACE_STYLE_RENDERING_WITH_PROPERTIES($,#644,(#639));
#639=SURFACE_STYLE_TRANSPARENT(0.);
#640=SURFACE_SIDE_STYLE('',(#641,#638));
#641=SURFACE_STYLE_FILL_AREA(#642);
#642=FILL_AREA_STYLE('',(#643));
#643=FILL_AREA_STYLE_COLOUR('',#644);
#644=COLOUR_RGB('',0.749019607843137,0.749019607843137,0.749019607843137);
ENDSEC;
END-ISO-10303-21;
