ISO-10303-21;
HEADER;
FILE_DESCRIPTION (( 'STEP AP203' ),
    '1' );
FILE_NAME ('3D_R152_DN40_17305200.STEP',
    '2024-08-13T07:36:26',
    ( '' ),
    ( '' ),
    'SwSTEP 2.0',
    'SolidWorks 2024',
    '' );
FILE_SCHEMA (( 'CONFIG_CONTROL_DESIGN' ));
ENDSEC;

DATA;
#1 = VERTEX_POINT ( 'NONE', #52 ) ;
#2 = CARTESIAN_POINT ( 'NONE',  ( 5.388445916248353619E-15, 0.000000000000000000, 44.00000000000000000 ) ) ;
#3 = AXIS2_PLACEMENT_3D ( 'NONE', #147, #212, #143 ) ;
#4 = CC_DESIGN_DATE_AND_TIME_ASSIGNMENT ( #205, #162, ( #192 ) ) ;
#5 = CARTESIAN_POINT ( 'NONE',  ( 5.388445916248353619E-15, 6.000000000000000000, 44.00000000000000000 ) ) ;
#6 = DIRECTION ( 'NONE',  ( -0.000000000000000000, -1.000000000000000000, -0.000000000000000000 ) ) ;
#7 = DIRECTION ( 'NONE',  ( 0.000000000000000000, 0.000000000000000000, 1.000000000000000000 ) ) ;
#8 = UNCERTAINTY_MEASURE_WITH_UNIT (LENGTH_MEASURE( 1.000000000000000082E-05 ), #174, 'distance_accuracy_value', 'NONE');
#9 = LOCAL_TIME ( 9, 36, 26.00000000000000000, #181 ) ;
#10 = SECURITY_CLASSIFICATION_LEVEL ( 'unclassified' ) ;
#11 = CARTESIAN_POINT ( 'NONE',  ( 0.000000000000000000, 6.000000000000000000, 0.000000000000000000 ) ) ;
#12 = CC_DESIGN_DATE_AND_TIME_ASSIGNMENT ( #182, #76, ( #158 ) ) ;
#13 = AXIS2_PLACEMENT_3D ( 'NONE', #74, #112, #235 ) ;
#14 = AXIS2_PLACEMENT_3D ( 'NONE', #231, #6, #151 ) ;
#15 = EDGE_LOOP ( 'NONE', ( #243, #17 ) ) ;
#16 = DIRECTION ( 'NONE',  ( -0.000000000000000000, -1.000000000000000000, -0.000000000000000000 ) ) ;
#17 = ORIENTED_EDGE ( 'NONE', *, *, #160, .F. ) ;
#18 = EDGE_CURVE ( 'NONE', #229, #49, #234, .T. ) ;
#19 = EDGE_LOOP ( 'NONE', ( #146, #101, #35, #164 ) ) ;
#20 = DIRECTION ( 'NONE',  ( 0.000000000000000000, 0.000000000000000000, -1.000000000000000000 ) ) ;
#21 = APPROVAL_PERSON_ORGANIZATION ( #134, #169, #46 ) ;
#22 = EDGE_CURVE ( 'NONE', #229, #166, #82, .T. ) ;
#23 = DIRECTION ( 'NONE',  ( 0.000000000000000000, 0.000000000000000000, -1.000000000000000000 ) ) ;
#24 = DIRECTION ( 'NONE',  ( 0.000000000000000000, 1.000000000000000000, 0.000000000000000000 ) ) ;
#25 = APPROVAL_DATE_TIME ( #202, #169 ) ;
#26 = AXIS2_PLACEMENT_3D ( 'NONE', #152, #73, #109 ) ;
#27 = COORDINATED_UNIVERSAL_TIME_OFFSET ( 1, 0, .AHEAD. ) ;
#28 = PERSON_AND_ORGANIZATION ( #30, #99 ) ;
#29 = APPROVAL_PERSON_ORGANIZATION ( #28, #218, #42 ) ;
#30 = PERSON ( 'UNSPECIFIED', 'UNSPECIFIED', 'UNSPECIFIED', ('UNSPECIFIED'), ('UNSPECIFIED'), ('UNSPECIFIED') ) ;
#31 = CC_DESIGN_APPROVAL ( #169, ( #192 ) ) ;
#32 = EDGE_LOOP ( 'NONE', ( #171, #185 ) ) ;
#33 = LINE ( 'NONE', #103, #63 ) ;
#34 = ORIENTED_EDGE ( 'NONE', *, *, #70, .T. ) ;
#35 = ORIENTED_EDGE ( 'NONE', *, *, #83, .T. ) ;
#36 = DIRECTION ( 'NONE',  ( 0.000000000000000000, 0.000000000000000000, 1.000000000000000000 ) ) ;
#37 = CC_DESIGN_PERSON_AND_ORGANIZATION_ASSIGNMENT ( #135, #222, ( #183 ) ) ;
#38 = FACE_OUTER_BOUND ( 'NONE', #227, .T. ) ;
#39 = CC_DESIGN_SECURITY_CLASSIFICATION ( #192, ( #183 ) ) ;
#40 = CARTESIAN_POINT ( 'NONE',  ( 0.000000000000000000, 6.000000000000000000, 0.000000000000000000 ) ) ;
#41 = DIRECTION ( 'NONE',  ( 0.000000000000000000, 0.000000000000000000, 1.000000000000000000 ) ) ;
#42 = APPROVAL_ROLE ( '' ) ;
#43 = APPROVAL_STATUS ( 'not_yet_approved' ) ;
#44 = CIRCLE ( 'NONE', #165, 44.00000000000000000 ) ;
#45 = CC_DESIGN_PERSON_AND_ORGANIZATION_ASSIGNMENT ( #79, #60, ( #192 ) ) ;
#46 = APPROVAL_ROLE ( '' ) ;
#47 = APPROVAL_DATE_TIME ( #98, #218 ) ;
#48 = VECTOR ( 'NONE', #65, 1000.000000000000000 ) ;
#49 = VERTEX_POINT ( 'NONE', #168 ) ;
#50 = CARTESIAN_POINT ( 'NONE',  ( 0.000000000000000000, 6.000000000000000000, -89.00000000000001421 ) ) ;
#51 = ORIENTED_EDGE ( 'NONE', *, *, #18, .F. ) ;
#52 = CARTESIAN_POINT ( 'NONE',  ( 0.000000000000000000, 0.000000000000000000, -44.00000000000000000 ) ) ;
#53 = EDGE_LOOP ( 'NONE', ( #167, #104 ) ) ;
#54 = APPROVAL ( #61, 'UNSPECIFIED' ) ;
#55 = DIRECTION ( 'NONE',  ( 0.000000000000000000, 0.000000000000000000, 1.000000000000000000 ) ) ;
#56 = FACE_OUTER_BOUND ( 'NONE', #64, .T. ) ;
#57 = CARTESIAN_POINT ( 'NONE',  ( 0.000000000000000000, 6.000000000000000000, 0.000000000000000000 ) ) ;
#58 = DATE_AND_TIME ( #223, #111 ) ;
#59 = EDGE_CURVE ( 'NONE', #1, #144, #179, .T. ) ;
#60 = PERSON_AND_ORGANIZATION_ROLE ( 'classification_officer' ) ;
#61 = APPROVAL_STATUS ( 'not_yet_approved' ) ;
#62 = APPLICATION_PROTOCOL_DEFINITION ( 'international standard', 'config_control_design', 1994, #194 ) ;
#63 = VECTOR ( 'NONE', #16, 1000.000000000000000 ) ;
#64 = EDGE_LOOP ( 'NONE', ( #51, #210, #206, #187 ) ) ;
#65 = DIRECTION ( 'NONE',  ( -0.000000000000000000, -1.000000000000000000, -0.000000000000000000 ) ) ;
#66 = VERTEX_POINT ( 'NONE', #88 ) ;
#67 = EDGE_LOOP ( 'NONE', ( #189, #34, #86, #120 ) ) ;
#68 = DIRECTION ( 'NONE',  ( -0.000000000000000000, -1.000000000000000000, -0.000000000000000000 ) ) ;
#69 = PLANE ( 'NONE',  #220 ) ;
#70 = EDGE_CURVE ( 'NONE', #188, #144, #228, .T. ) ;
#71 = AXIS2_PLACEMENT_3D ( 'NONE', #105, #248, #141 ) ;
#72 = FACE_OUTER_BOUND ( 'NONE', #19, .T. ) ;
#73 = DIRECTION ( 'NONE',  ( 0.000000000000000000, 1.000000000000000000, 0.000000000000000000 ) ) ;
#74 = CARTESIAN_POINT ( 'NONE',  ( 0.000000000000000000, 6.000000000000000000, 0.000000000000000000 ) ) ;
#75 = EDGE_CURVE ( 'NONE', #225, #166, #221, .T. ) ;
#76 = DATE_TIME_ROLE ( 'creation_date' ) ;
#77 = APPROVAL_DATE_TIME ( #58, #54 ) ;
#78 = COORDINATED_UNIVERSAL_TIME_OFFSET ( 1, 0, .AHEAD. ) ;
#79 = PERSON_AND_ORGANIZATION ( #30, #99 ) ;
#80 = ORIENTED_EDGE ( 'NONE', *, *, #244, .T. ) ;
#81 = AXIS2_PLACEMENT_3D ( 'NONE', #106, #233, #20 ) ;
#82 = LINE ( 'NONE', #245, #48 ) ;
#83 = EDGE_CURVE ( 'NONE', #49, #225, #226, .T. ) ;
#84 = EDGE_CURVE ( 'NONE', #66, #1, #33, .T. ) ;
#85 = ORIENTED_EDGE ( 'NONE', *, *, #208, .F. ) ;
#86 = ORIENTED_EDGE ( 'NONE', *, *, #59, .F. ) ;
#87 = CLOSED_SHELL ( 'NONE', ( #110, #127, #129, #180, #123, #173 ) ) ;
#88 = CARTESIAN_POINT ( 'NONE',  ( 0.000000000000000000, 6.000000000000000000, -44.00000000000000000 ) ) ;
#89 = CYLINDRICAL_SURFACE ( 'NONE', #14, 44.00000000000000000 ) ;
#90 = CYLINDRICAL_SURFACE ( 'NONE', #81, 89.00000000000001421 ) ;
#91 =( NAMED_UNIT ( * ) PLANE_ANGLE_UNIT ( ) SI_UNIT ( $, .RADIAN. ) );
#92 = CARTESIAN_POINT ( 'NONE',  ( 0.000000000000000000, 0.000000000000000000, -89.00000000000001421 ) ) ;
#93 = PRODUCT ( '3D_R152_DN40_17305200', '3D_R152_DN40_17305200', '', ( #95 ) ) ;
#94 = AXIS2_PLACEMENT_3D ( 'NONE', #195, #232, #41 ) ;
#95 = MECHANICAL_CONTEXT ( 'NONE', #161, 'mechanical' ) ;
#96 = AXIS2_PLACEMENT_3D ( 'NONE', #198, #196, #172 ) ;
#97 = APPROVAL_STATUS ( 'not_yet_approved' ) ;
#98 = DATE_AND_TIME ( #199, #170 ) ;
#99 = ORGANIZATION ( 'UNSPECIFIED', 'UNSPECIFIED', '' ) ;
#100 = CARTESIAN_POINT ( 'NONE',  ( 0.000000000000000000, 0.000000000000000000, 0.000000000000000000 ) ) ;
#101 = ORIENTED_EDGE ( 'NONE', *, *, #244, .F. ) ;
#102 = CC_DESIGN_PERSON_AND_ORGANIZATION_ASSIGNMENT ( #114, #117, ( #183 ) ) ;
#103 = CARTESIAN_POINT ( 'NONE',  ( 0.000000000000000000, 6.000000000000000000, -44.00000000000000000 ) ) ;
#104 = ORIENTED_EDGE ( 'NONE', *, *, #208, .T. ) ;
#105 = CARTESIAN_POINT ( 'NONE',  ( 0.000000000000000000, 0.000000000000000000, 0.000000000000000000 ) ) ;
#106 = CARTESIAN_POINT ( 'NONE',  ( 0.000000000000000000, 6.000000000000000000, 0.000000000000000000 ) ) ;
#107 = PLANE ( 'NONE',  #149 ) ;
#108 = PRODUCT_DEFINITION_SHAPE ( 'NONE', 'NONE',  #158 ) ;
#109 = DIRECTION ( 'NONE',  ( 0.000000000000000000, 0.000000000000000000, 1.000000000000000000 ) ) ;
#110 = ADVANCED_FACE ( 'NONE', ( #176 ), #89, .F. ) ;
#111 = LOCAL_TIME ( 9, 36, 26.00000000000000000, #27 ) ;
#112 = DIRECTION ( 'NONE',  ( 0.000000000000000000, 1.000000000000000000, 0.000000000000000000 ) ) ;
#113 = FACE_OUTER_BOUND ( 'NONE', #32, .T. ) ;
#114 = PERSON_AND_ORGANIZATION ( #30, #99 ) ;
#115 = AXIS2_PLACEMENT_3D ( 'NONE', #40, #214, #23 ) ;
#116 = APPLICATION_PROTOCOL_DEFINITION ( 'international standard', 'config_control_design', 1994, #161 ) ;
#117 = PERSON_AND_ORGANIZATION_ROLE ( 'design_supplier' ) ;
#118 = EDGE_CURVE ( 'NONE', #166, #225, #175, .T. ) ;
#119 = CARTESIAN_POINT ( 'NONE',  ( 5.388445916248353619E-15, 6.000000000000000000, 44.00000000000000000 ) ) ;
#120 = ORIENTED_EDGE ( 'NONE', *, *, #84, .F. ) ;
#121 = ORIENTED_EDGE ( 'NONE', *, *, #160, .T. ) ;
#122 = ORIENTED_EDGE ( 'NONE', *, *, #84, .T. ) ;
#123 = ADVANCED_FACE ( 'NONE', ( #72 ), #153, .T. ) ;
#124 = DIRECTION ( 'NONE',  ( 0.000000000000000000, 1.000000000000000000, 0.000000000000000000 ) ) ;
#125 = VECTOR ( 'NONE', #68, 1000.000000000000000 ) ;
#126 = CARTESIAN_POINT ( 'NONE',  ( 0.000000000000000000, 0.000000000000000000, 0.000000000000000000 ) ) ;
#127 = ADVANCED_FACE ( 'NONE', ( #56 ), #90, .T. ) ;
#128 = CARTESIAN_POINT ( 'NONE',  ( 1.089935651241144396E-14, 0.000000000000000000, 89.00000000000001421 ) ) ;
#129 = ADVANCED_FACE ( 'NONE', ( #38, #130 ), #107, .T. ) ;
#130 = FACE_BOUND ( 'NONE', #15, .T. ) ;
#131 = LOCAL_TIME ( 9, 36, 26.00000000000000000, #204 ) ;
#132 = DIRECTION ( 'NONE',  ( 0.000000000000000000, 1.000000000000000000, 0.000000000000000000 ) ) ;
#133 = DIRECTION ( 'NONE',  ( 0.000000000000000000, 1.000000000000000000, 0.000000000000000000 ) ) ;
#134 = PERSON_AND_ORGANIZATION ( #30, #99 ) ;
#135 = PERSON_AND_ORGANIZATION ( #30, #99 ) ;
#136 = VECTOR ( 'NONE', #207, 1000.000000000000000 ) ;
#137 = PERSON_AND_ORGANIZATION ( #30, #99 ) ;
#138 = DIRECTION ( 'NONE',  ( 1.000000000000000000, 0.000000000000000000, 0.000000000000000000 ) ) ;
#139 = CIRCLE ( 'NONE', #13, 89.00000000000001421 ) ;
#140 = PERSON_AND_ORGANIZATION ( #30, #99 ) ;
#141 = DIRECTION ( 'NONE',  ( 0.000000000000000000, 0.000000000000000000, 1.000000000000000000 ) ) ;
#142 = LOCAL_TIME ( 9, 36, 26.00000000000000000, #237 ) ;
#143 = DIRECTION ( 'NONE',  ( 0.000000000000000000, 0.000000000000000000, 1.000000000000000000 ) ) ;
#144 = VERTEX_POINT ( 'NONE', #2 ) ;
#145 = AXIS2_PLACEMENT_3D ( 'NONE', #100, #239, #138 ) ;
#146 = ORIENTED_EDGE ( 'NONE', *, *, #22, .F. ) ;
#147 = CARTESIAN_POINT ( 'NONE',  ( 0.000000000000000000, 0.000000000000000000, 0.000000000000000000 ) ) ;
#148 = DIRECTION ( 'NONE',  ( 0.000000000000000000, 1.000000000000000000, 0.000000000000000000 ) ) ;
#149 = AXIS2_PLACEMENT_3D ( 'NONE', #230, #133, #217 ) ;
#150 = CC_DESIGN_PERSON_AND_ORGANIZATION_ASSIGNMENT ( #140, #159, ( #158 ) ) ;
#151 = DIRECTION ( 'NONE',  ( 0.000000000000000000, 0.000000000000000000, -1.000000000000000000 ) ) ;
#152 = CARTESIAN_POINT ( 'NONE',  ( 0.000000000000000000, 0.000000000000000000, 0.000000000000000000 ) ) ;
#153 = CYLINDRICAL_SURFACE ( 'NONE', #96, 89.00000000000001421 ) ;
#154 =( GEOMETRIC_REPRESENTATION_CONTEXT ( 3 ) GLOBAL_UNCERTAINTY_ASSIGNED_CONTEXT ( ( #8 ) ) GLOBAL_UNIT_ASSIGNED_CONTEXT ( ( #174, #91, #215 ) ) REPRESENTATION_CONTEXT ( 'NONE', 'WORKASPACE' ) );
#155 = CARTESIAN_POINT ( 'NONE',  ( 0.000000000000000000, 0.000000000000000000, 0.000000000000000000 ) ) ;
#156 = DESIGN_CONTEXT ( 'detailed design', #194, 'design' ) ;
#157 = SHAPE_DEFINITION_REPRESENTATION ( #108, #163 ) ;
#158 = PRODUCT_DEFINITION ( 'UNKNOWN', '', #183, #156 ) ;
#159 = PERSON_AND_ORGANIZATION_ROLE ( 'creator' ) ;
#160 = EDGE_CURVE ( 'NONE', #188, #66, #44, .T. ) ;
#161 = APPLICATION_CONTEXT ( 'configuration controlled 3d designs of mechanical parts and assemblies' ) ;
#162 = DATE_TIME_ROLE ( 'classification_date' ) ;
#163 = ADVANCED_BREP_SHAPE_REPRESENTATION ( '3D_R152_DN40_17305200', ( #197, #145 ), #154 ) ;
#164 = ORIENTED_EDGE ( 'NONE', *, *, #75, .T. ) ;
#165 = AXIS2_PLACEMENT_3D ( 'NONE', #57, #132, #55 ) ;
#166 = VERTEX_POINT ( 'NONE', #128 ) ;
#167 = ORIENTED_EDGE ( 'NONE', *, *, #59, .T. ) ;
#168 = CARTESIAN_POINT ( 'NONE',  ( 0.000000000000000000, 6.000000000000000000, -89.00000000000001421 ) ) ;
#169 = APPROVAL ( #43, 'UNSPECIFIED' ) ;
#170 = LOCAL_TIME ( 9, 36, 26.00000000000000000, #78 ) ;
#171 = ORIENTED_EDGE ( 'NONE', *, *, #75, .F. ) ;
#172 = DIRECTION ( 'NONE',  ( 0.000000000000000000, 0.000000000000000000, -1.000000000000000000 ) ) ;
#173 = ADVANCED_FACE ( 'NONE', ( #216 ), #191, .F. ) ;
#174 =( LENGTH_UNIT ( ) NAMED_UNIT ( * ) SI_UNIT ( .MILLI., .METRE. ) );
#175 = CIRCLE ( 'NONE', #26, 89.00000000000001421 ) ;
#176 = FACE_OUTER_BOUND ( 'NONE', #67, .T. ) ;
#177 = EDGE_CURVE ( 'NONE', #66, #188, #211, .T. ) ;
#178 = CARTESIAN_POINT ( 'NONE',  ( 1.089935651241144396E-14, 6.000000000000000000, 89.00000000000001421 ) ) ;
#179 = CIRCLE ( 'NONE', #71, 44.00000000000000000 ) ;
#180 = ADVANCED_FACE ( 'NONE', ( #113, #193 ), #69, .F. ) ;
#181 = COORDINATED_UNIVERSAL_TIME_OFFSET ( 1, 0, .AHEAD. ) ;
#182 = DATE_AND_TIME ( #184, #131 ) ;
#183 = PRODUCT_DEFINITION_FORMATION_WITH_SPECIFIED_SOURCE ( 'ANY', '', #93, .NOT_KNOWN. ) ;
#184 = CALENDAR_DATE ( 2024, 13, 8 ) ;
#185 = ORIENTED_EDGE ( 'NONE', *, *, #118, .F. ) ;
#186 = EDGE_LOOP ( 'NONE', ( #209, #121, #122, #85 ) ) ;
#187 = ORIENTED_EDGE ( 'NONE', *, *, #83, .F. ) ;
#188 = VERTEX_POINT ( 'NONE', #5 ) ;
#189 = ORIENTED_EDGE ( 'NONE', *, *, #177, .T. ) ;
#190 = APPROVAL_PERSON_ORGANIZATION ( #236, #54, #224 ) ;
#191 = CYLINDRICAL_SURFACE ( 'NONE', #115, 44.00000000000000000 ) ;
#192 = SECURITY_CLASSIFICATION ( '', '', #10 ) ;
#193 = FACE_BOUND ( 'NONE', #53, .T. ) ;
#194 = APPLICATION_CONTEXT ( 'configuration controlled 3d designs of mechanical parts and assemblies' ) ;
#195 = CARTESIAN_POINT ( 'NONE',  ( 0.000000000000000000, 6.000000000000000000, 0.000000000000000000 ) ) ;
#196 = DIRECTION ( 'NONE',  ( -0.000000000000000000, -1.000000000000000000, -0.000000000000000000 ) ) ;
#197 = MANIFOLD_SOLID_BREP ( 'Aufsatz-Linear austragen1', #87 ) ;
#198 = CARTESIAN_POINT ( 'NONE',  ( 0.000000000000000000, 6.000000000000000000, 0.000000000000000000 ) ) ;
#199 = CALENDAR_DATE ( 2024, 13, 8 ) ;
#200 = CIRCLE ( 'NONE', #241, 44.00000000000000000 ) ;
#201 = CC_DESIGN_APPROVAL ( #218, ( #183 ) ) ;
#202 = DATE_AND_TIME ( #240, #9 ) ;
#203 = CC_DESIGN_PERSON_AND_ORGANIZATION_ASSIGNMENT ( #137, #219, ( #93 ) ) ;
#204 = COORDINATED_UNIVERSAL_TIME_OFFSET ( 1, 0, .AHEAD. ) ;
#205 = DATE_AND_TIME ( #238, #142 ) ;
#206 = ORIENTED_EDGE ( 'NONE', *, *, #118, .T. ) ;
#207 = DIRECTION ( 'NONE',  ( -0.000000000000000000, -1.000000000000000000, -0.000000000000000000 ) ) ;
#208 = EDGE_CURVE ( 'NONE', #144, #1, #200, .T. ) ;
#209 = ORIENTED_EDGE ( 'NONE', *, *, #70, .F. ) ;
#210 = ORIENTED_EDGE ( 'NONE', *, *, #22, .T. ) ;
#211 = CIRCLE ( 'NONE', #94, 44.00000000000000000 ) ;
#212 = DIRECTION ( 'NONE',  ( 0.000000000000000000, 1.000000000000000000, 0.000000000000000000 ) ) ;
#213 = DIRECTION ( 'NONE',  ( 0.000000000000000000, -0.000000000000000000, 1.000000000000000000 ) ) ;
#214 = DIRECTION ( 'NONE',  ( -0.000000000000000000, -1.000000000000000000, -0.000000000000000000 ) ) ;
#215 =( NAMED_UNIT ( * ) SI_UNIT ( $, .STERADIAN. ) SOLID_ANGLE_UNIT ( ) );
#216 = FACE_OUTER_BOUND ( 'NONE', #186, .T. ) ;
#217 = DIRECTION ( 'NONE',  ( 0.000000000000000000, -0.000000000000000000, 1.000000000000000000 ) ) ;
#218 = APPROVAL ( #97, 'UNSPECIFIED' ) ;
#219 = PERSON_AND_ORGANIZATION_ROLE ( 'design_owner' ) ;
#220 = AXIS2_PLACEMENT_3D ( 'NONE', #126, #148, #213 ) ;
#221 = CIRCLE ( 'NONE', #3, 89.00000000000001421 ) ;
#222 = PERSON_AND_ORGANIZATION_ROLE ( 'creator' ) ;
#223 = CALENDAR_DATE ( 2024, 13, 8 ) ;
#224 = APPROVAL_ROLE ( '' ) ;
#225 = VERTEX_POINT ( 'NONE', #92 ) ;
#226 = LINE ( 'NONE', #50, #136 ) ;
#227 = EDGE_LOOP ( 'NONE', ( #80, #247 ) ) ;
#228 = LINE ( 'NONE', #119, #125 ) ;
#229 = VERTEX_POINT ( 'NONE', #178 ) ;
#230 = CARTESIAN_POINT ( 'NONE',  ( 0.000000000000000000, 6.000000000000000000, 0.000000000000000000 ) ) ;
#231 = CARTESIAN_POINT ( 'NONE',  ( 0.000000000000000000, 6.000000000000000000, 0.000000000000000000 ) ) ;
#232 = DIRECTION ( 'NONE',  ( 0.000000000000000000, 1.000000000000000000, 0.000000000000000000 ) ) ;
#233 = DIRECTION ( 'NONE',  ( -0.000000000000000000, -1.000000000000000000, -0.000000000000000000 ) ) ;
#234 = CIRCLE ( 'NONE', #242, 89.00000000000001421 ) ;
#235 = DIRECTION ( 'NONE',  ( 0.000000000000000000, 0.000000000000000000, 1.000000000000000000 ) ) ;
#236 = PERSON_AND_ORGANIZATION ( #30, #99 ) ;
#237 = COORDINATED_UNIVERSAL_TIME_OFFSET ( 1, 0, .AHEAD. ) ;
#238 = CALENDAR_DATE ( 2024, 13, 8 ) ;
#239 = DIRECTION ( 'NONE',  ( 0.000000000000000000, 0.000000000000000000, 1.000000000000000000 ) ) ;
#240 = CALENDAR_DATE ( 2024, 13, 8 ) ;
#241 = AXIS2_PLACEMENT_3D ( 'NONE', #155, #24, #7 ) ;
#242 = AXIS2_PLACEMENT_3D ( 'NONE', #11, #124, #36 ) ;
#243 = ORIENTED_EDGE ( 'NONE', *, *, #177, .F. ) ;
#244 = EDGE_CURVE ( 'NONE', #49, #229, #139, .T. ) ;
#245 = CARTESIAN_POINT ( 'NONE',  ( 1.089935651241144396E-14, 6.000000000000000000, 89.00000000000001421 ) ) ;
#246 = PRODUCT_RELATED_PRODUCT_CATEGORY ( 'detail', '', ( #93 ) ) ;
#247 = ORIENTED_EDGE ( 'NONE', *, *, #18, .T. ) ;
#248 = DIRECTION ( 'NONE',  ( 0.000000000000000000, 1.000000000000000000, 0.000000000000000000 ) ) ;
#249 = CC_DESIGN_APPROVAL ( #54, ( #158 ) ) ;
ENDSEC;
END-ISO-10303-21;
