ISO-10303-21;
HEADER;
FILE_DESCRIPTION (( 'STEP AP203' ),
    '1' );
FILE_NAME ('3D_R-159_DN10_1780110.STEP',
    '2024-08-12T06:38:45',
    ( '' ),
    ( '' ),
    'SwSTEP 2.0',
    'SolidWorks 2024',
    '' );
FILE_SCHEMA (( 'CONFIG_CONTROL_DESIGN' ));
ENDSEC;

DATA;
#1 = CIRCLE ( 'NONE', #183, 8.600000000000033396 ) ;
#2 = COORDINATED_UNIVERSAL_TIME_OFFSET ( 1, 0, .AHEAD. ) ;
#3 = PERSON_AND_ORGANIZATION_ROLE ( 'design_owner' ) ;
#4 = CALENDAR_DATE ( 2024, 12, 8 ) ;
#5 =( LENGTH_UNIT ( ) NAMED_UNIT ( * ) SI_UNIT ( .MILLI., .METRE. ) );
#6 = ORIENTED_EDGE ( 'NONE', *, *, #304, .F. ) ;
#7 = ORIENTED_EDGE ( 'NONE', *, *, #132, .T. ) ;
#8 = PERSON_AND_ORGANIZATION_ROLE ( 'creator' ) ;
#9 = ORIENTED_EDGE ( 'NONE', *, *, #69, .T. ) ;
#10 = APPLICATION_PROTOCOL_DEFINITION ( 'international standard', 'config_control_design', 1994, #113 ) ;
#11 = CARTESIAN_POINT ( 'NONE',  ( -108.0545106745190509, 5.277691906671185151, 0.000000000000000000 ) ) ;
#12 = VERTEX_POINT ( 'NONE', #187 ) ;
#13 = PRODUCT_RELATED_PRODUCT_CATEGORY ( 'detail', '', ( #269 ) ) ;
#14 = EDGE_CURVE ( 'NONE', #320, #158, #37, .T. ) ;
#15 = ADVANCED_FACE ( 'NONE', ( #247 ), #383, .T. ) ;
#16 = CIRCLE ( 'NONE', #312, 11.75003904158530155 ) ;
#17 = DIRECTION ( 'NONE',  ( 2.440099081183689359E-05, -0.9999999997022956943, 0.000000000000000000 ) ) ;
#18 = CIRCLE ( 'NONE', #188, 8.600854034678420135 ) ;
#19 = CONICAL_SURFACE ( 'NONE', #74, 8.600000000000033396, 2.440099081346945473E-05 ) ;
#20 = CARTESIAN_POINT ( 'NONE',  ( -71.45451069631089069, 5.278584982934619418, 0.000000000000000000 ) ) ;
#21 = DIRECTION ( 'NONE',  ( 6.974235506598466805E-15, 1.000000000000000000, 0.000000000000000000 ) ) ;
#22 = ORIENTED_EDGE ( 'NONE', *, *, #190, .T. ) ;
#23 = CARTESIAN_POINT ( 'NONE',  ( -108.0546815032466839, 12.27858498132702714, 8.573621297602552149E-16 ) ) ;
#24 = DIRECTION ( 'NONE',  ( 0.9999999997022959164, 2.440099081145985212E-05, 0.000000000000000000 ) ) ;
#25 = ORIENTED_EDGE ( 'NONE', *, *, #174, .T. ) ;
#26 = CARTESIAN_POINT ( 'NONE',  ( -108.0541080780573111, -6.472347128355292689, 1.438964770184840311E-15 ) ) ;
#27 = ADVANCED_FACE ( 'NONE', ( #284 ), #221, .F. ) ;
#28 = CC_DESIGN_DATE_AND_TIME_ASSIGNMENT ( #151, #299, ( #57 ) ) ;
#29 = AXIS2_PLACEMENT_3D ( 'NONE', #287, #165, #17 ) ;
#30 = DIRECTION ( 'NONE',  ( 1.000000000000000000, 0.000000000000000000, 0.000000000000000000 ) ) ;
#31 = CALENDAR_DATE ( 2024, 12, 8 ) ;
#32 = DIRECTION ( 'NONE',  ( -0.9999999997022959164, -2.440099081145985212E-05, -0.000000000000000000 ) ) ;
#33 = AXIS2_PLACEMENT_3D ( 'NONE', #20, #47, #226 ) ;
#34 = DATE_AND_TIME ( #31, #380 ) ;
#35 = DIRECTION ( 'NONE',  ( -0.9999999988091832215, -4.880198160839087335E-05, 0.000000000000000000 ) ) ;
#36 = EDGE_LOOP ( 'NONE', ( #377, #73, #285, #127 ) ) ;
#37 = LINE ( 'NONE', #65, #268 ) ;
#38 = APPROVAL_STATUS ( 'not_yet_approved' ) ;
#39 = CONICAL_SURFACE ( 'NONE', #319, 8.600000000000033396, 2.440099081346945473E-05 ) ;
#40 = EDGE_LOOP ( 'NONE', ( #68, #22, #99, #281 ) ) ;
#41 = CONICAL_SURFACE ( 'NONE', #87, 11.75003904158530155, 1.570771925804081093 ) ;
#42 = FACE_OUTER_BOUND ( 'NONE', #361, .T. ) ;
#43 = DIRECTION ( 'NONE',  ( 2.440099081121783786E-05, -0.9999999997022958054, 0.000000000000000000 ) ) ;
#44 = ORIENTED_EDGE ( 'NONE', *, *, #102, .T. ) ;
#45 = CLOSED_SHELL ( 'NONE', ( #192, #53, #62, #369, #27, #160, #85, #331, #120, #15, #342, #384 ) ) ;
#46 = CARTESIAN_POINT ( 'NONE',  ( -71.45433988937520553, -1.721415015457788300, 9.552245033641047725E-16 ) ) ;
#47 = DIRECTION ( 'NONE',  ( 0.9999999997022959164, 2.440099081145985212E-05, 0.000000000000000000 ) ) ;
#48 = DIRECTION ( 'NONE',  ( -0.9999999997022959164, -2.440099081145985212E-05, -0.000000000000000000 ) ) ;
#49 = CIRCLE ( 'NONE', #72, 7.000000000476338080 ) ;
#50 = ORIENTED_EDGE ( 'NONE', *, *, #304, .T. ) ;
#51 = CARTESIAN_POINT ( 'NONE',  ( -106.4546815032466895, 17.02773094758613226, 1.438959988998140555E-15 ) ) ;
#52 = ORIENTED_EDGE ( 'NONE', *, *, #273, .T. ) ;
#53 = ADVANCED_FACE ( 'NONE', ( #339 ), #162, .F. ) ;
#54 = CARTESIAN_POINT ( 'NONE',  ( -106.4541080799626087, -6.472269045417824884, 0.000000000000000000 ) ) ;
#55 = VERTEX_POINT ( 'NONE', #242 ) ;
#56 = CARTESIAN_POINT ( 'NONE',  ( -71.45447165472559448, 5.278584983887272486, 0.000000000000000000 ) ) ;
#57 = PRODUCT_DEFINITION ( 'UNKNOWN', '', #79, #274 ) ;
#58 = CIRCLE ( 'NONE', #139, 11.75003904158530155 ) ;
#59 = LOCAL_TIME ( 8, 38, 45.00000000000000000, #206 ) ;
#60 = APPROVAL_STATUS ( 'not_yet_approved' ) ;
#61 = PERSON_AND_ORGANIZATION ( #315, #228 ) ;
#62 = ADVANCED_FACE ( 'NONE', ( #93 ), #323, .T. ) ;
#63 = LINE ( 'NONE', #327, #309 ) ;
#64 = VERTEX_POINT ( 'NONE', #184 ) ;
#65 = CARTESIAN_POINT ( 'NONE',  ( -71.45433988937520553, -1.721415015457789188, 8.572527594614819066E-16 ) ) ;
#66 = CONICAL_SURFACE ( 'NONE', #335, 11.75003904158530155, 1.570771925804081093 ) ;
#67 = COORDINATED_UNIVERSAL_TIME_OFFSET ( 1, 0, .AHEAD. ) ;
#68 = ORIENTED_EDGE ( 'NONE', *, *, #135, .F. ) ;
#69 = EDGE_CURVE ( 'NONE', #64, #96, #150, .T. ) ;
#70 = ORIENTED_EDGE ( 'NONE', *, *, #344, .T. ) ;
#71 = DIRECTION ( 'NONE',  ( -2.440099081081471117E-05, 0.9999999997022958054, 0.000000000000000000 ) ) ;
#72 = AXIS2_PLACEMENT_3D ( 'NONE', #293, #144, #136 ) ;
#73 = ORIENTED_EDGE ( 'NONE', *, *, #14, .T. ) ;
#74 = AXIS2_PLACEMENT_3D ( 'NONE', #122, #32, #330 ) ;
#75 = CARTESIAN_POINT ( 'NONE',  ( -106.4544716338864134, 5.277730949209125555, 0.000000000000000000 ) ) ;
#76 = DIRECTION ( 'NONE',  ( 2.440099081183689359E-05, -0.9999999997022956943, 0.000000000000000000 ) ) ;
#77 = DIRECTION ( 'NONE',  ( 1.645164988397715411E-15, 1.000000000000000000, 0.000000000000000000 ) ) ;
#78 = DIRECTION ( 'NONE',  ( -0.9999999997022959164, -2.440099081145985212E-05, -0.000000000000000000 ) ) ;
#79 = PRODUCT_DEFINITION_FORMATION_WITH_SPECIFIED_SOURCE ( 'ANY', '', #269, .NOT_KNOWN. ) ;
#80 = ORIENTED_EDGE ( 'NONE', *, *, #279, .F. ) ;
#81 = CARTESIAN_POINT ( 'NONE',  ( -108.0546815032466839, 17.02773094781924001, 0.000000000000000000 ) ) ;
#82 = ORIENTED_EDGE ( 'NONE', *, *, #267, .T. ) ;
#83 = CARTESIAN_POINT ( 'NONE',  ( -108.0541080780572969, -6.472347128588399556, 1.438964770213387610E-15 ) ) ;
#84 = CIRCLE ( 'NONE', #353, 8.600000000000033396 ) ;
#85 = ADVANCED_FACE ( 'NONE', ( #256 ), #234, .F. ) ;
#86 = CONICAL_SURFACE ( 'NONE', #368, 7.000000000476338968, 1.570771925804075764 ) ;
#87 = AXIS2_PLACEMENT_3D ( 'NONE', #119, #276, #362 ) ;
#88 = PERSON_AND_ORGANIZATION ( #315, #228 ) ;
#89 = UNCERTAINTY_MEASURE_WITH_UNIT (LENGTH_MEASURE( 1.000000000000000082E-05 ), #5, 'distance_accuracy_value', 'NONE');
#90 = EDGE_CURVE ( 'NONE', #158, #55, #84, .T. ) ;
#91 = APPROVAL_DATE_TIME ( #236, #233 ) ;
#92 = CARTESIAN_POINT ( 'NONE',  ( -108.0545106745190509, 5.277691906671185151, 0.000000000000000000 ) ) ;
#93 = FACE_OUTER_BOUND ( 'NONE', #295, .T. ) ;
#94 = APPROVAL ( #38, 'UNSPECIFIED' ) ;
#95 = PERSON_AND_ORGANIZATION_ROLE ( 'classification_officer' ) ;
#96 = VERTEX_POINT ( 'NONE', #345 ) ;
#97 = ORIENTED_EDGE ( 'NONE', *, *, #90, .T. ) ;
#98 = DIRECTION ( 'NONE',  ( -0.9999999997022959164, -2.440099081145985212E-05, -0.000000000000000000 ) ) ;
#99 = ORIENTED_EDGE ( 'NONE', *, *, #176, .T. ) ;
#100 = VECTOR ( 'NONE', #170, 1000.000000000000000 ) ;
#101 = APPLICATION_CONTEXT ( 'configuration controlled 3d designs of mechanical parts and assemblies' ) ;
#102 = EDGE_CURVE ( 'NONE', #96, #155, #374, .T. ) ;
#103 = LINE ( 'NONE', #259, #138 ) ;
#104 = CIRCLE ( 'NONE', #290, 7.000893076740037024 ) ;
#105 = DIRECTION ( 'NONE',  ( -0.9999999997022959164, -2.440099081145985212E-05, -0.000000000000000000 ) ) ;
#106 = DIRECTION ( 'NONE',  ( 2.440099081081471117E-05, -0.9999999997022958054, 0.000000000000000000 ) ) ;
#107 = EDGE_CURVE ( 'NONE', #55, #158, #1, .T. ) ;
#108 = DIRECTION ( 'NONE',  ( -0.9999999997022959164, -2.440099081145985212E-05, -0.000000000000000000 ) ) ;
#109 = VERTEX_POINT ( 'NONE', #23 ) ;
#110 = LINE ( 'NONE', #229, #271 ) ;
#111 = LOCAL_TIME ( 8, 38, 45.00000000000000000, #2 ) ;
#112 = ORIENTED_EDGE ( 'NONE', *, *, #382, .T. ) ;
#113 = APPLICATION_CONTEXT ( 'configuration controlled 3d designs of mechanical parts and assemblies' ) ;
#114 = DIRECTION ( 'NONE',  ( -1.000000000000000000, -2.676624113323589071E-19, 2.988259529327795765E-21 ) ) ;
#115 = VECTOR ( 'NONE', #77, 1000.000000000000000 ) ;
#116 = APPROVAL_DATE_TIME ( #332, #94 ) ;
#117 = FACE_OUTER_BOUND ( 'NONE', #363, .T. ) ;
#118 = SHAPE_DEFINITION_REPRESENTATION ( #325, #175 ) ;
#119 = CARTESIAN_POINT ( 'NONE',  ( -108.0543947906519833, 5.277691909498867240, 0.000000000000000000 ) ) ;
#120 = ADVANCED_FACE ( 'NONE', ( #347 ), #66, .T. ) ;
#121 = DATE_AND_TIME ( #244, #111 ) ;
#122 = CARTESIAN_POINT ( 'NONE',  ( -71.45447165472559448, 5.278584983887272486, 0.000000000000000000 ) ) ;
#123 = CC_DESIGN_PERSON_AND_ORGANIZATION_ASSIGNMENT ( #88, #3, ( #269 ) ) ;
#124 = DIRECTION ( 'NONE',  ( 0.9999999997022959164, 2.440099081145985212E-05, 0.000000000000000000 ) ) ;
#125 = COORDINATED_UNIVERSAL_TIME_OFFSET ( 1, 0, .AHEAD. ) ;
#126 = DIRECTION ( 'NONE',  ( -2.440099081081471117E-05, 0.9999999997022958054, 0.000000000000000000 ) ) ;
#127 = ORIENTED_EDGE ( 'NONE', *, *, #267, .F. ) ;
#128 = ORIENTED_EDGE ( 'NONE', *, *, #102, .F. ) ;
#129 = ORIENTED_EDGE ( 'NONE', *, *, #201, .T. ) ;
#130 = EDGE_LOOP ( 'NONE', ( #367, #131, #189, #112 ) ) ;
#131 = ORIENTED_EDGE ( 'NONE', *, *, #176, .F. ) ;
#132 = EDGE_CURVE ( 'NONE', #230, #155, #16, .T. ) ;
#133 = AXIS2_PLACEMENT_3D ( 'NONE', #310, #124, #71 ) ;
#134 = CARTESIAN_POINT ( 'NONE',  ( -71.45451069631089069, 5.278584982934619418, 0.000000000000000000 ) ) ;
#135 = EDGE_CURVE ( 'NONE', #308, #320, #49, .T. ) ;
#136 = DIRECTION ( 'NONE',  ( 2.440099081156845529E-05, -0.9999999997022958054, 0.000000000000000000 ) ) ;
#137 = CARTESIAN_POINT ( 'NONE',  ( -71.45426180620462731, -3.321415013552504902, 0.000000000000000000 ) ) ;
#138 = VECTOR ( 'NONE', #21, 1000.000000000000000 ) ;
#139 = AXIS2_PLACEMENT_3D ( 'NONE', #389, #212, #239 ) ;
#140 = CARTESIAN_POINT ( 'NONE',  ( -108.0543947906519833, 5.277691909498867240, 0.000000000000000000 ) ) ;
#141 = CARTESIAN_POINT ( 'NONE',  ( -108.0546815032466839, 17.02773094758613226, 0.000000000000000000 ) ) ;
#142 = MANIFOLD_SOLID_BREP ( 'Rotation1', #45 ) ;
#143 = EDGE_LOOP ( 'NONE', ( #52, #70, #305, #322 ) ) ;
#144 = DIRECTION ( 'NONE',  ( -0.9999999997022959164, -2.440099081145985212E-05, -0.000000000000000000 ) ) ;
#145 = CARTESIAN_POINT ( 'NONE',  ( -108.0545106745190509, 5.277691906671185151, 0.000000000000000000 ) ) ;
#146 = ORIENTED_EDGE ( 'NONE', *, *, #69, .F. ) ;
#147 = LINE ( 'NONE', #266, #100 ) ;
#148 = CIRCLE ( 'NONE', #29, 11.75000000000000533 ) ;
#149 = PERSON_AND_ORGANIZATION_ROLE ( 'design_supplier' ) ;
#150 = CIRCLE ( 'NONE', #200, 11.75000000000000533 ) ;
#151 = DATE_AND_TIME ( #326, #159 ) ;
#152 = VERTEX_POINT ( 'NONE', #262 ) ;
#153 = DIRECTION ( 'NONE',  ( -0.9999999997022959164, -2.440099081145985212E-05, -0.000000000000000000 ) ) ;
#154 = DATE_TIME_ROLE ( 'classification_date' ) ;
#155 = VERTEX_POINT ( 'NONE', #81 ) ;
#156 =( NAMED_UNIT ( * ) SI_UNIT ( $, .STERADIAN. ) SOLID_ANGLE_UNIT ( ) );
#157 = DIRECTION ( 'NONE',  ( 2.440099081183690036E-05, -0.9999999997022959164, 0.000000000000000000 ) ) ;
#158 = VERTEX_POINT ( 'NONE', #378 ) ;
#159 = LOCAL_TIME ( 8, 38, 45.00000000000000000, #67 ) ;
#160 = ADVANCED_FACE ( 'NONE', ( #324 ), #86, .F. ) ;
#161 = CC_DESIGN_PERSON_AND_ORGANIZATION_ASSIGNMENT ( #214, #8, ( #57 ) ) ;
#162 = CONICAL_SURFACE ( 'NONE', #133, 8.600854034678420135, 1.570771925804083979 ) ;
#163 = CARTESIAN_POINT ( 'NONE',  ( -108.0545106745190509, 5.277691906671185151, 0.000000000000000000 ) ) ;
#164 = DIRECTION ( 'NONE',  ( 2.440099081124626429E-05, -0.9999999997022958054, 0.000000000000000000 ) ) ;
#165 = DIRECTION ( 'NONE',  ( -0.9999999997022959164, -2.440099081145985212E-05, -0.000000000000000000 ) ) ;
#166 = AXIS2_PLACEMENT_3D ( 'NONE', #134, #255, #195 ) ;
#167 =( GEOMETRIC_REPRESENTATION_CONTEXT ( 3 ) GLOBAL_UNCERTAINTY_ASSIGNED_CONTEXT ( ( #89 ) ) GLOBAL_UNIT_ASSIGNED_CONTEXT ( ( #5, #182, #156 ) ) REPRESENTATION_CONTEXT ( 'NONE', 'WORKASPACE' ) );
#168 = ORIENTED_EDGE ( 'NONE', *, *, #371, .T. ) ;
#169 = DIRECTION ( 'NONE',  ( 2.440099081124626429E-05, -0.9999999997022958054, 0.000000000000000000 ) ) ;
#170 = DIRECTION ( 'NONE',  ( -1.000000000000000000, -4.118206426914627905E-16, 2.988259529277395082E-21 ) ) ;
#171 = EDGE_LOOP ( 'NONE', ( #240, #129, #7, #251 ) ) ;
#172 = DIRECTION ( 'NONE',  ( 2.440099081121783786E-05, -0.9999999997022958054, 0.000000000000000000 ) ) ;
#173 = LINE ( 'NONE', #83, #354 ) ;
#174 = EDGE_CURVE ( 'NONE', #64, #230, #294, .T. ) ;
#175 = ADVANCED_BREP_SHAPE_REPRESENTATION ( '3D_R-159_DN10_1780110', ( #142, #222 ), #167 ) ;
#176 = EDGE_CURVE ( 'NONE', #109, #337, #219, .T. ) ;
#177 = CC_DESIGN_DATE_AND_TIME_ASSIGNMENT ( #34, #154, ( #241 ) ) ;
#178 = CARTESIAN_POINT ( 'NONE',  ( -106.4542617645261515, -3.323123082908784554, 1.053300836350252807E-15 ) ) ;
#179 = CC_DESIGN_APPROVAL ( #233, ( #57 ) ) ;
#180 = APPROVAL_ROLE ( '' ) ;
#181 = PERSON_AND_ORGANIZATION ( #315, #228 ) ;
#182 =( NAMED_UNIT ( * ) PLANE_ANGLE_UNIT ( ) SI_UNIT ( $, .RADIAN. ) );
#183 = AXIS2_PLACEMENT_3D ( 'NONE', #316, #108, #169 ) ;
#184 = CARTESIAN_POINT ( 'NONE',  ( -106.4541080799626087, -6.472269045417824884, 0.000000000000000000 ) ) ;
#185 = PERSON_AND_ORGANIZATION ( #315, #228 ) ;
#186 = ORIENTED_EDGE ( 'NONE', *, *, #382, .F. ) ;
#187 = CARTESIAN_POINT ( 'NONE',  ( -106.4546815032466753, 13.87858498132703389, 0.000000000000000000 ) ) ;
#188 = AXIS2_PLACEMENT_3D ( 'NONE', #75, #317, #375 ) ;
#189 = ORIENTED_EDGE ( 'NONE', *, *, #300, .T. ) ;
#190 = EDGE_CURVE ( 'NONE', #308, #109, #110, .T. ) ;
#191 = APPROVAL_PERSON_ORGANIZATION ( #209, #233, #180 ) ;
#192 = ADVANCED_FACE ( 'NONE', ( #350 ), #39, .T. ) ;
#193 = LINE ( 'NONE', #137, #205 ) ;
#194 = DIRECTION ( 'NONE',  ( -1.000000000000000000, 8.708786187854034022E-16, 2.988259529434480623E-21 ) ) ;
#195 = DIRECTION ( 'NONE',  ( 2.440099081156845529E-05, -0.9999999997022958054, 0.000000000000000000 ) ) ;
#196 = DIRECTION ( 'NONE',  ( 2.440099081194393484E-05, -0.9999999997022958054, 0.000000000000000000 ) ) ;
#197 = ORIENTED_EDGE ( 'NONE', *, *, #132, .F. ) ;
#198 = CARTESIAN_POINT ( 'NONE',  ( -71.45451069631089069, 5.278584982934619418, 0.000000000000000000 ) ) ;
#199 = ORIENTED_EDGE ( 'NONE', *, *, #243, .T. ) ;
#200 = AXIS2_PLACEMENT_3D ( 'NONE', #280, #318, #76 ) ;
#201 = EDGE_CURVE ( 'NONE', #337, #230, #173, .T. ) ;
#202 = DIRECTION ( 'NONE',  ( -0.9999999997022959164, -2.440099081145985212E-05, -0.000000000000000000 ) ) ;
#203 = CC_DESIGN_PERSON_AND_ORGANIZATION_ASSIGNMENT ( #181, #149, ( #79 ) ) ;
#204 = VECTOR ( 'NONE', #381, 1000.000000000000114 ) ;
#205 = VECTOR ( 'NONE', #314, 1000.000000000000114 ) ;
#206 = COORDINATED_UNIVERSAL_TIME_OFFSET ( 1, 0, .AHEAD. ) ;
#207 = DIRECTION ( 'NONE',  ( 4.880198160714973292E-05, -0.9999999988091832215, 1.224646798782770786E-16 ) ) ;
#208 = PERSON_AND_ORGANIZATION ( #315, #228 ) ;
#209 = PERSON_AND_ORGANIZATION ( #315, #228 ) ;
#210 = CC_DESIGN_APPROVAL ( #356, ( #241 ) ) ;
#211 = CALENDAR_DATE ( 2024, 12, 8 ) ;
#212 = DIRECTION ( 'NONE',  ( -0.9999999997022959164, -2.440099081145985212E-05, -0.000000000000000000 ) ) ;
#213 = CARTESIAN_POINT ( 'NONE',  ( -106.4543947916046562, 5.277730951084153688, 0.000000000000000000 ) ) ;
#214 = PERSON_AND_ORGANIZATION ( #315, #228 ) ;
#215 = EDGE_LOOP ( 'NONE', ( #128, #199, #25, #186 ) ) ;
#216 = CARTESIAN_POINT ( 'NONE',  ( -108.0543398457914037, -1.723201167984656390, 0.000000000000000000 ) ) ;
#217 = DIRECTION ( 'NONE',  ( -0.9999999997022959164, -2.440099081145985212E-05, -0.000000000000000000 ) ) ;
#218 = ORIENTED_EDGE ( 'NONE', *, *, #344, .F. ) ;
#219 = CIRCLE ( 'NONE', #385, 7.000893076740037024 ) ;
#220 = AXIS2_PLACEMENT_3D ( 'NONE', #250, #238, #126 ) ;
#221 = CONICAL_SURFACE ( 'NONE', #370, 7.000893076740037024, 2.440099081388100771E-05 ) ;
#222 = AXIS2_PLACEMENT_3D ( 'NONE', #301, #282, #30 ) ;
#223 = DIRECTION ( 'NONE',  ( -1.241414875627691594E-15, 1.000000000000000000, 0.000000000000000000 ) ) ;
#224 = CARTESIAN_POINT ( 'NONE',  ( -108.0543947906519833, 5.277691909498867240, 0.000000000000000000 ) ) ;
#225 = LINE ( 'NONE', #141, #115 ) ;
#226 = DIRECTION ( 'NONE',  ( -2.440099081156845191E-05, 0.9999999997022958054, 0.000000000000000000 ) ) ;
#227 = ORIENTED_EDGE ( 'NONE', *, *, #190, .F. ) ;
#228 = ORGANIZATION ( 'UNSPECIFIED', 'UNSPECIFIED', '' ) ;
#229 = CARTESIAN_POINT ( 'NONE',  ( -108.0546815032466839, 12.27858498132702714, 8.573621297602552149E-16 ) ) ;
#230 = VERTEX_POINT ( 'NONE', #26 ) ;
#231 = EDGE_CURVE ( 'NONE', #55, #12, #147, .T. ) ;
#232 = DIRECTION ( 'NONE',  ( -2.440099081156845191E-05, 0.9999999997022958054, 0.000000000000000000 ) ) ;
#233 = APPROVAL ( #60, 'UNSPECIFIED' ) ;
#234 = CONICAL_SURFACE ( 'NONE', #33, 7.000000000476338968, 1.570771925804075764 ) ;
#235 = AXIS2_PLACEMENT_3D ( 'NONE', #346, #48, #106 ) ;
#236 = DATE_AND_TIME ( #4, #59 ) ;
#237 = MECHANICAL_CONTEXT ( 'NONE', #113, 'mechanical' ) ;
#238 = DIRECTION ( 'NONE',  ( 0.9999999997022959164, 2.440099081145985212E-05, 0.000000000000000000 ) ) ;
#239 = DIRECTION ( 'NONE',  ( 2.440099081194393484E-05, -0.9999999997022958054, 0.000000000000000000 ) ) ;
#240 = ORIENTED_EDGE ( 'NONE', *, *, #328, .F. ) ;
#241 = SECURITY_CLASSIFICATION ( '', '', #303 ) ;
#242 = CARTESIAN_POINT ( 'NONE',  ( -71.45468150324657586, 13.87858498136320229, 0.000000000000000000 ) ) ;
#243 = EDGE_CURVE ( 'NONE', #96, #64, #148, .T. ) ;
#244 = CALENDAR_DATE ( 2024, 12, 8 ) ;
#245 = DIRECTION ( 'NONE',  ( 2.440099081121783786E-05, -0.9999999997022958054, 0.000000000000000000 ) ) ;
#246 = ORIENTED_EDGE ( 'NONE', *, *, #14, .F. ) ;
#247 = FACE_OUTER_BOUND ( 'NONE', #215, .T. ) ;
#248 = CC_DESIGN_PERSON_AND_ORGANIZATION_ASSIGNMENT ( #61, #307, ( #79 ) ) ;
#249 = ORIENTED_EDGE ( 'NONE', *, *, #107, .T. ) ;
#250 = CARTESIAN_POINT ( 'NONE',  ( -106.4544716338864134, 5.277730949209125555, 0.000000000000000000 ) ) ;
#251 = ORIENTED_EDGE ( 'NONE', *, *, #300, .F. ) ;
#252 = EDGE_LOOP ( 'NONE', ( #283, #249, #340, #365 ) ) ;
#253 = LOCAL_TIME ( 8, 38, 45.00000000000000000, #125 ) ;
#254 = VECTOR ( 'NONE', #194, 1000.000000000000000 ) ;
#255 = DIRECTION ( 'NONE',  ( -0.9999999997022959164, -2.440099081145985212E-05, -0.000000000000000000 ) ) ;
#256 = FACE_OUTER_BOUND ( 'NONE', #292, .T. ) ;
#257 = VECTOR ( 'NONE', #223, 1000.000000000000000 ) ;
#258 = VECTOR ( 'NONE', #207, 1000.000000000000114 ) ;
#259 = CARTESIAN_POINT ( 'NONE',  ( -71.45468150324659007, 12.27858498132702891, 0.000000000000000000 ) ) ;
#260 = DIRECTION ( 'NONE',  ( 0.9999999997022959164, 2.440099081145985212E-05, 0.000000000000000000 ) ) ;
#261 = EDGE_LOOP ( 'NONE', ( #97, #351, #80, #311 ) ) ;
#262 = CARTESIAN_POINT ( 'NONE',  ( -106.4542617645261515, -3.323123082908783221, 1.246130412674196779E-15 ) ) ;
#263 = EDGE_CURVE ( 'NONE', #12, #96, #372, .T. ) ;
#264 = ORIENTED_EDGE ( 'NONE', *, *, #174, .F. ) ;
#265 = APPROVAL_PERSON_ORGANIZATION ( #185, #94, #360 ) ;
#266 = CARTESIAN_POINT ( 'NONE',  ( -71.45468150324657586, 13.87858498132704987, 1.053196247266728033E-15 ) ) ;
#267 = EDGE_CURVE ( 'NONE', #308, #55, #103, .T. ) ;
#268 = VECTOR ( 'NONE', #359, 1000.000000000000114 ) ;
#269 = PRODUCT ( '3D_R-159_DN10_1780110', '3D_R-159_DN10_1780110', '', ( #237 ) ) ;
#270 = CC_DESIGN_PERSON_AND_ORGANIZATION_ASSIGNMENT ( #208, #95, ( #241 ) ) ;
#271 = VECTOR ( 'NONE', #114, 1000.000000000000000 ) ;
#272 = COORDINATED_UNIVERSAL_TIME_OFFSET ( 1, 0, .AHEAD. ) ;
#273 = EDGE_CURVE ( 'NONE', #12, #152, #18, .T. ) ;
#274 = DESIGN_CONTEXT ( 'detailed design', #101, 'design' ) ;
#275 = APPROVAL_ROLE ( '' ) ;
#276 = DIRECTION ( 'NONE',  ( 0.9999999997022959164, 2.440099081145985212E-05, 0.000000000000000000 ) ) ;
#277 = ORIENTED_EDGE ( 'NONE', *, *, #279, .T. ) ;
#278 = CONICAL_SURFACE ( 'NONE', #386, 7.000893076740037024, 2.440099081388100771E-05 ) ;
#279 = EDGE_CURVE ( 'NONE', #152, #12, #289, .T. ) ;
#280 = CARTESIAN_POINT ( 'NONE',  ( -106.4543947916046562, 5.277730951084153688, 0.000000000000000000 ) ) ;
#281 = ORIENTED_EDGE ( 'NONE', *, *, #371, .F. ) ;
#282 = DIRECTION ( 'NONE',  ( 0.000000000000000000, 0.000000000000000000, 1.000000000000000000 ) ) ;
#283 = ORIENTED_EDGE ( 'NONE', *, *, #231, .F. ) ;
#284 = FACE_OUTER_BOUND ( 'NONE', #40, .T. ) ;
#285 = ORIENTED_EDGE ( 'NONE', *, *, #107, .F. ) ;
#286 = AXIS2_PLACEMENT_3D ( 'NONE', #213, #153, #334 ) ;
#287 = CARTESIAN_POINT ( 'NONE',  ( -106.4543947916046562, 5.277730951084153688, 0.000000000000000000 ) ) ;
#288 = CARTESIAN_POINT ( 'NONE',  ( -71.45447165472559448, 5.278584983887272486, 0.000000000000000000 ) ) ;
#289 = CIRCLE ( 'NONE', #235, 8.600854034678420135 ) ;
#290 = AXIS2_PLACEMENT_3D ( 'NONE', #163, #217, #387 ) ;
#291 = CARTESIAN_POINT ( 'NONE',  ( -106.4546815032466753, 13.87858498132703566, 0.000000000000000000 ) ) ;
#292 = EDGE_LOOP ( 'NONE', ( #246, #50, #82, #379 ) ) ;
#293 = CARTESIAN_POINT ( 'NONE',  ( -71.45451069631089069, 5.278584982934619418, 0.000000000000000000 ) ) ;
#294 = LINE ( 'NONE', #54, #204 ) ;
#295 = EDGE_LOOP ( 'NONE', ( #9, #44, #197, #264 ) ) ;
#296 = DIRECTION ( 'NONE',  ( -0.9999999997022959164, -2.440099081145985212E-05, -0.000000000000000000 ) ) ;
#297 = CC_DESIGN_SECURITY_CLASSIFICATION ( #241, ( #79 ) ) ;
#298 = APPLICATION_PROTOCOL_DEFINITION ( 'international standard', 'config_control_design', 1994, #101 ) ;
#299 = DATE_TIME_ROLE ( 'creation_date' ) ;
#300 = EDGE_CURVE ( 'NONE', #109, #155, #225, .T. ) ;
#301 = CARTESIAN_POINT ( 'NONE',  ( 0.000000000000000000, 0.000000000000000000, 0.000000000000000000 ) ) ;
#302 = AXIS2_PLACEMENT_3D ( 'NONE', #364, #306, #157 ) ;
#303 = SECURITY_CLASSIFICATION_LEVEL ( 'unclassified' ) ;
#304 = EDGE_CURVE ( 'NONE', #320, #308, #341, .T. ) ;
#305 = ORIENTED_EDGE ( 'NONE', *, *, #243, .F. ) ;
#306 = DIRECTION ( 'NONE',  ( -0.9999999997022959164, -2.440099081145985212E-05, -0.000000000000000000 ) ) ;
#307 = PERSON_AND_ORGANIZATION_ROLE ( 'creator' ) ;
#308 = VERTEX_POINT ( 'NONE', #343 ) ;
#309 = VECTOR ( 'NONE', #35, 1000.000000000000114 ) ;
#310 = CARTESIAN_POINT ( 'NONE',  ( -106.4544716338864134, 5.277730949209125555, 0.000000000000000000 ) ) ;
#311 = ORIENTED_EDGE ( 'NONE', *, *, #313, .F. ) ;
#312 = AXIS2_PLACEMENT_3D ( 'NONE', #224, #78, #196 ) ;
#313 = EDGE_CURVE ( 'NONE', #158, #152, #193, .T. ) ;
#314 = DIRECTION ( 'NONE',  ( -0.9999999988091832215, -4.880198160797932376E-05, 0.000000000000000000 ) ) ;
#315 = PERSON ( 'UNSPECIFIED', 'UNSPECIFIED', 'UNSPECIFIED', ('UNSPECIFIED'), ('UNSPECIFIED'), ('UNSPECIFIED') ) ;
#316 = CARTESIAN_POINT ( 'NONE',  ( -71.45447165472559448, 5.278584983887272486, 0.000000000000000000 ) ) ;
#317 = DIRECTION ( 'NONE',  ( -0.9999999997022959164, -2.440099081145985212E-05, -0.000000000000000000 ) ) ;
#318 = DIRECTION ( 'NONE',  ( -0.9999999997022959164, -2.440099081145985212E-05, -0.000000000000000000 ) ) ;
#319 = AXIS2_PLACEMENT_3D ( 'NONE', #56, #296, #352 ) ;
#320 = VERTEX_POINT ( 'NONE', #46 ) ;
#321 = DIRECTION ( 'NONE',  ( 4.880198161003631278E-05, -0.9999999988091832215, 1.224646798782770786E-16 ) ) ;
#322 = ORIENTED_EDGE ( 'NONE', *, *, #263, .F. ) ;
#323 = CONICAL_SURFACE ( 'NONE', #286, 11.75000000000000178, 2.440099081475215399E-05 ) ;
#324 = FACE_OUTER_BOUND ( 'NONE', #36, .T. ) ;
#325 = PRODUCT_DEFINITION_SHAPE ( 'NONE', 'NONE',  #57 ) ;
#326 = CALENDAR_DATE ( 2024, 12, 8 ) ;
#327 = CARTESIAN_POINT ( 'NONE',  ( -108.0543398457914037, -1.723201167984656390, 0.000000000000000000 ) ) ;
#328 = EDGE_CURVE ( 'NONE', #337, #109, #104, .T. ) ;
#329 = CC_DESIGN_APPROVAL ( #94, ( #79 ) ) ;
#330 = DIRECTION ( 'NONE',  ( 2.440099081124626429E-05, -0.9999999997022958054, 0.000000000000000000 ) ) ;
#331 = ADVANCED_FACE ( 'NONE', ( #117 ), #278, .F. ) ;
#332 = DATE_AND_TIME ( #211, #253 ) ;
#333 = DIRECTION ( 'NONE',  ( -0.9999999997022959164, -2.440099081145985212E-05, -0.000000000000000000 ) ) ;
#334 = DIRECTION ( 'NONE',  ( 2.440099081183690036E-05, -0.9999999997022959164, 0.000000000000000000 ) ) ;
#335 = AXIS2_PLACEMENT_3D ( 'NONE', #140, #260, #376 ) ;
#336 = APPROVAL_DATE_TIME ( #121, #356 ) ;
#337 = VERTEX_POINT ( 'NONE', #216 ) ;
#338 = ORIENTED_EDGE ( 'NONE', *, *, #328, .T. ) ;
#339 = FACE_OUTER_BOUND ( 'NONE', #143, .T. ) ;
#340 = ORIENTED_EDGE ( 'NONE', *, *, #313, .T. ) ;
#341 = CIRCLE ( 'NONE', #166, 7.000000000476338080 ) ;
#342 = ADVANCED_FACE ( 'NONE', ( #42 ), #373, .F. ) ;
#343 = CARTESIAN_POINT ( 'NONE',  ( -71.45468150324659007, 12.27858498132702714, 0.000000000000000000 ) ) ;
#344 = EDGE_CURVE ( 'NONE', #152, #64, #358, .T. ) ;
#345 = CARTESIAN_POINT ( 'NONE',  ( -106.4546815032466895, 17.02773094758613581, 1.438962379605764378E-15 ) ) ;
#346 = CARTESIAN_POINT ( 'NONE',  ( -106.4544716338864134, 5.277730949209125555, 0.000000000000000000 ) ) ;
#347 = FACE_OUTER_BOUND ( 'NONE', #130, .T. ) ;
#348 = ORIENTED_EDGE ( 'NONE', *, *, #263, .T. ) ;
#349 = APPROVAL_PERSON_ORGANIZATION ( #355, #356, #275 ) ;
#350 = FACE_OUTER_BOUND ( 'NONE', #261, .T. ) ;
#351 = ORIENTED_EDGE ( 'NONE', *, *, #231, .T. ) ;
#352 = DIRECTION ( 'NONE',  ( 2.440099081124626429E-05, -0.9999999997022958054, 0.000000000000000000 ) ) ;
#353 = AXIS2_PLACEMENT_3D ( 'NONE', #288, #105, #164 ) ;
#354 = VECTOR ( 'NONE', #321, 1000.000000000000114 ) ;
#355 = PERSON_AND_ORGANIZATION ( #315, #228 ) ;
#356 = APPROVAL ( #388, 'UNSPECIFIED' ) ;
#357 = FACE_OUTER_BOUND ( 'NONE', #171, .T. ) ;
#358 = LINE ( 'NONE', #178, #258 ) ;
#359 = DIRECTION ( 'NONE',  ( 4.880198161536538330E-05, -0.9999999988091832215, 1.224646798782770786E-16 ) ) ;
#360 = APPROVAL_ROLE ( '' ) ;
#361 = EDGE_LOOP ( 'NONE', ( #218, #277, #348, #146 ) ) ;
#362 = DIRECTION ( 'NONE',  ( -2.440099081194393484E-05, 0.9999999997022958054, 0.000000000000000000 ) ) ;
#363 = EDGE_LOOP ( 'NONE', ( #227, #6, #168, #338 ) ) ;
#364 = CARTESIAN_POINT ( 'NONE',  ( -106.4543947916046562, 5.277730951084153688, 0.000000000000000000 ) ) ;
#365 = ORIENTED_EDGE ( 'NONE', *, *, #273, .F. ) ;
#366 = FACE_OUTER_BOUND ( 'NONE', #252, .T. ) ;
#367 = ORIENTED_EDGE ( 'NONE', *, *, #201, .F. ) ;
#368 = AXIS2_PLACEMENT_3D ( 'NONE', #198, #24, #232 ) ;
#369 = ADVANCED_FACE ( 'NONE', ( #357 ), #41, .T. ) ;
#370 = AXIS2_PLACEMENT_3D ( 'NONE', #11, #98, #43 ) ;
#371 = EDGE_CURVE ( 'NONE', #320, #337, #63, .T. ) ;
#372 = LINE ( 'NONE', #291, #257 ) ;
#373 = CONICAL_SURFACE ( 'NONE', #220, 8.600854034678420135, 1.570771925804083979 ) ;
#374 = LINE ( 'NONE', #51, #254 ) ;
#375 = DIRECTION ( 'NONE',  ( 2.440099081081471117E-05, -0.9999999997022958054, 0.000000000000000000 ) ) ;
#376 = DIRECTION ( 'NONE',  ( -2.440099081194393484E-05, 0.9999999997022958054, 0.000000000000000000 ) ) ;
#377 = ORIENTED_EDGE ( 'NONE', *, *, #135, .T. ) ;
#378 = CARTESIAN_POINT ( 'NONE',  ( -71.45426180620462731, -3.321415013526345383, 1.053196247263524074E-15 ) ) ;
#379 = ORIENTED_EDGE ( 'NONE', *, *, #90, .F. ) ;
#380 = LOCAL_TIME ( 8, 38, 45.00000000000000000, #272 ) ;
#381 = DIRECTION ( 'NONE',  ( -0.9999999988091832215, -4.880198160926202302E-05, 0.000000000000000000 ) ) ;
#382 = EDGE_CURVE ( 'NONE', #155, #230, #58, .T. ) ;
#383 = CONICAL_SURFACE ( 'NONE', #302, 11.75000000000000178, 2.440099081475215399E-05 ) ;
#384 = ADVANCED_FACE ( 'NONE', ( #366 ), #19, .T. ) ;
#385 = AXIS2_PLACEMENT_3D ( 'NONE', #145, #202, #172 ) ;
#386 = AXIS2_PLACEMENT_3D ( 'NONE', #92, #333, #245 ) ;
#387 = DIRECTION ( 'NONE',  ( 2.440099081121783786E-05, -0.9999999997022958054, 0.000000000000000000 ) ) ;
#388 = APPROVAL_STATUS ( 'not_yet_approved' ) ;
#389 = CARTESIAN_POINT ( 'NONE',  ( -108.0543947906519833, 5.277691909498867240, 0.000000000000000000 ) ) ;
ENDSEC;
END-ISO-10303-21;
