ISO-10303-21;
HEADER;
FILE_DESCRIPTION (( 'STEP AP203' ),
    '1' );
FILE_NAME ('3D_R175_DN44.5x2_17336220.STEP',
    '2024-07-18T10:07:53',
    ( '' ),
    ( '' ),
    'SwSTEP 2.0',
    'SolidWorks 2024',
    '' );
FILE_SCHEMA (( 'CONFIG_CONTROL_DESIGN' ));
ENDSEC;

DATA;
#1 =( NAMED_UNIT ( * ) SI_UNIT ( $, .STERADIAN. ) SOLID_ANGLE_UNIT ( ) );
#2 = APPROVAL ( #247, 'UNSPECIFIED' ) ;
#3 = ORIENTED_EDGE ( 'NONE', *, *, #175, .F. ) ;
#4 = CIRCLE ( 'NONE', #343, 31.60000000000000142 ) ;
#5 = DIRECTION ( 'NONE',  ( 4.596983092540343816E-18, 1.000000000000000000, -0.000000000000000000 ) ) ;
#6 = ORIENTED_EDGE ( 'NONE', *, *, #238, .T. ) ;
#7 = EDGE_CURVE ( 'NONE', #108, #164, #286, .T. ) ;
#8 = SPHERICAL_SURFACE ( 'NONE', #378, 33.60000000000000142 ) ;
#9 = CIRCLE ( 'NONE', #241, 2.674999999999996714 ) ;
#10 = ORIENTED_EDGE ( 'NONE', *, *, #33, .F. ) ;
#11 = PERSON_AND_ORGANIZATION_ROLE ( 'creator' ) ;
#12 = ORIENTED_EDGE ( 'NONE', *, *, #304, .F. ) ;
#13 = PERSON_AND_ORGANIZATION_ROLE ( 'design_supplier' ) ;
#14 = ORIENTED_EDGE ( 'NONE', *, *, #290, .F. ) ;
#15 = AXIS2_PLACEMENT_3D ( 'NONE', #42, #317, #67 ) ;
#16 = CIRCLE ( 'NONE', #361, 22.25000000000000000 ) ;
#17 = ORIENTED_EDGE ( 'NONE', *, *, #243, .F. ) ;
#18 = EDGE_LOOP ( 'NONE', ( #10, #142, #271, #289 ) ) ;
#19 = CARTESIAN_POINT ( 'NONE',  ( 1.387778780781445676E-14, 2817.965330118411202, 0.000000000000000000 ) ) ;
#20 = APPROVAL_DATE_TIME ( #59, #191 ) ;
#21 = EDGE_CURVE ( 'NONE', #274, #104, #125, .T. ) ;
#22 = EDGE_LOOP ( 'NONE', ( #209, #3, #287, #385 ) ) ;
#23 = AXIS2_PLACEMENT_3D ( 'NONE', #134, #319, #326 ) ;
#24 = CIRCLE ( 'NONE', #117, 33.60000000000000142 ) ;
#25 = CARTESIAN_POINT ( 'NONE',  ( 9.236488298952508525E-16, 0.000000000000000000, 0.000000000000000000 ) ) ;
#26 = APPROVAL_DATE_TIME ( #79, #2 ) ;
#27 = DIRECTION ( 'NONE',  ( 4.596983092540343816E-18, 1.000000000000000000, -0.000000000000000000 ) ) ;
#28 = EDGE_CURVE ( 'NONE', #164, #108, #57, .T. ) ;
#29 = DIRECTION ( 'NONE',  ( -0.000000000000000000, 0.000000000000000000, -1.000000000000000000 ) ) ;
#30 = CARTESIAN_POINT ( 'NONE',  ( 0.000000000000000000, 6.373354130383316551, 0.000000000000000000 ) ) ;
#31 = CARTESIAN_POINT ( 'NONE',  ( -22.25000000000000000, 1.022828738090226545E-16, 0.000000000000000000 ) ) ;
#32 = DESIGN_CONTEXT ( 'detailed design', #293, 'design' ) ;
#33 = EDGE_CURVE ( 'NONE', #104, #164, #281, .T. ) ;
#34 = CARTESIAN_POINT ( 'NONE',  ( 4.114813245135107131E-15, -16.60000000000000497, 0.000000000000000000 ) ) ;
#35 = ORIENTED_EDGE ( 'NONE', *, *, #315, .T. ) ;
#36 = AXIS2_PLACEMENT_3D ( 'NONE', #275, #403, #152 ) ;
#37 = DIRECTION ( 'NONE',  ( 4.596983092540343816E-18, 1.000000000000000000, -0.000000000000000000 ) ) ;
#38 = ORIENTED_EDGE ( 'NONE', *, *, #132, .T. ) ;
#39 = UNCERTAINTY_MEASURE_WITH_UNIT (LENGTH_MEASURE( 1.000000000000000082E-05 ), #296, 'distance_accuracy_value', 'NONE');
#40 = ORIENTED_EDGE ( 'NONE', *, *, #408, .T. ) ;
#41 = EDGE_CURVE ( 'NONE', #274, #108, #187, .T. ) ;
#42 = CARTESIAN_POINT ( 'NONE',  ( 1.387778780781445676E-14, 2817.965330118411202, 0.000000000000000000 ) ) ;
#43 = EDGE_LOOP ( 'NONE', ( #355, #84, #47, #147 ) ) ;
#44 = CIRCLE ( 'NONE', #78, 20.24999999999999645 ) ;
#45 = DIRECTION ( 'NONE',  ( -1.000000000000000000, 4.596983092540343816E-18, 0.000000000000000000 ) ) ;
#46 = AXIS2_PLACEMENT_3D ( 'NONE', #124, #244, #404 ) ;
#47 = ORIENTED_EDGE ( 'NONE', *, *, #299, .T. ) ;
#48 = PERSON_AND_ORGANIZATION_ROLE ( 'classification_officer' ) ;
#49 = DIRECTION ( 'NONE',  ( 4.596983092540343816E-18, 1.000000000000000000, -0.000000000000000000 ) ) ;
#50 = DATE_AND_TIME ( #334, #127 ) ;
#51 = CC_DESIGN_PERSON_AND_ORGANIZATION_ASSIGNMENT ( #107, #48, ( #58 ) ) ;
#52 = DIRECTION ( 'NONE',  ( 1.000000000000000000, 0.000000000000000000, 1.224646799147352714E-16 ) ) ;
#53 = EDGE_LOOP ( 'NONE', ( #69, #402 ) ) ;
#54 = DIRECTION ( 'NONE',  ( -1.224646799147353207E-16, 5.629680630014033300E-34, 1.000000000000000000 ) ) ;
#55 = DIRECTION ( 'NONE',  ( -1.000000000000000000, 0.000000000000000000, 0.000000000000000000 ) ) ;
#56 = CYLINDRICAL_SURFACE ( 'NONE', #131, 22.25000000000000000 ) ;
#57 = CIRCLE ( 'NONE', #400, 20.41555747623162986 ) ;
#58 = SECURITY_CLASSIFICATION ( '', '', #263 ) ;
#59 = DATE_AND_TIME ( #217, #359 ) ;
#60 = CC_DESIGN_PERSON_AND_ORGANIZATION_ASSIGNMENT ( #376, #13, ( #94 ) ) ;
#61 = DIRECTION ( 'NONE',  ( -1.000000000000000000, 0.000000000000000000, 0.000000000000000000 ) ) ;
#62 = PERSON_AND_ORGANIZATION ( #232, #143 ) ;
#63 = DIRECTION ( 'NONE',  ( 4.596983092540343816E-18, 1.000000000000000000, -0.000000000000000000 ) ) ;
#64 = DIRECTION ( 'NONE',  ( -1.000000000000000000, 0.000000000000000000, 0.000000000000000000 ) ) ;
#65 = AXIS2_PLACEMENT_3D ( 'NONE', #128, #251, #340 ) ;
#66 = CARTESIAN_POINT ( 'NONE',  ( -22.24999999999998579, 2817.965330118411202, 0.000000000000000000 ) ) ;
#67 = DIRECTION ( 'NONE',  ( -1.000000000000000000, 0.000000000000000000, 0.000000000000000000 ) ) ;
#68 = CARTESIAN_POINT ( 'NONE',  ( 17.57499999999999929, 6.373354130383316551, 2.152316749501473463E-15 ) ) ;
#69 = ORIENTED_EDGE ( 'NONE', *, *, #175, .T. ) ;
#70 = AXIS2_PLACEMENT_3D ( 'NONE', #291, #195, #72 ) ;
#71 = CIRCLE ( 'NONE', #302, 22.25000000000000000 ) ;
#72 = DIRECTION ( 'NONE',  ( -1.000000000000000000, 4.596983092540343816E-18, 0.000000000000000000 ) ) ;
#73 = ADVANCED_FACE ( 'NONE', ( #339 ), #115, .F. ) ;
#74 = VERTEX_POINT ( 'NONE', #174 ) ;
#75 = DIRECTION ( 'NONE',  ( 4.596983092540343816E-18, 1.000000000000000000, -0.000000000000000000 ) ) ;
#76 = VERTEX_POINT ( 'NONE', #208 ) ;
#77 = VERTEX_POINT ( 'NONE', #268 ) ;
#78 = AXIS2_PLACEMENT_3D ( 'NONE', #228, #383, #226 ) ;
#79 = DATE_AND_TIME ( #310, #349 ) ;
#80 = AXIS2_PLACEMENT_3D ( 'NONE', #126, #279, #64 ) ;
#81 = DIRECTION ( 'NONE',  ( -0.000000000000000000, 0.000000000000000000, -1.000000000000000000 ) ) ;
#82 = CALENDAR_DATE ( 2024, 18, 7 ) ;
#83 = ORIENTED_EDGE ( 'NONE', *, *, #109, .F. ) ;
#84 = ORIENTED_EDGE ( 'NONE', *, *, #312, .T. ) ;
#85 = PRODUCT_DEFINITION_SHAPE ( 'NONE', 'NONE',  #225 ) ;
#86 = VERTEX_POINT ( 'NONE', #368 ) ;
#87 = EDGE_CURVE ( 'NONE', #193, #392, #16, .T. ) ;
#88 = CARTESIAN_POINT ( 'NONE',  ( 9.529470310753948836E-16, 6.373354130383201976, 0.000000000000000000 ) ) ;
#89 = APPROVAL_ROLE ( '' ) ;
#90 = CARTESIAN_POINT ( 'NONE',  ( 9.236488298952508525E-16, 0.000000000000000000, 0.000000000000000000 ) ) ;
#91 = PERSON_AND_ORGANIZATION_ROLE ( 'design_owner' ) ;
#92 = APPROVAL_PERSON_ORGANIZATION ( #214, #191, #236 ) ;
#93 = CARTESIAN_POINT ( 'NONE',  ( 4.114813245135107131E-15, -16.60000000000000497, 0.000000000000000000 ) ) ;
#94 = PRODUCT_DEFINITION_FORMATION_WITH_SPECIFIED_SOURCE ( 'ANY', '', #369, .NOT_KNOWN. ) ;
#95 = CARTESIAN_POINT ( 'NONE',  ( -19.20034572169413423, 8.497942628180137348, 0.000000000000000000 ) ) ;
#96 = FACE_OUTER_BOUND ( 'NONE', #330, .T. ) ;
#97 = LOCAL_TIME ( 12, 7, 53.00000000000000000, #298 ) ;
#98 = DIRECTION ( 'NONE',  ( -1.000000000000000000, 0.000000000000000000, 0.000000000000000000 ) ) ;
#99 = AXIS2_PLACEMENT_3D ( 'NONE', #30, #276, #311 ) ;
#100 =( NAMED_UNIT ( * ) PLANE_ANGLE_UNIT ( ) SI_UNIT ( $, .RADIAN. ) );
#101 = DIRECTION ( 'NONE',  ( -1.000000000000000000, 4.596983092540343816E-18, 0.000000000000000000 ) ) ;
#102 = ADVANCED_FACE ( 'NONE', ( #146 ), #269, .T. ) ;
#103 = FACE_OUTER_BOUND ( 'NONE', #43, .T. ) ;
#104 = VERTEX_POINT ( 'NONE', #177 ) ;
#105 = ORIENTED_EDGE ( 'NONE', *, *, #21, .T. ) ;
#106 = FACE_OUTER_BOUND ( 'NONE', #297, .T. ) ;
#107 = PERSON_AND_ORGANIZATION ( #232, #143 ) ;
#108 = VERTEX_POINT ( 'NONE', #372 ) ;
#109 = EDGE_CURVE ( 'NONE', #104, #274, #71, .T. ) ;
#110 = APPROVAL_STATUS ( 'not_yet_approved' ) ;
#111 = EDGE_LOOP ( 'NONE', ( #292, #318, #306 ) ) ;
#112 = CC_DESIGN_APPROVAL ( #2, ( #94 ) ) ;
#113 = CC_DESIGN_SECURITY_CLASSIFICATION ( #58, ( #94 ) ) ;
#114 = CARTESIAN_POINT ( 'NONE',  ( 9.236488298952508525E-16, 0.000000000000000000, 0.000000000000000000 ) ) ;
#115 = CYLINDRICAL_SURFACE ( 'NONE', #370, 20.24999999999999645 ) ;
#116 = CC_DESIGN_APPROVAL ( #191, ( #225 ) ) ;
#117 = AXIS2_PLACEMENT_3D ( 'NONE', #384, #352, #354 ) ;
#118 = AXIS2_PLACEMENT_3D ( 'NONE', #93, #218, #61 ) ;
#119 = ORIENTED_EDGE ( 'NONE', *, *, #7, .F. ) ;
#120 = DIRECTION ( 'NONE',  ( 4.596983092540343816E-18, 1.000000000000000000, -0.000000000000000000 ) ) ;
#121 = CARTESIAN_POINT ( 'NONE',  ( 20.24999999999999645, -9.308890762394195457E-17, 2.479909768273389906E-15 ) ) ;
#122 = CC_DESIGN_DATE_AND_TIME_ASSIGNMENT ( #332, #183, ( #225 ) ) ;
#123 = APPROVAL_STATUS ( 'not_yet_approved' ) ;
#124 = CARTESIAN_POINT ( 'NONE',  ( 0.000000000000000000, 6.373354130383316551, 0.000000000000000000 ) ) ;
#125 = CIRCLE ( 'NONE', #261, 22.25000000000000000 ) ;
#126 = CARTESIAN_POINT ( 'NONE',  ( 4.114813245135107131E-15, -16.60000000000000497, 0.000000000000000000 ) ) ;
#127 = LOCAL_TIME ( 12, 7, 53.00000000000000000, #207 ) ;
#128 = CARTESIAN_POINT ( 'NONE',  ( 4.230188063054398199E-15, 8.497942628180137348, 0.000000000000000000 ) ) ;
#129 = DIRECTION ( 'NONE',  ( 0.000000000000000000, 0.000000000000000000, 1.000000000000000000 ) ) ;
#130 = LOCAL_TIME ( 12, 7, 53.00000000000000000, #170 ) ;
#131 = AXIS2_PLACEMENT_3D ( 'NONE', #282, #381, #98 ) ;
#132 = EDGE_CURVE ( 'NONE', #193, #274, #316, .T. ) ;
#133 = DIRECTION ( 'NONE',  ( 4.596983092540343816E-18, 1.000000000000000000, -0.000000000000000000 ) ) ;
#134 = CARTESIAN_POINT ( 'NONE',  ( -3.008853982394505109E-31, 6.373354130383251714, 0.000000000000000000 ) ) ;
#135 = EDGE_LOOP ( 'NONE', ( #169, #260 ) ) ;
#136 = CIRCLE ( 'NONE', #70, 22.25000000000000000 ) ;
#137 = DIRECTION ( 'NONE',  ( 0.000000000000000000, 0.000000000000000000, 1.000000000000000000 ) ) ;
#138 = ORIENTED_EDGE ( 'NONE', *, *, #366, .F. ) ;
#139 = ADVANCED_FACE ( 'NONE', ( #182, #156 ), #313, .T. ) ;
#140 = ORIENTED_EDGE ( 'NONE', *, *, #304, .T. ) ;
#141 = DATE_AND_TIME ( #82, #130 ) ;
#142 = ORIENTED_EDGE ( 'NONE', *, *, #109, .T. ) ;
#143 = ORGANIZATION ( 'UNSPECIFIED', 'UNSPECIFIED', '' ) ;
#144 = CARTESIAN_POINT ( 'NONE',  ( 9.529470310753948836E-16, 6.373354130383201976, 0.000000000000000000 ) ) ;
#145 = EDGE_CURVE ( 'NONE', #234, #336, #348, .T. ) ;
#146 = FACE_OUTER_BOUND ( 'NONE', #388, .T. ) ;
#147 = ORIENTED_EDGE ( 'NONE', *, *, #231, .F. ) ;
#148 = SHAPE_DEFINITION_REPRESENTATION ( #85, #264 ) ;
#149 = AXIS2_PLACEMENT_3D ( 'NONE', #162, #75, #101 ) ;
#150 = ORIENTED_EDGE ( 'NONE', *, *, #41, .F. ) ;
#151 = DIRECTION ( 'NONE',  ( 1.000000000000000000, -4.596983092540344586E-18, 0.000000000000000000 ) ) ;
#152 = DIRECTION ( 'NONE',  ( 1.000000000000000000, 0.000000000000000000, 0.000000000000000000 ) ) ;
#153 = CARTESIAN_POINT ( 'NONE',  ( 20.41555747623162986, 10.08642000971038399, 2.612511919855224277E-15 ) ) ;
#154 = AXIS2_PLACEMENT_3D ( 'NONE', #374, #186, #158 ) ;
#155 = ADVANCED_FACE ( 'NONE', ( #285 ), #308, .T. ) ;
#156 = FACE_OUTER_BOUND ( 'NONE', #135, .T. ) ;
#157 = CC_DESIGN_APPROVAL ( #258, ( #58 ) ) ;
#158 = DIRECTION ( 'NONE',  ( 1.000000000000000000, -4.596983092540343816E-18, 0.000000000000000000 ) ) ;
#159 = CIRCLE ( 'NONE', #398, 19.20034572169413778 ) ;
#160 = CARTESIAN_POINT ( 'NONE',  ( 0.000000000000000000, 6.373354130383316551, 0.000000000000000000 ) ) ;
#161 = ORIENTED_EDGE ( 'NONE', *, *, #299, .F. ) ;
#162 = CARTESIAN_POINT ( 'NONE',  ( 0.000000000000000000, 6.373354130383316551, 0.000000000000000000 ) ) ;
#163 = DIRECTION ( 'NONE',  ( -1.000000000000000000, 0.000000000000000000, 0.000000000000000000 ) ) ;
#164 = VERTEX_POINT ( 'NONE', #153 ) ;
#165 = VERTEX_POINT ( 'NONE', #380 ) ;
#166 = AXIS2_PLACEMENT_3D ( 'NONE', #25, #181, #215 ) ;
#167 = ADVANCED_FACE ( 'NONE', ( #411 ), #203, .T. ) ;
#168 = SPHERICAL_SURFACE ( 'NONE', #314, 33.60000000000000142 ) ;
#169 = ORIENTED_EDGE ( 'NONE', *, *, #87, .F. ) ;
#170 = COORDINATED_UNIVERSAL_TIME_OFFSET ( 1, 0, .AHEAD. ) ;
#171 = DIRECTION ( 'NONE',  ( 4.596983092540343816E-18, 1.000000000000000000, -0.000000000000000000 ) ) ;
#172 = APPLICATION_CONTEXT ( 'configuration controlled 3d designs of mechanical parts and assemblies' ) ;
#173 = APPROVAL_ROLE ( '' ) ;
#174 = CARTESIAN_POINT ( 'NONE',  ( 19.20034572169414133, 8.497942628180137348, 2.415636980666459762E-15 ) ) ;
#175 = EDGE_CURVE ( 'NONE', #336, #234, #252, .T. ) ;
#176 = DIRECTION ( 'NONE',  ( -1.000000000000000000, 4.596983092540343816E-18, 0.000000000000000000 ) ) ;
#177 = CARTESIAN_POINT ( 'NONE',  ( 22.25000000000000000, 6.373354130383201976, 2.724839128102860596E-15 ) ) ;
#178 = DIRECTION ( 'NONE',  ( -1.000000000000000000, 0.000000000000000000, 0.000000000000000000 ) ) ;
#179 = ADVANCED_FACE ( 'NONE', ( #96 ), #342, .F. ) ;
#180 = AXIS2_PLACEMENT_3D ( 'NONE', #346, #377, #410 ) ;
#181 = DIRECTION ( 'NONE',  ( 4.596983092540343816E-18, 1.000000000000000000, -0.000000000000000000 ) ) ;
#182 = FACE_BOUND ( 'NONE', #53, .T. ) ;
#183 = DATE_TIME_ROLE ( 'creation_date' ) ;
#184 = CARTESIAN_POINT ( 'NONE',  ( 4.114813245135107131E-15, -16.60000000000000497, 0.000000000000000000 ) ) ;
#185 = ADVANCED_FACE ( 'NONE', ( #283 ), #250, .F. ) ;
#186 = DIRECTION ( 'NONE',  ( -4.596983092540343816E-18, -1.000000000000000000, 0.000000000000000000 ) ) ;
#187 = CIRCLE ( 'NONE', #371, 4.674999999999995381 ) ;
#188 = FACE_OUTER_BOUND ( 'NONE', #227, .T. ) ;
#189 = FACE_OUTER_BOUND ( 'NONE', #229, .T. ) ;
#190 = ORIENTED_EDGE ( 'NONE', *, *, #33, .T. ) ;
#191 = APPROVAL ( #123, 'UNSPECIFIED' ) ;
#192 = DIRECTION ( 'NONE',  ( -1.224646799147353207E-16, 5.629680630014033300E-34, 1.000000000000000000 ) ) ;
#193 = VERTEX_POINT ( 'NONE', #31 ) ;
#194 = CLOSED_SHELL ( 'NONE', ( #179, #277, #284, #390, #167, #102, #139, #220, #155, #379, #73, #347, #185 ) ) ;
#195 = DIRECTION ( 'NONE',  ( 4.596983092540343816E-18, 1.000000000000000000, -0.000000000000000000 ) ) ;
#196 = ORIENTED_EDGE ( 'NONE', *, *, #238, .F. ) ;
#197 = DIRECTION ( 'NONE',  ( 1.000000000000000000, 0.000000000000000000, 1.224646799147352221E-16 ) ) ;
#198 = EDGE_LOOP ( 'NONE', ( #105, #190, #119, #150 ) ) ;
#199 = EDGE_CURVE ( 'NONE', #201, #74, #401, .T. ) ;
#200 = DIRECTION ( 'NONE',  ( 1.000000000000000000, 0.000000000000000000, 1.224646799147353207E-16 ) ) ;
#201 = VERTEX_POINT ( 'NONE', #95 ) ;
#202 = CIRCLE ( 'NONE', #23, 20.24999999999999645 ) ;
#203 = TOROIDAL_SURFACE ( 'NONE', #46, 17.57499999999999929, 4.674999999999995381 ) ;
#204 = PERSON_AND_ORGANIZATION ( #232, #143 ) ;
#205 = ORIENTED_EDGE ( 'NONE', *, *, #132, .F. ) ;
#206 = CC_DESIGN_PERSON_AND_ORGANIZATION_ASSIGNMENT ( #278, #391, ( #94 ) ) ;
#207 = COORDINATED_UNIVERSAL_TIME_OFFSET ( 1, 0, .AHEAD. ) ;
#208 = CARTESIAN_POINT ( 'NONE',  ( 2.211865254476908950E-15, 17.00000000000000000, 0.000000000000000000 ) ) ;
#209 = ORIENTED_EDGE ( 'NONE', *, *, #312, .F. ) ;
#210 = AXIS2_PLACEMENT_3D ( 'NONE', #68, #192, #197 ) ;
#211 = DIRECTION ( 'NONE',  ( 4.596983092540343816E-18, 1.000000000000000000, -0.000000000000000000 ) ) ;
#212 = DIRECTION ( 'NONE',  ( 4.596983092540343816E-18, 1.000000000000000000, -0.000000000000000000 ) ) ;
#213 = CC_DESIGN_PERSON_AND_ORGANIZATION_ASSIGNMENT ( #219, #91, ( #369 ) ) ;
#214 = PERSON_AND_ORGANIZATION ( #232, #143 ) ;
#215 = DIRECTION ( 'NONE',  ( 1.000000000000000000, -4.596983092540344586E-18, 0.000000000000000000 ) ) ;
#216 = MANIFOLD_SOLID_BREP ( 'Wandung1', #194 ) ;
#217 = CALENDAR_DATE ( 2024, 18, 7 ) ;
#218 = DIRECTION ( 'NONE',  ( -0.000000000000000000, 0.000000000000000000, -1.000000000000000000 ) ) ;
#219 = PERSON_AND_ORGANIZATION ( #232, #143 ) ;
#220 = ADVANCED_FACE ( 'NONE', ( #188 ), #56, .T. ) ;
#221 = LINE ( 'NONE', #345, #273 ) ;
#222 = CIRCLE ( 'NONE', #210, 2.674999999999996714 ) ;
#223 = LINE ( 'NONE', #406, #363 ) ;
#224 = CIRCLE ( 'NONE', #331, 33.60000000000000142 ) ;
#225 = PRODUCT_DEFINITION ( 'UNKNOWN', '', #94, #32 ) ;
#226 = DIRECTION ( 'NONE',  ( -1.000000000000000000, 0.000000000000000000, 0.000000000000000000 ) ) ;
#227 = EDGE_LOOP ( 'NONE', ( #387, #303, #38, #83 ) ) ;
#228 = CARTESIAN_POINT ( 'NONE',  ( -3.008853982394505109E-31, 6.373354130383251714, 0.000000000000000000 ) ) ;
#229 = EDGE_LOOP ( 'NONE', ( #327, #138, #6, #357 ) ) ;
#230 = FACE_OUTER_BOUND ( 'NONE', #111, .T. ) ;
#231 = EDGE_CURVE ( 'NONE', #336, #86, #223, .T. ) ;
#232 = PERSON ( 'UNSPECIFIED', 'UNSPECIFIED', 'UNSPECIFIED', ('UNSPECIFIED'), ('UNSPECIFIED'), ('UNSPECIFIED') ) ;
#233 = DIRECTION ( 'NONE',  ( 1.000000000000000000, 0.000000000000000000, 1.224646799147353207E-16 ) ) ;
#234 = VERTEX_POINT ( 'NONE', #121 ) ;
#235 = APPLICATION_PROTOCOL_DEFINITION ( 'international standard', 'config_control_design', 1994, #172 ) ;
#236 = APPROVAL_ROLE ( '' ) ;
#237 = CARTESIAN_POINT ( 'NONE',  ( 9.700159321441510337E-16, 10.08642000971038399, 0.000000000000000000 ) ) ;
#238 = EDGE_CURVE ( 'NONE', #86, #201, #9, .T. ) ;
#239 = DIRECTION ( 'NONE',  ( 4.596983092540343816E-18, 1.000000000000000000, -0.000000000000000000 ) ) ;
#240 = DIRECTION ( 'NONE',  ( 4.596983092540343816E-18, 1.000000000000000000, -0.000000000000000000 ) ) ;
#241 = AXIS2_PLACEMENT_3D ( 'NONE', #351, #29, #246 ) ;
#242 = CARTESIAN_POINT ( 'NONE',  ( 1.387778780781445676E-14, 2817.965330118411202, 0.000000000000000000 ) ) ;
#243 = EDGE_CURVE ( 'NONE', #201, #77, #295, .T. ) ;
#244 = DIRECTION ( 'NONE',  ( 4.596983092540343816E-18, 1.000000000000000000, -0.000000000000000000 ) ) ;
#245 = MECHANICAL_CONTEXT ( 'NONE', #172, 'mechanical' ) ;
#246 = DIRECTION ( 'NONE',  ( -1.000000000000000000, 0.000000000000000000, 0.000000000000000000 ) ) ;
#247 = APPROVAL_STATUS ( 'not_yet_approved' ) ;
#248 = EDGE_CURVE ( 'NONE', #392, #104, #221, .T. ) ;
#249 = AXIS2_PLACEMENT_3D ( 'NONE', #242, #211, #338 ) ;
#250 = SPHERICAL_SURFACE ( 'NONE', #180, 31.60000000000000142 ) ;
#251 = DIRECTION ( 'NONE',  ( 4.596983092540343816E-18, 1.000000000000000000, -0.000000000000000000 ) ) ;
#252 = CIRCLE ( 'NONE', #166, 20.24999999999999645 ) ;
#253 = PRODUCT_RELATED_PRODUCT_CATEGORY ( 'detail', '', ( #369 ) ) ;
#254 = CARTESIAN_POINT ( 'NONE',  ( -20.24999999999999645, 9.308890762394195457E-17, 0.000000000000000000 ) ) ;
#255 = ORIENTED_EDGE ( 'NONE', *, *, #270, .T. ) ;
#256 = DIRECTION ( 'NONE',  ( -1.000000000000000000, 0.000000000000000000, 0.000000000000000000 ) ) ;
#257 = ORIENTED_EDGE ( 'NONE', *, *, #199, .F. ) ;
#258 = APPROVAL ( #110, 'UNSPECIFIED' ) ;
#259 = DIRECTION ( 'NONE',  ( -1.000000000000000000, 0.000000000000000000, 0.000000000000000000 ) ) ;
#260 = ORIENTED_EDGE ( 'NONE', *, *, #322, .F. ) ;
#261 = AXIS2_PLACEMENT_3D ( 'NONE', #144, #49, #55 ) ;
#262 = CARTESIAN_POINT ( 'NONE',  ( 22.25000000000000000, -1.022828738090226545E-16, 2.724839128102860596E-15 ) ) ;
#263 = SECURITY_CLASSIFICATION_LEVEL ( 'unclassified' ) ;
#264 = ADVANCED_BREP_SHAPE_REPRESENTATION ( '3D_R175_DN44.5x2_17336220', ( #216, #36 ), #394 ) ;
#265 = DATE_TIME_ROLE ( 'classification_date' ) ;
#266 = CARTESIAN_POINT ( 'NONE',  ( -17.57499999999999929, 6.373354130383316551, 0.000000000000000000 ) ) ;
#267 = AXIS2_PLACEMENT_3D ( 'NONE', #395, #54, #52 ) ;
#268 = CARTESIAN_POINT ( 'NONE',  ( 2.325135968206563867E-15, 15.00000000000000000, 0.000000000000000000 ) ) ;
#269 = CYLINDRICAL_SURFACE ( 'NONE', #249, 22.25000000000000000 ) ;
#270 = EDGE_CURVE ( 'NONE', #164, #76, #224, .T. ) ;
#271 = ORIENTED_EDGE ( 'NONE', *, *, #41, .T. ) ;
#272 = AXIS2_PLACEMENT_3D ( 'NONE', #90, #27, #151 ) ;
#273 = VECTOR ( 'NONE', #63, 1000.000000000000000 ) ;
#274 = VERTEX_POINT ( 'NONE', #294 ) ;
#275 = CARTESIAN_POINT ( 'NONE',  ( 0.000000000000000000, 0.000000000000000000, 0.000000000000000000 ) ) ;
#276 = DIRECTION ( 'NONE',  ( 4.596983092540343816E-18, 1.000000000000000000, -0.000000000000000000 ) ) ;
#277 = ADVANCED_FACE ( 'NONE', ( #324 ), #350, .F. ) ;
#278 = PERSON_AND_ORGANIZATION ( #232, #143 ) ;
#279 = DIRECTION ( 'NONE',  ( 0.000000000000000000, 0.000000000000000000, 1.000000000000000000 ) ) ;
#280 = VECTOR ( 'NONE', #37, 1000.000000000000000 ) ;
#281 = CIRCLE ( 'NONE', #267, 4.674999999999995381 ) ;
#282 = CARTESIAN_POINT ( 'NONE',  ( 1.387778780781445676E-14, 2817.965330118411202, 0.000000000000000000 ) ) ;
#283 = FACE_OUTER_BOUND ( 'NONE', #365, .T. ) ;
#284 = ADVANCED_FACE ( 'NONE', ( #103 ), #356, .F. ) ;
#285 = FACE_OUTER_BOUND ( 'NONE', #18, .T. ) ;
#286 = CIRCLE ( 'NONE', #320, 20.41555747623162986 ) ;
#287 = ORIENTED_EDGE ( 'NONE', *, *, #231, .T. ) ;
#288 = CARTESIAN_POINT ( 'NONE',  ( 4.230188063054398199E-15, 8.497942628180137348, 0.000000000000000000 ) ) ;
#289 = ORIENTED_EDGE ( 'NONE', *, *, #28, .F. ) ;
#290 = EDGE_CURVE ( 'NONE', #108, #76, #24, .T. ) ;
#291 = CARTESIAN_POINT ( 'NONE',  ( 9.236488298952508525E-16, 0.000000000000000000, 0.000000000000000000 ) ) ;
#292 = ORIENTED_EDGE ( 'NONE', *, *, #270, .F. ) ;
#293 = APPLICATION_CONTEXT ( 'configuration controlled 3d designs of mechanical parts and assemblies' ) ;
#294 = CARTESIAN_POINT ( 'NONE',  ( -22.25000000000000000, 6.373354130383201976, 0.000000000000000000 ) ) ;
#295 = CIRCLE ( 'NONE', #118, 31.60000000000000142 ) ;
#296 =( LENGTH_UNIT ( ) NAMED_UNIT ( * ) SI_UNIT ( .MILLI., .METRE. ) );
#297 = EDGE_LOOP ( 'NONE', ( #335, #255, #14 ) ) ;
#298 = COORDINATED_UNIVERSAL_TIME_OFFSET ( 1, 0, .AHEAD. ) ;
#299 = EDGE_CURVE ( 'NONE', #165, #86, #44, .T. ) ;
#300 = DIRECTION ( 'NONE',  ( -1.000000000000000000, 0.000000000000000000, 0.000000000000000000 ) ) ;
#301 = ORIENTED_EDGE ( 'NONE', *, *, #248, .T. ) ;
#302 = AXIS2_PLACEMENT_3D ( 'NONE', #88, #212, #178 ) ;
#303 = ORIENTED_EDGE ( 'NONE', *, *, #322, .T. ) ;
#304 = EDGE_CURVE ( 'NONE', #74, #201, #159, .T. ) ;
#305 = DIRECTION ( 'NONE',  ( -1.000000000000000000, 0.000000000000000000, 0.000000000000000000 ) ) ;
#306 = ORIENTED_EDGE ( 'NONE', *, *, #290, .T. ) ;
#307 = APPROVAL_DATE_TIME ( #50, #258 ) ;
#308 = TOROIDAL_SURFACE ( 'NONE', #99, 17.57499999999999929, 4.674999999999995381 ) ;
#309 = DIRECTION ( 'NONE',  ( 4.596983092540343816E-18, 1.000000000000000000, -0.000000000000000000 ) ) ;
#310 = CALENDAR_DATE ( 2024, 18, 7 ) ;
#311 = DIRECTION ( 'NONE',  ( -1.000000000000000000, 4.596983092540343816E-18, 0.000000000000000000 ) ) ;
#312 = EDGE_CURVE ( 'NONE', #234, #165, #353, .T. ) ;
#313 = PLANE ( 'NONE',  #154 ) ;
#314 = AXIS2_PLACEMENT_3D ( 'NONE', #34, #129, #259 ) ;
#315 = EDGE_CURVE ( 'NONE', #165, #74, #222, .T. ) ;
#316 = LINE ( 'NONE', #66, #407 ) ;
#317 = DIRECTION ( 'NONE',  ( 4.596983092540343816E-18, 1.000000000000000000, -0.000000000000000000 ) ) ;
#318 = ORIENTED_EDGE ( 'NONE', *, *, #28, .T. ) ;
#319 = DIRECTION ( 'NONE',  ( 4.596983092540343816E-18, 1.000000000000000000, -0.000000000000000000 ) ) ;
#320 = AXIS2_PLACEMENT_3D ( 'NONE', #237, #120, #362 ) ;
#321 = APPROVAL_PERSON_ORGANIZATION ( #62, #2, #89 ) ;
#322 = EDGE_CURVE ( 'NONE', #392, #193, #136, .T. ) ;
#323 = EDGE_LOOP ( 'NONE', ( #161, #35, #140, #196 ) ) ;
#324 = FACE_OUTER_BOUND ( 'NONE', #323, .T. ) ;
#325 = ORIENTED_EDGE ( 'NONE', *, *, #21, .F. ) ;
#326 = DIRECTION ( 'NONE',  ( -1.000000000000000000, 0.000000000000000000, 0.000000000000000000 ) ) ;
#327 = ORIENTED_EDGE ( 'NONE', *, *, #315, .F. ) ;
#328 = CARTESIAN_POINT ( 'NONE',  ( 4.114813245135107131E-15, -16.60000000000000497, 0.000000000000000000 ) ) ;
#329 = TOROIDAL_SURFACE ( 'NONE', #382, 17.57499999999999929, 2.674999999999994937 ) ;
#330 = EDGE_LOOP ( 'NONE', ( #12, #40, #17 ) ) ;
#331 = AXIS2_PLACEMENT_3D ( 'NONE', #184, #409, #200 ) ;
#332 = DATE_AND_TIME ( #344, #97 ) ;
#333 = ORIENTED_EDGE ( 'NONE', *, *, #408, .F. ) ;
#334 = CALENDAR_DATE ( 2024, 18, 7 ) ;
#335 = ORIENTED_EDGE ( 'NONE', *, *, #7, .T. ) ;
#336 = VERTEX_POINT ( 'NONE', #254 ) ;
#337 = CC_DESIGN_PERSON_AND_ORGANIZATION_ASSIGNMENT ( #204, #11, ( #225 ) ) ;
#338 = DIRECTION ( 'NONE',  ( -1.000000000000000000, 0.000000000000000000, 0.000000000000000000 ) ) ;
#339 = FACE_OUTER_BOUND ( 'NONE', #22, .T. ) ;
#340 = DIRECTION ( 'NONE',  ( -1.000000000000000000, 0.000000000000000000, 0.000000000000000000 ) ) ;
#341 = CC_DESIGN_DATE_AND_TIME_ASSIGNMENT ( #141, #265, ( #58 ) ) ;
#342 = SPHERICAL_SURFACE ( 'NONE', #80, 31.60000000000000142 ) ;
#343 = AXIS2_PLACEMENT_3D ( 'NONE', #389, #386, #233 ) ;
#344 = CALENDAR_DATE ( 2024, 18, 7 ) ;
#345 = CARTESIAN_POINT ( 'NONE',  ( 22.25000000000001421, 2817.965330118411202, 2.724839128102860596E-15 ) ) ;
#346 = CARTESIAN_POINT ( 'NONE',  ( 4.114813245135107131E-15, -16.60000000000000497, 0.000000000000000000 ) ) ;
#347 = ADVANCED_FACE ( 'NONE', ( #189 ), #329, .F. ) ;
#348 = CIRCLE ( 'NONE', #272, 20.24999999999999645 ) ;
#349 = LOCAL_TIME ( 12, 7, 53.00000000000000000, #360 ) ;
#350 = TOROIDAL_SURFACE ( 'NONE', #149, 17.57499999999999929, 2.674999999999994937 ) ;
#351 = CARTESIAN_POINT ( 'NONE',  ( -17.57499999999999929, 6.373354130383316551, 0.000000000000000000 ) ) ;
#352 = DIRECTION ( 'NONE',  ( -0.000000000000000000, 0.000000000000000000, -1.000000000000000000 ) ) ;
#353 = LINE ( 'NONE', #358, #280 ) ;
#354 = DIRECTION ( 'NONE',  ( -1.000000000000000000, 0.000000000000000000, 0.000000000000000000 ) ) ;
#355 = ORIENTED_EDGE ( 'NONE', *, *, #145, .F. ) ;
#356 = CYLINDRICAL_SURFACE ( 'NONE', #15, 20.24999999999999645 ) ;
#357 = ORIENTED_EDGE ( 'NONE', *, *, #199, .T. ) ;
#358 = CARTESIAN_POINT ( 'NONE',  ( 20.25000000000001066, 2817.965330118411202, 2.479909768273389906E-15 ) ) ;
#359 = LOCAL_TIME ( 12, 7, 53.00000000000000000, #364 ) ;
#360 = COORDINATED_UNIVERSAL_TIME_OFFSET ( 1, 0, .AHEAD. ) ;
#361 = AXIS2_PLACEMENT_3D ( 'NONE', #114, #239, #176 ) ;
#362 = DIRECTION ( 'NONE',  ( -1.000000000000000000, 0.000000000000000000, 0.000000000000000000 ) ) ;
#363 = VECTOR ( 'NONE', #309, 1000.000000000000000 ) ;
#364 = COORDINATED_UNIVERSAL_TIME_OFFSET ( 1, 0, .AHEAD. ) ;
#365 = EDGE_LOOP ( 'NONE', ( #333, #257, #399 ) ) ;
#366 = EDGE_CURVE ( 'NONE', #86, #165, #202, .T. ) ;
#367 = ORIENTED_EDGE ( 'NONE', *, *, #87, .T. ) ;
#368 = CARTESIAN_POINT ( 'NONE',  ( -20.24999999999999645, 6.373354130383251714, 0.000000000000000000 ) ) ;
#369 = PRODUCT ( '3D_R175_DN44.5x2_17336220', '3D_R175_DN44.5x2_17336220', '', ( #245 ) ) ;
#370 = AXIS2_PLACEMENT_3D ( 'NONE', #19, #171, #305 ) ;
#371 = AXIS2_PLACEMENT_3D ( 'NONE', #266, #81, #300 ) ;
#372 = CARTESIAN_POINT ( 'NONE',  ( -20.41555747623162986, 10.08642000971038399, 0.000000000000000000 ) ) ;
#373 = APPROVAL_PERSON_ORGANIZATION ( #393, #258, #173 ) ;
#374 = CARTESIAN_POINT ( 'NONE',  ( -2.350963207782573656E-34, -5.114143690451132726E-17, 0.000000000000000000 ) ) ;
#375 = DIRECTION ( 'NONE',  ( 4.596983092540343816E-18, 1.000000000000000000, -0.000000000000000000 ) ) ;
#376 = PERSON_AND_ORGANIZATION ( #232, #143 ) ;
#377 = DIRECTION ( 'NONE',  ( 0.000000000000000000, 0.000000000000000000, 1.000000000000000000 ) ) ;
#378 = AXIS2_PLACEMENT_3D ( 'NONE', #328, #137, #256 ) ;
#379 = ADVANCED_FACE ( 'NONE', ( #230 ), #8, .T. ) ;
#380 = CARTESIAN_POINT ( 'NONE',  ( 20.24999999999999645, 6.373354130383251714, 2.479909768273389906E-15 ) ) ;
#381 = DIRECTION ( 'NONE',  ( 4.596983092540343816E-18, 1.000000000000000000, -0.000000000000000000 ) ) ;
#382 = AXIS2_PLACEMENT_3D ( 'NONE', #160, #133, #45 ) ;
#383 = DIRECTION ( 'NONE',  ( 4.596983092540343816E-18, 1.000000000000000000, -0.000000000000000000 ) ) ;
#384 = CARTESIAN_POINT ( 'NONE',  ( 4.114813245135107131E-15, -16.60000000000000497, 0.000000000000000000 ) ) ;
#385 = ORIENTED_EDGE ( 'NONE', *, *, #366, .T. ) ;
#386 = DIRECTION ( 'NONE',  ( -1.224646799147353207E-16, 5.629680630014033300E-34, 1.000000000000000000 ) ) ;
#387 = ORIENTED_EDGE ( 'NONE', *, *, #248, .F. ) ;
#388 = EDGE_LOOP ( 'NONE', ( #367, #301, #325, #205 ) ) ;
#389 = CARTESIAN_POINT ( 'NONE',  ( 4.114813245135107131E-15, -16.60000000000000497, 0.000000000000000000 ) ) ;
#390 = ADVANCED_FACE ( 'NONE', ( #106 ), #168, .T. ) ;
#391 = PERSON_AND_ORGANIZATION_ROLE ( 'creator' ) ;
#392 = VERTEX_POINT ( 'NONE', #262 ) ;
#393 = PERSON_AND_ORGANIZATION ( #232, #143 ) ;
#394 =( GEOMETRIC_REPRESENTATION_CONTEXT ( 3 ) GLOBAL_UNCERTAINTY_ASSIGNED_CONTEXT ( ( #39 ) ) GLOBAL_UNIT_ASSIGNED_CONTEXT ( ( #296, #100, #1 ) ) REPRESENTATION_CONTEXT ( 'NONE', 'WORKASPACE' ) );
#395 = CARTESIAN_POINT ( 'NONE',  ( 17.57499999999999929, 6.373354130383316551, 2.152316749501473463E-15 ) ) ;
#396 = CARTESIAN_POINT ( 'NONE',  ( 9.700159321441510337E-16, 10.08642000971038399, 0.000000000000000000 ) ) ;
#397 = DIRECTION ( 'NONE',  ( -1.000000000000000000, 0.000000000000000000, 0.000000000000000000 ) ) ;
#398 = AXIS2_PLACEMENT_3D ( 'NONE', #288, #5, #163 ) ;
#399 = ORIENTED_EDGE ( 'NONE', *, *, #243, .T. ) ;
#400 = AXIS2_PLACEMENT_3D ( 'NONE', #396, #240, #397 ) ;
#401 = CIRCLE ( 'NONE', #65, 19.20034572169413778 ) ;
#402 = ORIENTED_EDGE ( 'NONE', *, *, #145, .T. ) ;
#403 = DIRECTION ( 'NONE',  ( 0.000000000000000000, 0.000000000000000000, 1.000000000000000000 ) ) ;
#404 = DIRECTION ( 'NONE',  ( -1.000000000000000000, 4.596983092540343816E-18, 0.000000000000000000 ) ) ;
#405 = APPLICATION_PROTOCOL_DEFINITION ( 'international standard', 'config_control_design', 1994, #293 ) ;
#406 = CARTESIAN_POINT ( 'NONE',  ( -20.24999999999998224, 2817.965330118411202, 0.000000000000000000 ) ) ;
#407 = VECTOR ( 'NONE', #375, 1000.000000000000000 ) ;
#408 = EDGE_CURVE ( 'NONE', #74, #77, #4, .T. ) ;
#409 = DIRECTION ( 'NONE',  ( -1.224646799147353207E-16, 5.629680630014033300E-34, 1.000000000000000000 ) ) ;
#410 = DIRECTION ( 'NONE',  ( -1.000000000000000000, 0.000000000000000000, 0.000000000000000000 ) ) ;
#411 = FACE_OUTER_BOUND ( 'NONE', #198, .T. ) ;
ENDSEC;
END-ISO-10303-21;
