ISO-10303-21;
HEADER;
/* Generated by software containing ST-Developer
 * from STEP Tools, Inc. (www.steptools.com) 
 */

FILE_DESCRIPTION(
/* description */ (''),
/* implementation_level */ '2;1');

FILE_NAME(
/* name */ 
'C:\\Users\\cad\\Desktop\\Zeichnungen neu von Ralph\\3D_Kupplung_R666-
M\\3D_R666-M-DN10_17113900.stp',
/* time_stamp */ '2021-06-24T07:46:27+02:00',
/* author */ ('cad'),
/* organization */ (''),
/* preprocessor_version */ 'ST-DEVELOPER v18.1',
/* originating_system */ 'Autodesk Inventor 2022',
/* authorisation */ '');

FILE_SCHEMA (('AUTOMOTIVE_DESIGN { 1 0 10303 214 3 1 1 }'));
ENDSEC;

DATA;
#10=MECHANICAL_DESIGN_GEOMETRIC_PRESENTATION_REPRESENTATION('',(#13),#510);
#11=SHAPE_REPRESENTATION_RELATIONSHIP('SRR','None',#517,#12);
#12=ADVANCED_BREP_SHAPE_REPRESENTATION('',(#14),#509);
#13=STYLED_ITEM('',(#526),#14);
#14=MANIFOLD_SOLID_BREP('Volumenk\X\F6rper2',#278);
#15=CYLINDRICAL_SURFACE('',#311,7.475);
#16=CYLINDRICAL_SURFACE('',#318,6.15);
#17=FACE_BOUND('',#54,.T.);
#18=FACE_BOUND('',#59,.T.);
#19=FACE_BOUND('',#63,.T.);
#20=TOROIDAL_SURFACE('',#305,6.675,0.8);
#21=PLANE('',#302);
#22=PLANE('',#303);
#23=PLANE('',#304);
#24=PLANE('',#309);
#25=PLANE('',#320);
#26=PLANE('',#324);
#27=PLANE('',#325);
#28=PLANE('',#326);
#29=PLANE('',#327);
#30=FACE_OUTER_BOUND('',#47,.T.);
#31=FACE_OUTER_BOUND('',#48,.T.);
#32=FACE_OUTER_BOUND('',#49,.T.);
#33=FACE_OUTER_BOUND('',#50,.T.);
#34=FACE_OUTER_BOUND('',#51,.T.);
#35=FACE_OUTER_BOUND('',#52,.T.);
#36=FACE_OUTER_BOUND('',#53,.T.);
#37=FACE_OUTER_BOUND('',#55,.T.);
#38=FACE_OUTER_BOUND('',#56,.T.);
#39=FACE_OUTER_BOUND('',#57,.T.);
#40=FACE_OUTER_BOUND('',#58,.T.);
#41=FACE_OUTER_BOUND('',#60,.T.);
#42=FACE_OUTER_BOUND('',#61,.T.);
#43=FACE_OUTER_BOUND('',#62,.T.);
#44=FACE_OUTER_BOUND('',#64,.T.);
#45=FACE_OUTER_BOUND('',#65,.T.);
#46=FACE_OUTER_BOUND('',#66,.T.);
#47=EDGE_LOOP('',(#180,#181,#182,#183,#184,#185,#186,#187,#188));
#48=EDGE_LOOP('',(#189,#190,#191,#192,#193,#194,#195,#196,#197));
#49=EDGE_LOOP('',(#198,#199,#200,#201));
#50=EDGE_LOOP('',(#202,#203,#204,#205));
#51=EDGE_LOOP('',(#206,#207,#208,#209));
#52=EDGE_LOOP('',(#210,#211,#212,#213));
#53=EDGE_LOOP('',(#214));
#54=EDGE_LOOP('',(#215));
#55=EDGE_LOOP('',(#216,#217,#218,#219,#220));
#56=EDGE_LOOP('',(#221,#222,#223,#224,#225));
#57=EDGE_LOOP('',(#226,#227,#228,#229,#230));
#58=EDGE_LOOP('',(#231));
#59=EDGE_LOOP('',(#232));
#60=EDGE_LOOP('',(#233,#234,#235,#236));
#61=EDGE_LOOP('',(#237,#238,#239,#240,#241));
#62=EDGE_LOOP('',(#242));
#63=EDGE_LOOP('',(#243));
#64=EDGE_LOOP('',(#244,#245,#246,#247));
#65=EDGE_LOOP('',(#248,#249,#250,#251));
#66=EDGE_LOOP('',(#252,#253,#254,#255));
#67=(
BOUNDED_CURVE()
B_SPLINE_CURVE(2,(#410,#411,#412),.UNSPECIFIED.,.F.,.F.)
B_SPLINE_CURVE_WITH_KNOTS((3,3),(0.346607964118581,1.96068527081677),
 .UNSPECIFIED.)
CURVE()
GEOMETRIC_REPRESENTATION_ITEM()
RATIONAL_B_SPLINE_CURVE((1.08779430873781,1.25607667394544,1.08779430873781))
REPRESENTATION_ITEM('')
);
#68=(
BOUNDED_CURVE()
B_SPLINE_CURVE(2,(#414,#415,#416),.UNSPECIFIED.,.F.,.F.)
B_SPLINE_CURVE_WITH_KNOTS((3,3),(0.346607964118581,1.96068527081677),
 .UNSPECIFIED.)
CURVE()
GEOMETRIC_REPRESENTATION_ITEM()
RATIONAL_B_SPLINE_CURVE((1.08779430873781,1.25607667394544,1.08779430873781))
REPRESENTATION_ITEM('')
);
#69=(
BOUNDED_CURVE()
B_SPLINE_CURVE(2,(#418,#419,#420),.UNSPECIFIED.,.F.,.F.)
B_SPLINE_CURVE_WITH_KNOTS((3,3),(0.346607964118582,1.96068527081677),
 .UNSPECIFIED.)
CURVE()
GEOMETRIC_REPRESENTATION_ITEM()
RATIONAL_B_SPLINE_CURVE((1.08779430873781,1.25607667394544,1.08779430873781))
REPRESENTATION_ITEM('')
);
#70=(
BOUNDED_CURVE()
B_SPLINE_CURVE(2,(#422,#423,#424),.UNSPECIFIED.,.F.,.F.)
B_SPLINE_CURVE_WITH_KNOTS((3,3),(0.346607964118581,1.96068527081677),
 .UNSPECIFIED.)
CURVE()
GEOMETRIC_REPRESENTATION_ITEM()
RATIONAL_B_SPLINE_CURVE((1.08779430873781,1.25607667394544,1.08779430873781))
REPRESENTATION_ITEM('')
);
#71=(
BOUNDED_CURVE()
B_SPLINE_CURVE(2,(#426,#427,#428),.UNSPECIFIED.,.F.,.F.)
B_SPLINE_CURVE_WITH_KNOTS((3,3),(0.346607964118582,1.96068527081677),
 .UNSPECIFIED.)
CURVE()
GEOMETRIC_REPRESENTATION_ITEM()
RATIONAL_B_SPLINE_CURVE((1.08779430873781,1.25607667394544,1.08779430873781))
REPRESENTATION_ITEM('')
);
#72=(
BOUNDED_CURVE()
B_SPLINE_CURVE(2,(#429,#430,#431),.UNSPECIFIED.,.F.,.F.)
B_SPLINE_CURVE_WITH_KNOTS((3,3),(0.346607964118581,1.96068527081677),
 .UNSPECIFIED.)
CURVE()
GEOMETRIC_REPRESENTATION_ITEM()
RATIONAL_B_SPLINE_CURVE((1.08779430873781,1.25607667394544,1.08779430873781))
REPRESENTATION_ITEM('')
);
#73=(
BOUNDED_CURVE()
B_SPLINE_CURVE(2,(#435,#436,#437),.UNSPECIFIED.,.F.,.F.)
B_SPLINE_CURVE_WITH_KNOTS((3,3),(0.228982017513511,1.77709752487099),
 .UNSPECIFIED.)
CURVE()
GEOMETRIC_REPRESENTATION_ITEM()
RATIONAL_B_SPLINE_CURVE((1.05544512900594,1.21872305869292,1.05544512900594))
REPRESENTATION_ITEM('')
);
#74=(
BOUNDED_CURVE()
B_SPLINE_CURVE(2,(#439,#440,#441),.UNSPECIFIED.,.F.,.F.)
B_SPLINE_CURVE_WITH_KNOTS((3,3),(0.228982017513511,1.77709752487099),
 .UNSPECIFIED.)
CURVE()
GEOMETRIC_REPRESENTATION_ITEM()
RATIONAL_B_SPLINE_CURVE((1.05544512900594,1.21872305869292,1.05544512900594))
REPRESENTATION_ITEM('')
);
#75=(
BOUNDED_CURVE()
B_SPLINE_CURVE(2,(#443,#444,#445),.UNSPECIFIED.,.F.,.F.)
B_SPLINE_CURVE_WITH_KNOTS((3,3),(0.228982017513511,1.77709752487099),
 .UNSPECIFIED.)
CURVE()
GEOMETRIC_REPRESENTATION_ITEM()
RATIONAL_B_SPLINE_CURVE((1.05544512900594,1.21872305869292,1.05544512900594))
REPRESENTATION_ITEM('')
);
#76=(
BOUNDED_CURVE()
B_SPLINE_CURVE(2,(#447,#448,#449),.UNSPECIFIED.,.F.,.F.)
B_SPLINE_CURVE_WITH_KNOTS((3,3),(0.228982017513512,1.77709752487099),
 .UNSPECIFIED.)
CURVE()
GEOMETRIC_REPRESENTATION_ITEM()
RATIONAL_B_SPLINE_CURVE((1.05544512900594,1.21872305869292,1.05544512900594))
REPRESENTATION_ITEM('')
);
#77=(
BOUNDED_CURVE()
B_SPLINE_CURVE(2,(#454,#455,#456),.UNSPECIFIED.,.F.,.F.)
B_SPLINE_CURVE_WITH_KNOTS((3,3),(0.228982017513511,1.77709752487099),
 .UNSPECIFIED.)
CURVE()
GEOMETRIC_REPRESENTATION_ITEM()
RATIONAL_B_SPLINE_CURVE((1.05544512900594,1.21872305869292,1.05544512900594))
REPRESENTATION_ITEM('')
);
#78=(
BOUNDED_CURVE()
B_SPLINE_CURVE(2,(#457,#458,#459),.UNSPECIFIED.,.F.,.F.)
B_SPLINE_CURVE_WITH_KNOTS((3,3),(0.228982017513511,1.77709752487099),
 .UNSPECIFIED.)
CURVE()
GEOMETRIC_REPRESENTATION_ITEM()
RATIONAL_B_SPLINE_CURVE((1.05544512900594,1.21872305869292,1.05544512900594))
REPRESENTATION_ITEM('')
);
#79=LINE('',#408,#92);
#80=LINE('',#451,#93);
#81=LINE('',#461,#94);
#82=LINE('',#462,#95);
#83=LINE('',#464,#96);
#84=LINE('',#466,#97);
#85=LINE('',#481,#98);
#86=LINE('',#486,#99);
#87=LINE('',#492,#100);
#88=LINE('',#496,#101);
#89=LINE('',#500,#102);
#90=LINE('',#503,#103);
#91=LINE('',#505,#104);
#92=VECTOR('',#334,13.9382258960995);
#93=VECTOR('',#337,13.5200091261931);
#94=VECTOR('',#342,10.);
#95=VECTOR('',#343,10.);
#96=VECTOR('',#346,10.);
#97=VECTOR('',#349,10.);
#98=VECTOR('',#368,7.475);
#99=VECTOR('',#373,6.3);
#100=VECTOR('',#380,6.15);
#101=VECTOR('',#387,6.3);
#102=VECTOR('',#392,8.025);
#103=VECTOR('',#397,10.);
#104=VECTOR('',#400,10.);
#105=CIRCLE('',#299,11.75);
#106=CIRCLE('',#301,11.75);
#107=CIRCLE('',#306,7.475);
#108=CIRCLE('',#307,0.8);
#109=CIRCLE('',#308,6.675);
#110=CIRCLE('',#310,6.45);
#111=CIRCLE('',#312,7.475);
#112=CIRCLE('',#313,7.475);
#113=CIRCLE('',#315,6.45);
#114=CIRCLE('',#316,6.15);
#115=CIRCLE('',#317,6.15);
#116=CIRCLE('',#319,6.15);
#117=CIRCLE('',#323,8.575);
#118=VERTEX_POINT('',#405);
#119=VERTEX_POINT('',#407);
#120=VERTEX_POINT('',#409);
#121=VERTEX_POINT('',#413);
#122=VERTEX_POINT('',#417);
#123=VERTEX_POINT('',#421);
#124=VERTEX_POINT('',#425);
#125=VERTEX_POINT('',#433);
#126=VERTEX_POINT('',#434);
#127=VERTEX_POINT('',#438);
#128=VERTEX_POINT('',#442);
#129=VERTEX_POINT('',#446);
#130=VERTEX_POINT('',#450);
#131=VERTEX_POINT('',#453);
#132=VERTEX_POINT('',#468);
#133=VERTEX_POINT('',#470);
#134=VERTEX_POINT('',#474);
#135=VERTEX_POINT('',#477);
#136=VERTEX_POINT('',#478);
#137=VERTEX_POINT('',#483);
#138=VERTEX_POINT('',#485);
#139=VERTEX_POINT('',#487);
#140=VERTEX_POINT('',#491);
#141=VERTEX_POINT('',#498);
#142=EDGE_CURVE('',#118,#118,#105,.T.);
#143=EDGE_CURVE('',#118,#119,#79,.T.);
#144=EDGE_CURVE('',#120,#119,#67,.T.);
#145=EDGE_CURVE('',#121,#120,#68,.T.);
#146=EDGE_CURVE('',#122,#121,#69,.T.);
#147=EDGE_CURVE('',#123,#122,#70,.T.);
#148=EDGE_CURVE('',#124,#123,#71,.T.);
#149=EDGE_CURVE('',#119,#124,#72,.T.);
#150=EDGE_CURVE('',#125,#126,#73,.T.);
#151=EDGE_CURVE('',#127,#125,#74,.T.);
#152=EDGE_CURVE('',#128,#127,#75,.T.);
#153=EDGE_CURVE('',#129,#128,#76,.T.);
#154=EDGE_CURVE('',#129,#130,#80,.T.);
#155=EDGE_CURVE('',#130,#130,#106,.T.);
#156=EDGE_CURVE('',#131,#129,#77,.T.);
#157=EDGE_CURVE('',#126,#131,#78,.T.);
#158=EDGE_CURVE('',#131,#124,#81,.T.);
#159=EDGE_CURVE('',#129,#119,#82,.T.);
#160=EDGE_CURVE('',#128,#120,#83,.T.);
#161=EDGE_CURVE('',#126,#123,#84,.T.);
#162=EDGE_CURVE('',#132,#132,#107,.T.);
#163=EDGE_CURVE('',#132,#133,#108,.T.);
#164=EDGE_CURVE('',#133,#133,#109,.T.);
#165=EDGE_CURVE('',#134,#134,#110,.T.);
#166=EDGE_CURVE('',#135,#136,#111,.T.);
#167=EDGE_CURVE('',#136,#135,#112,.T.);
#168=EDGE_CURVE('',#136,#132,#85,.T.);
#169=EDGE_CURVE('',#137,#137,#113,.T.);
#170=EDGE_CURVE('',#137,#138,#86,.T.);
#171=EDGE_CURVE('',#138,#139,#114,.T.);
#172=EDGE_CURVE('',#139,#138,#115,.T.);
#173=EDGE_CURVE('',#139,#140,#87,.T.);
#174=EDGE_CURVE('',#140,#140,#116,.T.);
#175=EDGE_CURVE('',#134,#140,#88,.T.);
#176=EDGE_CURVE('',#141,#141,#117,.T.);
#177=EDGE_CURVE('',#141,#135,#89,.T.);
#178=EDGE_CURVE('',#125,#122,#90,.T.);
#179=EDGE_CURVE('',#127,#121,#91,.T.);
#180=ORIENTED_EDGE('',*,*,#142,.F.);
#181=ORIENTED_EDGE('',*,*,#143,.T.);
#182=ORIENTED_EDGE('',*,*,#144,.F.);
#183=ORIENTED_EDGE('',*,*,#145,.F.);
#184=ORIENTED_EDGE('',*,*,#146,.F.);
#185=ORIENTED_EDGE('',*,*,#147,.F.);
#186=ORIENTED_EDGE('',*,*,#148,.F.);
#187=ORIENTED_EDGE('',*,*,#149,.F.);
#188=ORIENTED_EDGE('',*,*,#143,.F.);
#189=ORIENTED_EDGE('',*,*,#150,.F.);
#190=ORIENTED_EDGE('',*,*,#151,.F.);
#191=ORIENTED_EDGE('',*,*,#152,.F.);
#192=ORIENTED_EDGE('',*,*,#153,.F.);
#193=ORIENTED_EDGE('',*,*,#154,.T.);
#194=ORIENTED_EDGE('',*,*,#155,.F.);
#195=ORIENTED_EDGE('',*,*,#154,.F.);
#196=ORIENTED_EDGE('',*,*,#156,.F.);
#197=ORIENTED_EDGE('',*,*,#157,.F.);
#198=ORIENTED_EDGE('',*,*,#149,.T.);
#199=ORIENTED_EDGE('',*,*,#158,.F.);
#200=ORIENTED_EDGE('',*,*,#156,.T.);
#201=ORIENTED_EDGE('',*,*,#159,.T.);
#202=ORIENTED_EDGE('',*,*,#144,.T.);
#203=ORIENTED_EDGE('',*,*,#159,.F.);
#204=ORIENTED_EDGE('',*,*,#153,.T.);
#205=ORIENTED_EDGE('',*,*,#160,.T.);
#206=ORIENTED_EDGE('',*,*,#148,.T.);
#207=ORIENTED_EDGE('',*,*,#161,.F.);
#208=ORIENTED_EDGE('',*,*,#157,.T.);
#209=ORIENTED_EDGE('',*,*,#158,.T.);
#210=ORIENTED_EDGE('',*,*,#162,.T.);
#211=ORIENTED_EDGE('',*,*,#163,.T.);
#212=ORIENTED_EDGE('',*,*,#164,.T.);
#213=ORIENTED_EDGE('',*,*,#163,.F.);
#214=ORIENTED_EDGE('',*,*,#164,.F.);
#215=ORIENTED_EDGE('',*,*,#165,.F.);
#216=ORIENTED_EDGE('',*,*,#166,.F.);
#217=ORIENTED_EDGE('',*,*,#167,.F.);
#218=ORIENTED_EDGE('',*,*,#168,.T.);
#219=ORIENTED_EDGE('',*,*,#162,.F.);
#220=ORIENTED_EDGE('',*,*,#168,.F.);
#221=ORIENTED_EDGE('',*,*,#169,.T.);
#222=ORIENTED_EDGE('',*,*,#170,.T.);
#223=ORIENTED_EDGE('',*,*,#171,.T.);
#224=ORIENTED_EDGE('',*,*,#172,.T.);
#225=ORIENTED_EDGE('',*,*,#170,.F.);
#226=ORIENTED_EDGE('',*,*,#171,.F.);
#227=ORIENTED_EDGE('',*,*,#172,.F.);
#228=ORIENTED_EDGE('',*,*,#173,.T.);
#229=ORIENTED_EDGE('',*,*,#174,.F.);
#230=ORIENTED_EDGE('',*,*,#173,.F.);
#231=ORIENTED_EDGE('',*,*,#155,.T.);
#232=ORIENTED_EDGE('',*,*,#169,.F.);
#233=ORIENTED_EDGE('',*,*,#165,.T.);
#234=ORIENTED_EDGE('',*,*,#175,.T.);
#235=ORIENTED_EDGE('',*,*,#174,.T.);
#236=ORIENTED_EDGE('',*,*,#175,.F.);
#237=ORIENTED_EDGE('',*,*,#176,.T.);
#238=ORIENTED_EDGE('',*,*,#177,.T.);
#239=ORIENTED_EDGE('',*,*,#166,.T.);
#240=ORIENTED_EDGE('',*,*,#167,.T.);
#241=ORIENTED_EDGE('',*,*,#177,.F.);
#242=ORIENTED_EDGE('',*,*,#142,.T.);
#243=ORIENTED_EDGE('',*,*,#176,.F.);
#244=ORIENTED_EDGE('',*,*,#147,.T.);
#245=ORIENTED_EDGE('',*,*,#178,.F.);
#246=ORIENTED_EDGE('',*,*,#150,.T.);
#247=ORIENTED_EDGE('',*,*,#161,.T.);
#248=ORIENTED_EDGE('',*,*,#146,.T.);
#249=ORIENTED_EDGE('',*,*,#179,.F.);
#250=ORIENTED_EDGE('',*,*,#151,.T.);
#251=ORIENTED_EDGE('',*,*,#178,.T.);
#252=ORIENTED_EDGE('',*,*,#145,.T.);
#253=ORIENTED_EDGE('',*,*,#160,.F.);
#254=ORIENTED_EDGE('',*,*,#152,.T.);
#255=ORIENTED_EDGE('',*,*,#179,.T.);
#256=CONICAL_SURFACE('',#298,13.9382258960995,0.785398163397448);
#257=CONICAL_SURFACE('',#300,13.5200091261931,0.785398163397449);
#258=CONICAL_SURFACE('',#314,6.3,0.785398163397448);
#259=CONICAL_SURFACE('',#321,6.3,0.785398163397448);
#260=CONICAL_SURFACE('',#322,8.025,0.785398163397448);
#261=ADVANCED_FACE('',(#30),#256,.T.);
#262=ADVANCED_FACE('',(#31),#257,.T.);
#263=ADVANCED_FACE('',(#32),#21,.T.);
#264=ADVANCED_FACE('',(#33),#22,.T.);
#265=ADVANCED_FACE('',(#34),#23,.T.);
#266=ADVANCED_FACE('',(#35),#20,.F.);
#267=ADVANCED_FACE('',(#36,#17),#24,.T.);
#268=ADVANCED_FACE('',(#37),#15,.F.);
#269=ADVANCED_FACE('',(#38),#258,.F.);
#270=ADVANCED_FACE('',(#39),#16,.F.);
#271=ADVANCED_FACE('',(#40,#18),#25,.F.);
#272=ADVANCED_FACE('',(#41),#259,.F.);
#273=ADVANCED_FACE('',(#42),#260,.F.);
#274=ADVANCED_FACE('',(#43,#19),#26,.T.);
#275=ADVANCED_FACE('',(#44),#27,.T.);
#276=ADVANCED_FACE('',(#45),#28,.T.);
#277=ADVANCED_FACE('',(#46),#29,.T.);
#278=CLOSED_SHELL('',(#261,#262,#263,#264,#265,#266,#267,#268,#269,#270,
#271,#272,#273,#274,#275,#276,#277));
#279=DERIVED_UNIT_ELEMENT(#281,1.);
#280=DERIVED_UNIT_ELEMENT(#512,-3.);
#281=(
MASS_UNIT()
NAMED_UNIT(*)
SI_UNIT($,.GRAM.)
);
#282=DERIVED_UNIT((#279,#280));
#283=MEASURE_REPRESENTATION_ITEM('density measure',
POSITIVE_RATIO_MEASURE(1.),#282);
#284=PROPERTY_DEFINITION_REPRESENTATION(#289,#286);
#285=PROPERTY_DEFINITION_REPRESENTATION(#290,#287);
#286=REPRESENTATION('material name',(#288),#509);
#287=REPRESENTATION('density',(#283),#509);
#288=DESCRIPTIVE_REPRESENTATION_ITEM('Generisch','Generisch');
#289=PROPERTY_DEFINITION('material property','material name',#519);
#290=PROPERTY_DEFINITION('material property','density of part',#519);
#291=DATE_TIME_ROLE('creation_date');
#292=APPLIED_DATE_AND_TIME_ASSIGNMENT(#293,#291,(#519));
#293=DATE_AND_TIME(#294,#295);
#294=CALENDAR_DATE(2021,24,6);
#295=LOCAL_TIME(0,0,0.,#296);
#296=COORDINATED_UNIVERSAL_TIME_OFFSET(0,0,.BEHIND.);
#297=AXIS2_PLACEMENT_3D('placement',#403,#328,#329);
#298=AXIS2_PLACEMENT_3D('',#404,#330,#331);
#299=AXIS2_PLACEMENT_3D('',#406,#332,#333);
#300=AXIS2_PLACEMENT_3D('',#432,#335,#336);
#301=AXIS2_PLACEMENT_3D('',#452,#338,#339);
#302=AXIS2_PLACEMENT_3D('',#460,#340,#341);
#303=AXIS2_PLACEMENT_3D('',#463,#344,#345);
#304=AXIS2_PLACEMENT_3D('',#465,#347,#348);
#305=AXIS2_PLACEMENT_3D('',#467,#350,#351);
#306=AXIS2_PLACEMENT_3D('',#469,#352,#353);
#307=AXIS2_PLACEMENT_3D('',#471,#354,#355);
#308=AXIS2_PLACEMENT_3D('',#472,#356,#357);
#309=AXIS2_PLACEMENT_3D('',#473,#358,#359);
#310=AXIS2_PLACEMENT_3D('',#475,#360,#361);
#311=AXIS2_PLACEMENT_3D('',#476,#362,#363);
#312=AXIS2_PLACEMENT_3D('',#479,#364,#365);
#313=AXIS2_PLACEMENT_3D('',#480,#366,#367);
#314=AXIS2_PLACEMENT_3D('',#482,#369,#370);
#315=AXIS2_PLACEMENT_3D('',#484,#371,#372);
#316=AXIS2_PLACEMENT_3D('',#488,#374,#375);
#317=AXIS2_PLACEMENT_3D('',#489,#376,#377);
#318=AXIS2_PLACEMENT_3D('',#490,#378,#379);
#319=AXIS2_PLACEMENT_3D('',#493,#381,#382);
#320=AXIS2_PLACEMENT_3D('',#494,#383,#384);
#321=AXIS2_PLACEMENT_3D('',#495,#385,#386);
#322=AXIS2_PLACEMENT_3D('',#497,#388,#389);
#323=AXIS2_PLACEMENT_3D('',#499,#390,#391);
#324=AXIS2_PLACEMENT_3D('',#501,#393,#394);
#325=AXIS2_PLACEMENT_3D('',#502,#395,#396);
#326=AXIS2_PLACEMENT_3D('',#504,#398,#399);
#327=AXIS2_PLACEMENT_3D('',#506,#401,#402);
#328=DIRECTION('axis',(0.,0.,1.));
#329=DIRECTION('refdir',(1.,0.,0.));
#330=DIRECTION('center_axis',(-1.,0.,0.));
#331=DIRECTION('ref_axis',(0.,1.,0.));
#332=DIRECTION('center_axis',(1.,0.,0.));
#333=DIRECTION('ref_axis',(0.,1.,0.));
#334=DIRECTION('',(-0.707106781186548,-0.707106781186548,8.65956056235493E-17));
#335=DIRECTION('center_axis',(1.,0.,0.));
#336=DIRECTION('ref_axis',(0.,1.,0.));
#337=DIRECTION('',(-0.707106781186547,0.707106781186548,-8.65956056235494E-17));
#338=DIRECTION('center_axis',(-1.,0.,0.));
#339=DIRECTION('ref_axis',(0.,1.,0.));
#340=DIRECTION('center_axis',(0.,-0.866025403784439,0.5));
#341=DIRECTION('ref_axis',(0.,-0.5,-0.866025403784439));
#342=DIRECTION('',(1.,0.,0.));
#343=DIRECTION('',(1.,0.,0.));
#344=DIRECTION('center_axis',(0.,-0.866025403784439,-0.5));
#345=DIRECTION('ref_axis',(0.,0.5,-0.866025403784439));
#346=DIRECTION('',(1.,0.,0.));
#347=DIRECTION('center_axis',(0.,1.60246890531964E-16,1.));
#348=DIRECTION('ref_axis',(0.,-1.,1.60246890531964E-16));
#349=DIRECTION('',(1.,0.,0.));
#350=DIRECTION('center_axis',(1.,0.,0.));
#351=DIRECTION('ref_axis',(0.,0.,-1.));
#352=DIRECTION('center_axis',(1.,0.,0.));
#353=DIRECTION('ref_axis',(0.,1.22464679914735E-16,1.));
#354=DIRECTION('center_axis',(0.,-1.,-1.22464679914735E-16));
#355=DIRECTION('ref_axis',(0.,-1.22464679914735E-16,1.));
#356=DIRECTION('center_axis',(-1.,0.,0.));
#357=DIRECTION('ref_axis',(0.,1.22464679914735E-16,1.));
#358=DIRECTION('center_axis',(1.,0.,0.));
#359=DIRECTION('ref_axis',(0.,0.,-1.));
#360=DIRECTION('center_axis',(1.,0.,0.));
#361=DIRECTION('ref_axis',(0.,0.,1.));
#362=DIRECTION('center_axis',(1.,0.,0.));
#363=DIRECTION('ref_axis',(0.,0.,-1.));
#364=DIRECTION('center_axis',(-1.,0.,0.));
#365=DIRECTION('ref_axis',(0.,0.,1.));
#366=DIRECTION('center_axis',(-1.,0.,0.));
#367=DIRECTION('ref_axis',(0.,0.,1.));
#368=DIRECTION('',(-1.,0.,0.));
#369=DIRECTION('center_axis',(-1.,0.,0.));
#370=DIRECTION('ref_axis',(0.,0.,-1.));
#371=DIRECTION('center_axis',(-1.,0.,0.));
#372=DIRECTION('ref_axis',(0.,0.,-1.));
#373=DIRECTION('',(0.707106781186547,-8.65956056235493E-17,-0.707106781186547));
#374=DIRECTION('center_axis',(1.,0.,0.));
#375=DIRECTION('ref_axis',(0.,0.,-1.));
#376=DIRECTION('center_axis',(1.,0.,0.));
#377=DIRECTION('ref_axis',(0.,0.,-1.));
#378=DIRECTION('center_axis',(-1.,0.,0.));
#379=DIRECTION('ref_axis',(0.,0.,1.));
#380=DIRECTION('',(1.,0.,0.));
#381=DIRECTION('center_axis',(-1.,0.,0.));
#382=DIRECTION('ref_axis',(0.,0.,1.));
#383=DIRECTION('center_axis',(1.,0.,0.));
#384=DIRECTION('ref_axis',(0.,0.,-1.));
#385=DIRECTION('center_axis',(1.,0.,0.));
#386=DIRECTION('ref_axis',(0.,0.,1.));
#387=DIRECTION('',(-0.707106781186547,-8.65956056235493E-17,0.707106781186547));
#388=DIRECTION('center_axis',(1.,0.,0.));
#389=DIRECTION('ref_axis',(0.,0.,1.));
#390=DIRECTION('center_axis',(1.,0.,0.));
#391=DIRECTION('ref_axis',(0.,0.,1.));
#392=DIRECTION('',(-0.707106781186548,-8.65956056235493E-17,0.707106781186547));
#393=DIRECTION('center_axis',(1.,0.,0.));
#394=DIRECTION('ref_axis',(0.,0.,-1.));
#395=DIRECTION('center_axis',(0.,0.866025403784439,0.5));
#396=DIRECTION('ref_axis',(0.,-0.5,0.866025403784439));
#397=DIRECTION('',(1.,0.,0.));
#398=DIRECTION('center_axis',(0.,0.866025403784439,-0.5));
#399=DIRECTION('ref_axis',(0.,0.5,0.866025403784439));
#400=DIRECTION('',(1.,0.,0.));
#401=DIRECTION('center_axis',(0.,0.,-1.));
#402=DIRECTION('ref_axis',(0.,1.,0.));
#403=CARTESIAN_POINT('',(0.,0.,0.));
#404=CARTESIAN_POINT('Origin',(11.3117741039005,0.,0.));
#405=CARTESIAN_POINT('',(13.5,-11.75,1.43895998899814E-15));
#406=CARTESIAN_POINT('Origin',(13.5,0.,0.));
#407=CARTESIAN_POINT('',(11.393593539449,-13.856406460551,2.39069059430182E-16));
#408=CARTESIAN_POINT('',(11.3117741039005,-13.9382258960995,1.7069403729451E-15));
#409=CARTESIAN_POINT('',(11.393593539449,-6.92820323027551,-12.));
#410=CARTESIAN_POINT('Ctrl Pts',(11.393593539449,-6.92820323027551,-12.));
#411=CARTESIAN_POINT('Ctrl Pts',(14.8576951545867,-10.3923048454133,-5.99999999999999));
#412=CARTESIAN_POINT('Ctrl Pts',(11.393593539449,-13.856406460551,2.39069059430182E-16));
#413=CARTESIAN_POINT('',(11.393593539449,6.92820323027551,-12.));
#414=CARTESIAN_POINT('Ctrl Pts',(11.393593539449,6.92820323027551,-12.));
#415=CARTESIAN_POINT('Ctrl Pts',(14.8576951545867,0.,-12.));
#416=CARTESIAN_POINT('Ctrl Pts',(11.393593539449,-6.92820323027551,-12.));
#417=CARTESIAN_POINT('',(11.393593539449,13.856406460551,-4.20122702942493E-15));
#418=CARTESIAN_POINT('Ctrl Pts',(11.393593539449,13.856406460551,-4.20122702942493E-15));
#419=CARTESIAN_POINT('Ctrl Pts',(14.8576951545867,10.3923048454133,-6.));
#420=CARTESIAN_POINT('Ctrl Pts',(11.393593539449,6.92820323027551,-12.));
#421=CARTESIAN_POINT('',(11.393593539449,6.92820323027552,12.));
#422=CARTESIAN_POINT('Ctrl Pts',(11.393593539449,6.92820323027552,12.));
#423=CARTESIAN_POINT('Ctrl Pts',(14.8576951545867,10.3923048454133,5.99999999999999));
#424=CARTESIAN_POINT('Ctrl Pts',(11.393593539449,13.856406460551,-4.20122702942493E-15));
#425=CARTESIAN_POINT('',(11.393593539449,-6.9282032302755,12.));
#426=CARTESIAN_POINT('Ctrl Pts',(11.393593539449,-6.9282032302755,12.));
#427=CARTESIAN_POINT('Ctrl Pts',(14.8576951545867,-1.11022302462516E-15,
12.));
#428=CARTESIAN_POINT('Ctrl Pts',(11.393593539449,6.92820323027552,12.));
#429=CARTESIAN_POINT('Ctrl Pts',(11.393593539449,-13.856406460551,2.39069059430182E-16));
#430=CARTESIAN_POINT('Ctrl Pts',(14.8576951545867,-10.3923048454133,6.));
#431=CARTESIAN_POINT('Ctrl Pts',(11.393593539449,-6.9282032302755,12.));
#432=CARTESIAN_POINT('Origin',(1.77000912619313,0.,0.));
#433=CARTESIAN_POINT('',(2.10640646055102,13.856406460551,-4.20122702942493E-15));
#434=CARTESIAN_POINT('',(2.10640646055102,6.92820323027551,12.));
#435=CARTESIAN_POINT('Ctrl Pts',(2.10640646055102,13.856406460551,-4.20122702942493E-15));
#436=CARTESIAN_POINT('Ctrl Pts',(-1.35769515458673,10.3923048454133,6.));
#437=CARTESIAN_POINT('Ctrl Pts',(2.10640646055102,6.92820323027551,12.));
#438=CARTESIAN_POINT('',(2.10640646055102,6.92820323027551,-12.));
#439=CARTESIAN_POINT('Ctrl Pts',(2.10640646055102,6.92820323027551,-12.));
#440=CARTESIAN_POINT('Ctrl Pts',(-1.35769515458673,10.3923048454133,-6.00000000000001));
#441=CARTESIAN_POINT('Ctrl Pts',(2.10640646055102,13.856406460551,-4.20122702942493E-15));
#442=CARTESIAN_POINT('',(2.10640646055102,-6.92820323027551,-12.));
#443=CARTESIAN_POINT('Ctrl Pts',(2.10640646055102,-6.92820323027551,-12.));
#444=CARTESIAN_POINT('Ctrl Pts',(-1.35769515458674,1.11022302462516E-15,
-12.));
#445=CARTESIAN_POINT('Ctrl Pts',(2.10640646055102,6.92820323027551,-12.));
#446=CARTESIAN_POINT('',(2.10640646055101,-13.856406460551,2.39069059430182E-16));
#447=CARTESIAN_POINT('Ctrl Pts',(2.10640646055101,-13.856406460551,2.39069059430182E-16));
#448=CARTESIAN_POINT('Ctrl Pts',(-1.35769515458674,-10.3923048454133,-6.));
#449=CARTESIAN_POINT('Ctrl Pts',(2.10640646055102,-6.92820323027551,-12.));
#450=CARTESIAN_POINT('',(2.77555756156289E-16,-11.75,1.43895998899814E-15));
#451=CARTESIAN_POINT('',(1.77000912619313,-13.5200091261931,1.65572359008354E-15));
#452=CARTESIAN_POINT('Origin',(0.,0.,0.));
#453=CARTESIAN_POINT('',(2.10640646055101,-6.9282032302755,12.));
#454=CARTESIAN_POINT('Ctrl Pts',(2.10640646055101,-6.9282032302755,12.));
#455=CARTESIAN_POINT('Ctrl Pts',(-1.35769515458673,-10.3923048454133,5.99999999999999));
#456=CARTESIAN_POINT('Ctrl Pts',(2.10640646055101,-13.856406460551,2.39069059430182E-16));
#457=CARTESIAN_POINT('Ctrl Pts',(2.10640646055102,6.92820323027551,12.));
#458=CARTESIAN_POINT('Ctrl Pts',(-1.35769515458674,6.66133814775094E-15,
12.));
#459=CARTESIAN_POINT('Ctrl Pts',(2.10640646055101,-6.9282032302755,12.));
#460=CARTESIAN_POINT('Origin',(0.,-6.9282032302755,12.));
#461=CARTESIAN_POINT('',(0.,-6.9282032302755,12.));
#462=CARTESIAN_POINT('',(0.,-13.856406460551,2.39069059430182E-16));
#463=CARTESIAN_POINT('Origin',(0.,-13.856406460551,1.79301794572637E-16));
#464=CARTESIAN_POINT('',(0.,-6.92820323027551,-12.));
#465=CARTESIAN_POINT('Origin',(0.,6.92820323027551,12.));
#466=CARTESIAN_POINT('',(0.,6.92820323027551,12.));
#467=CARTESIAN_POINT('Origin',(3.3,0.,0.));
#468=CARTESIAN_POINT('',(3.3,-9.15423482362646E-16,7.475));
#469=CARTESIAN_POINT('Origin',(3.3,0.,0.));
#470=CARTESIAN_POINT('',(2.5,-8.17451738430858E-16,6.675));
#471=CARTESIAN_POINT('Origin',(3.3,-8.17451738430858E-16,6.675));
#472=CARTESIAN_POINT('Origin',(2.5,0.,0.));
#473=CARTESIAN_POINT('Origin',(2.5,0.,0.));
#474=CARTESIAN_POINT('',(2.5,7.89897185450043E-16,-6.45));
#475=CARTESIAN_POINT('Origin',(2.5,0.,0.));
#476=CARTESIAN_POINT('Origin',(8.,0.,0.));
#477=CARTESIAN_POINT('',(12.4,-9.15423482362646E-16,-7.475));
#478=CARTESIAN_POINT('',(12.4,-9.15423482362646E-16,7.475));
#479=CARTESIAN_POINT('Origin',(12.4,0.,0.));
#480=CARTESIAN_POINT('Origin',(12.4,0.,0.));
#481=CARTESIAN_POINT('',(8.,-9.15423482362646E-16,7.475));
#482=CARTESIAN_POINT('Origin',(0.15,0.,0.));
#483=CARTESIAN_POINT('',(0.,7.89897185450043E-16,6.45));
#484=CARTESIAN_POINT('Origin',(0.,0.,0.));
#485=CARTESIAN_POINT('',(0.3,-7.53157781475622E-16,6.15));
#486=CARTESIAN_POINT('',(0.15,7.71527483462833E-16,6.3));
#487=CARTESIAN_POINT('',(0.3,-7.53157781475622E-16,-6.15));
#488=CARTESIAN_POINT('Origin',(0.3,0.,0.));
#489=CARTESIAN_POINT('Origin',(0.3,0.,0.));
#490=CARTESIAN_POINT('Origin',(5.5,0.,0.));
#491=CARTESIAN_POINT('',(2.2,-7.53157781475622E-16,-6.15));
#492=CARTESIAN_POINT('',(5.5,-7.53157781475622E-16,-6.15));
#493=CARTESIAN_POINT('Origin',(2.2,0.,0.));
#494=CARTESIAN_POINT('Origin',(0.,3.33066907387547E-15,-1.11022302462516E-15));
#495=CARTESIAN_POINT('Origin',(2.35,0.,0.));
#496=CARTESIAN_POINT('',(2.35,7.71527483462833E-16,-6.3));
#497=CARTESIAN_POINT('Origin',(12.95,0.,0.));
#498=CARTESIAN_POINT('',(13.5,1.05013463026886E-15,-8.575));
#499=CARTESIAN_POINT('Origin',(13.5,0.,0.));
#500=CARTESIAN_POINT('',(12.95,9.82779056315751E-16,-8.025));
#501=CARTESIAN_POINT('Origin',(13.5,3.33066907387547E-15,0.));
#502=CARTESIAN_POINT('Origin',(0.,13.856406460551,-4.26114329669386E-15));
#503=CARTESIAN_POINT('',(0.,13.856406460551,-4.20122702942493E-15));
#504=CARTESIAN_POINT('Origin',(0.,6.92820323027551,-12.));
#505=CARTESIAN_POINT('',(0.,6.92820323027551,-12.));
#506=CARTESIAN_POINT('Origin',(0.,-6.92820323027551,-12.));
#507=UNCERTAINTY_MEASURE_WITH_UNIT(LENGTH_MEASURE(0.01),#511,
'DISTANCE_ACCURACY_VALUE',
'Maximum model space distance between geometric entities at asserted c
onnectivities');
#508=UNCERTAINTY_MEASURE_WITH_UNIT(LENGTH_MEASURE(0.01),#511,
'DISTANCE_ACCURACY_VALUE',
'Maximum model space distance between geometric entities at asserted c
onnectivities');
#509=(
GEOMETRIC_REPRESENTATION_CONTEXT(3)
GLOBAL_UNCERTAINTY_ASSIGNED_CONTEXT((#507))
GLOBAL_UNIT_ASSIGNED_CONTEXT((#511,#513,#514))
REPRESENTATION_CONTEXT('','3D')
);
#510=(
GEOMETRIC_REPRESENTATION_CONTEXT(3)
GLOBAL_UNCERTAINTY_ASSIGNED_CONTEXT((#508))
GLOBAL_UNIT_ASSIGNED_CONTEXT((#511,#513,#514))
REPRESENTATION_CONTEXT('','3D')
);
#511=(
LENGTH_UNIT()
NAMED_UNIT(*)
SI_UNIT(.MILLI.,.METRE.)
);
#512=(
LENGTH_UNIT()
NAMED_UNIT(*)
SI_UNIT(.CENTI.,.METRE.)
);
#513=(
NAMED_UNIT(*)
PLANE_ANGLE_UNIT()
SI_UNIT($,.RADIAN.)
);
#514=(
NAMED_UNIT(*)
SI_UNIT($,.STERADIAN.)
SOLID_ANGLE_UNIT()
);
#515=SHAPE_DEFINITION_REPRESENTATION(#516,#517);
#516=PRODUCT_DEFINITION_SHAPE('',$,#519);
#517=SHAPE_REPRESENTATION('',(#297),#509);
#518=PRODUCT_DEFINITION_CONTEXT('part definition',#523,'design');
#519=PRODUCT_DEFINITION('3D_R666-M-DN10_17113900',
'3D_R666-M-DN10_17113900',#520,#518);
#520=PRODUCT_DEFINITION_FORMATION('',$,#525);
#521=PRODUCT_RELATED_PRODUCT_CATEGORY('3D_R666-M-DN10_17113900',
'3D_R666-M-DN10_17113900',(#525));
#522=APPLICATION_PROTOCOL_DEFINITION('international standard',
'automotive_design',2009,#523);
#523=APPLICATION_CONTEXT(
'Core Data for Automotive Mechanical Design Process');
#524=PRODUCT_CONTEXT('part definition',#523,'mechanical');
#525=PRODUCT('3D_R666-M-DN10_17113900','3D_R666-M-DN10_17113900',$,(#524));
#526=PRESENTATION_STYLE_ASSIGNMENT((#527));
#527=SURFACE_STYLE_USAGE(.BOTH.,#530);
#528=SURFACE_STYLE_RENDERING_WITH_PROPERTIES($,#534,(#529));
#529=SURFACE_STYLE_TRANSPARENT(0.);
#530=SURFACE_SIDE_STYLE('',(#531,#528));
#531=SURFACE_STYLE_FILL_AREA(#532);
#532=FILL_AREA_STYLE('',(#533));
#533=FILL_AREA_STYLE_COLOUR('',#534);
#534=COLOUR_RGB('',0.749019607843137,0.749019607843137,0.749019607843137);
ENDSEC;
END-ISO-10303-21;
