ISO-10303-21;
HEADER;
FILE_DESCRIPTION (( 'STEP AP203' ),
    '1' );
FILE_NAME ('3D_GR1442_70 x 4_188741190.STEP',
    '2024-10-22T15:38:25',
    ( '' ),
    ( '' ),
    'SwSTEP 2.0',
    'SolidWorks 2023',
    '' );
FILE_SCHEMA (( 'CONFIG_CONTROL_DESIGN' ));
ENDSEC;

DATA;
#1 = CARTESIAN_POINT ( 'NONE',  ( 0.000000000000000000, 0.000000000000000000, 34.75000000000000711 ) ) ;
#2 = DIRECTION ( 'NONE',  ( 0.000000000000000000, 0.000000000000000000, 1.000000000000000000 ) ) ;
#3 = AXIS2_PLACEMENT_3D ( 'NONE', #278, #167, #2 ) ;
#4 = CARTESIAN_POINT ( 'NONE',  ( 4.270955712026395392E-15, 0.000000000000000000, -34.75000000000000711 ) ) ;
#5 = ORIENTED_EDGE ( 'NONE', *, *, #20, .T. ) ;
#6 = PRODUCT_RELATED_PRODUCT_CATEGORY ( 'detail', '', ( #39 ) ) ;
#7 = COORDINATED_UNIVERSAL_TIME_OFFSET ( 1, 0, .AHEAD. ) ;
#8 = APPROVAL_PERSON_ORGANIZATION ( #196, #170, #29 ) ;
#9 = CALENDAR_DATE ( 2024, 22, 10 ) ;
#10 = APPROVAL_ROLE ( '' ) ;
#11 = ADVANCED_FACE ( 'NONE', ( #162 ), #142, .T. ) ;
#12 = CIRCLE ( 'NONE', #22, 0.2500000000000002220 ) ;
#13 = VERTEX_POINT ( 'NONE', #138 ) ;
#14 = ORIENTED_EDGE ( 'NONE', *, *, #20, .F. ) ;
#15 = ORIENTED_EDGE ( 'NONE', *, *, #210, .F. ) ;
#16 = CARTESIAN_POINT ( 'NONE',  ( 4.286263797015737285E-15, 0.2500000000000002220, 35.00000000000000711 ) ) ;
#17 = DIRECTION ( 'NONE',  ( 0.000000000000000000, 0.000000000000000000, 1.000000000000000000 ) ) ;
#18 = LOCAL_TIME ( 17, 38, 25.00000000000000000, #46 ) ;
#19 = DIRECTION ( 'NONE',  ( 0.000000000000000000, 0.000000000000000000, 1.000000000000000000 ) ) ;
#20 = EDGE_CURVE ( 'NONE', #107, #13, #114, .T. ) ;
#21 = CARTESIAN_POINT ( 'NONE',  ( 4.255647627037053498E-15, 0.2500000000000002220, -34.75000000000000711 ) ) ;
#22 = AXIS2_PLACEMENT_3D ( 'NONE', #165, #140, #75 ) ;
#23 = LINE ( 'NONE', #61, #121 ) ;
#24 = CALENDAR_DATE ( 2024, 22, 10 ) ;
#25 = APPROVAL_STATUS ( 'not_yet_approved' ) ;
#26 = AXIS2_PLACEMENT_3D ( 'NONE', #117, #225, #270 ) ;
#27 = APPROVAL_PERSON_ORGANIZATION ( #198, #150, #132 ) ;
#28 = PERSON_AND_ORGANIZATION_ROLE ( 'classification_officer' ) ;
#29 = APPROVAL_ROLE ( '' ) ;
#30 = VERTEX_POINT ( 'NONE', #72 ) ;
#31 = AXIS2_PLACEMENT_3D ( 'NONE', #227, #204, #274 ) ;
#32 = AXIS2_PLACEMENT_3D ( 'NONE', #230, #38, #17 ) ;
#33 = CARTESIAN_POINT ( 'NONE',  ( 0.000000000000000000, 4.000000000000000000, 0.000000000000000000 ) ) ;
#34 = DIRECTION ( 'NONE',  ( 0.000000000000000000, 0.000000000000000000, 1.000000000000000000 ) ) ;
#35 = CIRCLE ( 'NONE', #32, 0.2500000000000002220 ) ;
#36 = ADVANCED_FACE ( 'NONE', ( #160 ), #277, .T. ) ;
#37 = DIRECTION ( 'NONE',  ( 0.000000000000000000, 0.000000000000000000, 1.000000000000000000 ) ) ;
#38 = DIRECTION ( 'NONE',  ( -1.000000000000000000, 0.000000000000000000, 0.000000000000000000 ) ) ;
#39 = PRODUCT ( '3D_GR1442_70 x 4_188741190', '3D_GR1442_70 x 4_188741190', '', ( #152 ) ) ;
#40 = CC_DESIGN_APPROVAL ( #170, ( #251 ) ) ;
#41 = CARTESIAN_POINT ( 'NONE',  ( 0.000000000000000000, 4.000000000000000000, 0.000000000000000000 ) ) ;
#42 = ORIENTED_EDGE ( 'NONE', *, *, #141, .F. ) ;
#43 = CARTESIAN_POINT ( 'NONE',  ( 0.000000000000000000, 3.750000000000000000, 34.75000000000000711 ) ) ;
#44 = CIRCLE ( 'NONE', #188, 35.00000000000000711 ) ;
#45 = DATE_AND_TIME ( #176, #161 ) ;
#46 = COORDINATED_UNIVERSAL_TIME_OFFSET ( 1, 0, .AHEAD. ) ;
#47 = DATE_AND_TIME ( #136, #18 ) ;
#48 = LOCAL_TIME ( 17, 38, 25.00000000000000000, #155 ) ;
#49 = PERSON_AND_ORGANIZATION ( #130, #224 ) ;
#50 = ORIENTED_EDGE ( 'NONE', *, *, #190, .T. ) ;
#51 = DIRECTION ( 'NONE',  ( -0.000000000000000000, -1.000000000000000000, -0.000000000000000000 ) ) ;
#52 = FACE_OUTER_BOUND ( 'NONE', #273, .T. ) ;
#53 = ORIENTED_EDGE ( 'NONE', *, *, #109, .F. ) ;
#54 = ORIENTED_EDGE ( 'NONE', *, *, #68, .F. ) ;
#55 = CIRCLE ( 'NONE', #100, 35.00000000000000711 ) ;
#56 = ORIENTED_EDGE ( 'NONE', *, *, #190, .F. ) ;
#57 = CARTESIAN_POINT ( 'NONE',  ( 0.000000000000000000, 3.750000000000000000, 0.000000000000000000 ) ) ;
#58 = ADVANCED_FACE ( 'NONE', ( #52 ), #253, .T. ) ;
#59 = CARTESIAN_POINT ( 'NONE',  ( 0.000000000000000000, 0.2500000000000002220, 0.000000000000000000 ) ) ;
#60 = DIRECTION ( 'NONE',  ( 0.000000000000000000, -0.000000000000000000, 1.000000000000000000 ) ) ;
#61 = CARTESIAN_POINT ( 'NONE',  ( 0.000000000000000000, 4.000000000000000000, -35.00000000000000711 ) ) ;
#62 = EDGE_LOOP ( 'NONE', ( #115, #50 ) ) ;
#63 = APPROVAL ( #25, 'UNSPECIFIED' ) ;
#64 = CARTESIAN_POINT ( 'NONE',  ( 0.000000000000000000, 0.2500000000000002220, 0.000000000000000000 ) ) ;
#65 = AXIS2_PLACEMENT_3D ( 'NONE', #111, #157, #86 ) ;
#66 = DATE_TIME_ROLE ( 'classification_date' ) ;
#67 = CALENDAR_DATE ( 2024, 22, 10 ) ;
#68 = EDGE_CURVE ( 'NONE', #13, #30, #12, .T. ) ;
#69 = APPROVAL_DATE_TIME ( #112, #63 ) ;
#70 = ADVANCED_FACE ( 'NONE', ( #96 ), #179, .T. ) ;
#71 = ORIENTED_EDGE ( 'NONE', *, *, #219, .T. ) ;
#72 = CARTESIAN_POINT ( 'NONE',  ( 4.270955712026395392E-15, 4.000000000000000000, -34.75000000000000711 ) ) ;
#73 = TOROIDAL_SURFACE ( 'NONE', #241, 34.75000000000000711, 0.2500000000000000000 ) ;
#74 = VERTEX_POINT ( 'NONE', #16 ) ;
#75 = DIRECTION ( 'NONE',  ( 1.224646799147349509E-16, 0.000000000000000000, -1.000000000000000000 ) ) ;
#76 = FACE_OUTER_BOUND ( 'NONE', #143, .T. ) ;
#77 = AXIS2_PLACEMENT_3D ( 'NONE', #101, #169, #173 ) ;
#78 = DIRECTION ( 'NONE',  ( 0.000000000000000000, 0.000000000000000000, 1.000000000000000000 ) ) ;
#79 = CARTESIAN_POINT ( 'NONE',  ( 0.000000000000000000, 0.2500000000000002220, 0.000000000000000000 ) ) ;
#80 = AXIS2_PLACEMENT_3D ( 'NONE', #269, #186, #275 ) ;
#81 = DIRECTION ( 'NONE',  ( 0.000000000000000000, 1.000000000000000000, 0.000000000000000000 ) ) ;
#82 = EDGE_CURVE ( 'NONE', #215, #74, #55, .T. ) ;
#83 = ORIENTED_EDGE ( 'NONE', *, *, #113, .T. ) ;
#84 = DIRECTION ( 'NONE',  ( 0.000000000000000000, 0.000000000000000000, 1.000000000000000000 ) ) ;
#85 = ORIENTED_EDGE ( 'NONE', *, *, #210, .T. ) ;
#86 = DIRECTION ( 'NONE',  ( 1.000000000000000000, 0.000000000000000000, 0.000000000000000000 ) ) ;
#87 = ORIENTED_EDGE ( 'NONE', *, *, #109, .T. ) ;
#88 = COORDINATED_UNIVERSAL_TIME_OFFSET ( 1, 0, .AHEAD. ) ;
#89 = APPROVAL_DATE_TIME ( #45, #170 ) ;
#90 = VERTEX_POINT ( 'NONE', #120 ) ;
#91 = CIRCLE ( 'NONE', #77, 34.75000000000000711 ) ;
#92 = EDGE_LOOP ( 'NONE', ( #159, #98, #158, #97 ) ) ;
#93 = ORIENTED_EDGE ( 'NONE', *, *, #113, .F. ) ;
#94 = CIRCLE ( 'NONE', #200, 0.2500000000000002220 ) ;
#95 = CC_DESIGN_APPROVAL ( #63, ( #197 ) ) ;
#96 = FACE_OUTER_BOUND ( 'NONE', #182, .T. ) ;
#97 = ORIENTED_EDGE ( 'NONE', *, *, #219, .F. ) ;
#98 = ORIENTED_EDGE ( 'NONE', *, *, #68, .T. ) ;
#99 = ADVANCED_FACE ( 'NONE', ( #76 ), #185, .T. ) ;
#100 = AXIS2_PLACEMENT_3D ( 'NONE', #207, #256, #34 ) ;
#101 = CARTESIAN_POINT ( 'NONE',  ( 0.000000000000000000, 0.000000000000000000, 0.000000000000000000 ) ) ;
#102 = FACE_OUTER_BOUND ( 'NONE', #202, .T. ) ;
#103 = APPLICATION_PROTOCOL_DEFINITION ( 'international standard', 'config_control_design', 1994, #245 ) ;
#104 = VECTOR ( 'NONE', #257, 1000.000000000000000 ) ;
#105 = CARTESIAN_POINT ( 'NONE',  ( 0.000000000000000000, 0.000000000000000000, 0.000000000000000000 ) ) ;
#106 = ADVANCED_BREP_SHAPE_REPRESENTATION ( '3D_GR1442_70 x 4_188741190', ( #168, #65 ), #148 ) ;
#107 = VERTEX_POINT ( 'NONE', #145 ) ;
#108 = APPROVAL_STATUS ( 'not_yet_approved' ) ;
#109 = EDGE_CURVE ( 'NONE', #201, #74, #35, .T. ) ;
#110 = PERSON_AND_ORGANIZATION ( #130, #224 ) ;
#111 = CARTESIAN_POINT ( 'NONE',  ( 0.000000000000000000, 0.000000000000000000, 0.000000000000000000 ) ) ;
#112 = DATE_AND_TIME ( #67, #48 ) ;
#113 = EDGE_CURVE ( 'NONE', #13, #215, #23, .T. ) ;
#114 = CIRCLE ( 'NONE', #26, 35.00000000000000711 ) ;
#115 = ORIENTED_EDGE ( 'NONE', *, *, #265, .T. ) ;
#116 = CIRCLE ( 'NONE', #214, 35.00000000000000711 ) ;
#117 = CARTESIAN_POINT ( 'NONE',  ( 0.000000000000000000, 3.750000000000000000, 0.000000000000000000 ) ) ;
#118 = CARTESIAN_POINT ( 'NONE',  ( 0.000000000000000000, 3.750000000000000000, 0.000000000000000000 ) ) ;
#119 = CC_DESIGN_PERSON_AND_ORGANIZATION_ASSIGNMENT ( #217, #134, ( #251 ) ) ;
#120 = CARTESIAN_POINT ( 'NONE',  ( 0.000000000000000000, 4.000000000000000000, 34.75000000000000711 ) ) ;
#121 = VECTOR ( 'NONE', #149, 1000.000000000000000 ) ;
#122 = DIRECTION ( 'NONE',  ( 0.000000000000000000, 0.000000000000000000, 1.000000000000000000 ) ) ;
#123 = DESIGN_CONTEXT ( 'detailed design', #237, 'design' ) ;
#124 = CARTESIAN_POINT ( 'NONE',  ( 4.286263797015737285E-15, 4.000000000000000000, 35.00000000000000711 ) ) ;
#125 = DIRECTION ( 'NONE',  ( 0.000000000000000000, 0.000000000000000000, 1.000000000000000000 ) ) ;
#126 = DIRECTION ( 'NONE',  ( -1.000000000000000000, 0.000000000000000000, 0.000000000000000000 ) ) ;
#127 = AXIS2_PLACEMENT_3D ( 'NONE', #118, #252, #122 ) ;
#128 =( LENGTH_UNIT ( ) NAMED_UNIT ( * ) SI_UNIT ( .MILLI., .METRE. ) );
#129 = SECURITY_CLASSIFICATION_LEVEL ( 'unclassified' ) ;
#130 = PERSON ( 'UNSPECIFIED', 'UNSPECIFIED', 'UNSPECIFIED', ('UNSPECIFIED'), ('UNSPECIFIED'), ('UNSPECIFIED') ) ;
#131 = EDGE_CURVE ( 'NONE', #249, #215, #94, .T. ) ;
#132 = APPROVAL_ROLE ( '' ) ;
#133 = CC_DESIGN_SECURITY_CLASSIFICATION ( #197, ( #251 ) ) ;
#134 = PERSON_AND_ORGANIZATION_ROLE ( 'design_supplier' ) ;
#135 = ADVANCED_FACE ( 'NONE', ( #102 ), #192, .T. ) ;
#136 = CALENDAR_DATE ( 2024, 22, 10 ) ;
#137 = ORIENTED_EDGE ( 'NONE', *, *, #262, .T. ) ;
#138 = CARTESIAN_POINT ( 'NONE',  ( 0.000000000000000000, 3.750000000000000000, -35.00000000000000711 ) ) ;
#139 = AXIS2_PLACEMENT_3D ( 'NONE', #211, #231, #60 ) ;
#140 = DIRECTION ( 'NONE',  ( 1.000000000000000000, -0.000000000000000000, 1.224646799147353207E-16 ) ) ;
#141 = EDGE_CURVE ( 'NONE', #74, #215, #116, .T. ) ;
#142 = CYLINDRICAL_SURFACE ( 'NONE', #259, 35.00000000000000711 ) ;
#143 = EDGE_LOOP ( 'NONE', ( #137, #85, #239, #93 ) ) ;
#144 = CIRCLE ( 'NONE', #228, 34.75000000000000711 ) ;
#145 = CARTESIAN_POINT ( 'NONE',  ( 4.286263797015737285E-15, 3.750000000000000000, 35.00000000000000711 ) ) ;
#146 = CARTESIAN_POINT ( 'NONE',  ( 0.000000000000000000, 0.2500000000000002220, -35.00000000000000711 ) ) ;
#147 = CLOSED_SHELL ( 'NONE', ( #36, #272, #99, #11, #58, #244, #135, #70 ) ) ;
#148 =( GEOMETRIC_REPRESENTATION_CONTEXT ( 3 ) GLOBAL_UNCERTAINTY_ASSIGNED_CONTEXT ( ( #203 ) ) GLOBAL_UNIT_ASSIGNED_CONTEXT ( ( #128, #216, #233 ) ) REPRESENTATION_CONTEXT ( 'NONE', 'WORKASPACE' ) );
#149 = DIRECTION ( 'NONE',  ( -0.000000000000000000, -1.000000000000000000, -0.000000000000000000 ) ) ;
#150 = APPROVAL ( #108, 'UNSPECIFIED' ) ;
#151 = ORIENTED_EDGE ( 'NONE', *, *, #247, .F. ) ;
#152 = MECHANICAL_CONTEXT ( 'NONE', #245, 'mechanical' ) ;
#153 = CC_DESIGN_DATE_AND_TIME_ASSIGNMENT ( #266, #66, ( #197 ) ) ;
#154 = DATE_AND_TIME ( #9, #209 ) ;
#155 = COORDINATED_UNIVERSAL_TIME_OFFSET ( 1, 0, .AHEAD. ) ;
#156 = COORDINATED_UNIVERSAL_TIME_OFFSET ( 1, 0, .AHEAD. ) ;
#157 = DIRECTION ( 'NONE',  ( 0.000000000000000000, 0.000000000000000000, 1.000000000000000000 ) ) ;
#158 = ORIENTED_EDGE ( 'NONE', *, *, #181, .F. ) ;
#159 = ORIENTED_EDGE ( 'NONE', *, *, #262, .F. ) ;
#160 = FACE_OUTER_BOUND ( 'NONE', #92, .T. ) ;
#161 = LOCAL_TIME ( 17, 38, 25.00000000000000000, #7 ) ;
#162 = FACE_OUTER_BOUND ( 'NONE', #250, .T. ) ;
#163 = ORIENTED_EDGE ( 'NONE', *, *, #131, .F. ) ;
#164 = CC_DESIGN_PERSON_AND_ORGANIZATION_ASSIGNMENT ( #218, #28, ( #197 ) ) ;
#165 = CARTESIAN_POINT ( 'NONE',  ( 4.255647627037053498E-15, 3.750000000000000000, -34.75000000000000711 ) ) ;
#166 = CIRCLE ( 'NONE', #3, 34.75000000000000711 ) ;
#167 = DIRECTION ( 'NONE',  ( 0.000000000000000000, 1.000000000000000000, 0.000000000000000000 ) ) ;
#168 = MANIFOLD_SOLID_BREP ( 'Verrundung1', #147 ) ;
#169 = DIRECTION ( 'NONE',  ( -0.000000000000000000, -1.000000000000000000, -0.000000000000000000 ) ) ;
#170 = APPROVAL ( #195, 'UNSPECIFIED' ) ;
#171 = AXIS2_PLACEMENT_3D ( 'NONE', #79, #81, #187 ) ;
#172 = PLANE ( 'NONE',  #139 ) ;
#173 = DIRECTION ( 'NONE',  ( 0.000000000000000000, 0.000000000000000000, 1.000000000000000000 ) ) ;
#174 = ORIENTED_EDGE ( 'NONE', *, *, #82, .T. ) ;
#175 = CC_DESIGN_APPROVAL ( #150, ( #212 ) ) ;
#176 = CALENDAR_DATE ( 2024, 22, 10 ) ;
#177 = PERSON_AND_ORGANIZATION ( #130, #224 ) ;
#178 = APPROVAL_DATE_TIME ( #47, #150 ) ;
#179 = TOROIDAL_SURFACE ( 'NONE', #234, 34.75000000000000711, 0.2500000000000000000 ) ;
#180 = ORIENTED_EDGE ( 'NONE', *, *, #131, .T. ) ;
#181 = EDGE_CURVE ( 'NONE', #90, #30, #166, .T. ) ;
#182 = EDGE_LOOP ( 'NONE', ( #54, #14, #71, #151 ) ) ;
#183 = ORIENTED_EDGE ( 'NONE', *, *, #181, .T. ) ;
#184 = LOCAL_TIME ( 17, 38, 25.00000000000000000, #88 ) ;
#185 = CYLINDRICAL_SURFACE ( 'NONE', #80, 35.00000000000000711 ) ;
#186 = DIRECTION ( 'NONE',  ( -0.000000000000000000, -1.000000000000000000, -0.000000000000000000 ) ) ;
#187 = DIRECTION ( 'NONE',  ( 0.000000000000000000, 0.000000000000000000, 1.000000000000000000 ) ) ;
#188 = AXIS2_PLACEMENT_3D ( 'NONE', #57, #189, #240 ) ;
#189 = DIRECTION ( 'NONE',  ( -0.000000000000000000, -1.000000000000000000, -0.000000000000000000 ) ) ;
#190 = EDGE_CURVE ( 'NONE', #249, #201, #144, .T. ) ;
#191 = DIRECTION ( 'NONE',  ( -0.000000000000000000, -1.000000000000000000, -0.000000000000000000 ) ) ;
#192 = TOROIDAL_SURFACE ( 'NONE', #171, 34.75000000000000711, 0.2500000000000000000 ) ;
#193 = DIRECTION ( 'NONE',  ( 0.000000000000000000, 0.000000000000000000, 1.000000000000000000 ) ) ;
#194 = EDGE_LOOP ( 'NONE', ( #56, #180, #42, #53 ) ) ;
#195 = APPROVAL_STATUS ( 'not_yet_approved' ) ;
#196 = PERSON_AND_ORGANIZATION ( #130, #224 ) ;
#197 = SECURITY_CLASSIFICATION ( '', '', #129 ) ;
#198 = PERSON_AND_ORGANIZATION ( #130, #224 ) ;
#199 = DATE_TIME_ROLE ( 'creation_date' ) ;
#200 = AXIS2_PLACEMENT_3D ( 'NONE', #21, #279, #258 ) ;
#201 = VERTEX_POINT ( 'NONE', #1 ) ;
#202 = EDGE_LOOP ( 'NONE', ( #163, #264, #87, #223 ) ) ;
#203 = UNCERTAINTY_MEASURE_WITH_UNIT (LENGTH_MEASURE( 1.000000000000000082E-05 ), #128, 'distance_accuracy_value', 'NONE');
#204 = DIRECTION ( 'NONE',  ( 0.000000000000000000, 1.000000000000000000, 0.000000000000000000 ) ) ;
#205 = CC_DESIGN_PERSON_AND_ORGANIZATION_ASSIGNMENT ( #242, #267, ( #251 ) ) ;
#206 = ORIENTED_EDGE ( 'NONE', *, *, #247, .T. ) ;
#207 = CARTESIAN_POINT ( 'NONE',  ( 0.000000000000000000, 0.2500000000000002220, 0.000000000000000000 ) ) ;
#208 = LINE ( 'NONE', #124, #104 ) ;
#209 = LOCAL_TIME ( 17, 38, 25.00000000000000000, #156 ) ;
#210 = EDGE_CURVE ( 'NONE', #107, #74, #208, .T. ) ;
#211 = CARTESIAN_POINT ( 'NONE',  ( 0.000000000000000000, 0.000000000000000000, 0.000000000000000000 ) ) ;
#212 = PRODUCT_DEFINITION ( 'UNKNOWN', '', #251, #123 ) ;
#213 = DIRECTION ( 'NONE',  ( 0.000000000000000000, 1.000000000000000000, 0.000000000000000000 ) ) ;
#214 = AXIS2_PLACEMENT_3D ( 'NONE', #59, #213, #78 ) ;
#215 = VERTEX_POINT ( 'NONE', #146 ) ;
#216 =( NAMED_UNIT ( * ) PLANE_ANGLE_UNIT ( ) SI_UNIT ( $, .RADIAN. ) );
#217 = PERSON_AND_ORGANIZATION ( #130, #224 ) ;
#218 = PERSON_AND_ORGANIZATION ( #130, #224 ) ;
#219 = EDGE_CURVE ( 'NONE', #107, #90, #271, .T. ) ;
#220 = APPROVAL_PERSON_ORGANIZATION ( #177, #63, #10 ) ;
#221 = PERSON_AND_ORGANIZATION_ROLE ( 'creator' ) ;
#222 = CC_DESIGN_DATE_AND_TIME_ASSIGNMENT ( #154, #199, ( #212 ) ) ;
#223 = ORIENTED_EDGE ( 'NONE', *, *, #82, .F. ) ;
#224 = ORGANIZATION ( 'UNSPECIFIED', 'UNSPECIFIED', '' ) ;
#225 = DIRECTION ( 'NONE',  ( -0.000000000000000000, -1.000000000000000000, -0.000000000000000000 ) ) ;
#226 = DIRECTION ( 'NONE',  ( 0.000000000000000000, 1.000000000000000000, 0.000000000000000000 ) ) ;
#227 = CARTESIAN_POINT ( 'NONE',  ( 0.000000000000000000, 4.000000000000000000, 0.000000000000000000 ) ) ;
#228 = AXIS2_PLACEMENT_3D ( 'NONE', #105, #191, #193 ) ;
#229 = DIRECTION ( 'NONE',  ( 0.000000000000000000, 0.000000000000000000, -1.000000000000000000 ) ) ;
#230 = CARTESIAN_POINT ( 'NONE',  ( 0.000000000000000000, 0.2500000000000002220, 34.75000000000000711 ) ) ;
#231 = DIRECTION ( 'NONE',  ( 0.000000000000000000, 1.000000000000000000, 0.000000000000000000 ) ) ;
#232 = PRODUCT_DEFINITION_SHAPE ( 'NONE', 'NONE',  #212 ) ;
#233 =( NAMED_UNIT ( * ) SI_UNIT ( $, .STERADIAN. ) SOLID_ANGLE_UNIT ( ) );
#234 = AXIS2_PLACEMENT_3D ( 'NONE', #254, #226, #37 ) ;
#235 = DIRECTION ( 'NONE',  ( 0.000000000000000000, 1.000000000000000000, 0.000000000000000000 ) ) ;
#236 = CC_DESIGN_PERSON_AND_ORGANIZATION_ASSIGNMENT ( #110, #243, ( #39 ) ) ;
#237 = APPLICATION_CONTEXT ( 'configuration controlled 3d designs of mechanical parts and assemblies' ) ;
#238 = DIRECTION ( 'NONE',  ( 0.000000000000000000, 1.000000000000000000, 0.000000000000000000 ) ) ;
#239 = ORIENTED_EDGE ( 'NONE', *, *, #141, .T. ) ;
#240 = DIRECTION ( 'NONE',  ( 0.000000000000000000, 0.000000000000000000, 1.000000000000000000 ) ) ;
#241 = AXIS2_PLACEMENT_3D ( 'NONE', #64, #235, #125 ) ;
#242 = PERSON_AND_ORGANIZATION ( #130, #224 ) ;
#243 = PERSON_AND_ORGANIZATION_ROLE ( 'design_owner' ) ;
#244 = ADVANCED_FACE ( 'NONE', ( #260 ), #172, .F. ) ;
#245 = APPLICATION_CONTEXT ( 'configuration controlled 3d designs of mechanical parts and assemblies' ) ;
#246 = SHAPE_DEFINITION_REPRESENTATION ( #232, #106 ) ;
#247 = EDGE_CURVE ( 'NONE', #30, #90, #268, .T. ) ;
#248 = APPLICATION_PROTOCOL_DEFINITION ( 'international standard', 'config_control_design', 1994, #237 ) ;
#249 = VERTEX_POINT ( 'NONE', #4 ) ;
#250 = EDGE_LOOP ( 'NONE', ( #15, #5, #83, #174 ) ) ;
#251 = PRODUCT_DEFINITION_FORMATION_WITH_SPECIFIED_SOURCE ( 'ANY', '', #39, .NOT_KNOWN. ) ;
#252 = DIRECTION ( 'NONE',  ( 0.000000000000000000, 1.000000000000000000, 0.000000000000000000 ) ) ;
#253 = PLANE ( 'NONE',  #31 ) ;
#254 = CARTESIAN_POINT ( 'NONE',  ( 0.000000000000000000, 3.750000000000000000, 0.000000000000000000 ) ) ;
#255 = AXIS2_PLACEMENT_3D ( 'NONE', #43, #126, #19 ) ;
#256 = DIRECTION ( 'NONE',  ( 0.000000000000000000, 1.000000000000000000, 0.000000000000000000 ) ) ;
#257 = DIRECTION ( 'NONE',  ( -0.000000000000000000, -1.000000000000000000, -0.000000000000000000 ) ) ;
#258 = DIRECTION ( 'NONE',  ( 1.224646799147349509E-16, 0.000000000000000000, -1.000000000000000000 ) ) ;
#259 = AXIS2_PLACEMENT_3D ( 'NONE', #33, #51, #229 ) ;
#260 = FACE_OUTER_BOUND ( 'NONE', #62, .T. ) ;
#261 = AXIS2_PLACEMENT_3D ( 'NONE', #41, #238, #84 ) ;
#262 = EDGE_CURVE ( 'NONE', #13, #107, #44, .T. ) ;
#263 = FACE_OUTER_BOUND ( 'NONE', #194, .T. ) ;
#264 = ORIENTED_EDGE ( 'NONE', *, *, #265, .F. ) ;
#265 = EDGE_CURVE ( 'NONE', #201, #249, #91, .T. ) ;
#266 = DATE_AND_TIME ( #24, #184 ) ;
#267 = PERSON_AND_ORGANIZATION_ROLE ( 'creator' ) ;
#268 = CIRCLE ( 'NONE', #261, 34.75000000000000711 ) ;
#269 = CARTESIAN_POINT ( 'NONE',  ( 0.000000000000000000, 4.000000000000000000, 0.000000000000000000 ) ) ;
#270 = DIRECTION ( 'NONE',  ( 0.000000000000000000, 0.000000000000000000, 1.000000000000000000 ) ) ;
#271 = CIRCLE ( 'NONE', #255, 0.2500000000000002220 ) ;
#272 = ADVANCED_FACE ( 'NONE', ( #263 ), #73, .T. ) ;
#273 = EDGE_LOOP ( 'NONE', ( #183, #206 ) ) ;
#274 = DIRECTION ( 'NONE',  ( 0.000000000000000000, -0.000000000000000000, 1.000000000000000000 ) ) ;
#275 = DIRECTION ( 'NONE',  ( 0.000000000000000000, 0.000000000000000000, -1.000000000000000000 ) ) ;
#276 = CC_DESIGN_PERSON_AND_ORGANIZATION_ASSIGNMENT ( #49, #221, ( #212 ) ) ;
#277 = TOROIDAL_SURFACE ( 'NONE', #127, 34.75000000000000711, 0.2500000000000000000 ) ;
#278 = CARTESIAN_POINT ( 'NONE',  ( 0.000000000000000000, 4.000000000000000000, 0.000000000000000000 ) ) ;
#279 = DIRECTION ( 'NONE',  ( 1.000000000000000000, -0.000000000000000000, 1.224646799147353207E-16 ) ) ;
ENDSEC;
END-ISO-10303-21;
