ISO-10303-21;
HEADER;
/* Generated by software containing ST-Developer
 * from STEP Tools, Inc. (www.steptools.com) 
 */

FILE_DESCRIPTION(
/* description */ (''),
/* implementation_level */ '2;1');

FILE_NAME(
/* name */ 
'R:\\Disegni3D_Area_Manager\\Inoxpres.step\\183_003INOXPRES\\183022003
_Inoxpres.stp',
/* time_stamp */ '2022-10-11T12:01:39+02:00',
/* author */ ('Vault'),
/* organization */ ('Raccorderie metalliche s.p.a. '),
/* preprocessor_version */ 'ST-DEVELOPER v18.1',
/* originating_system */ 'Autodesk Inventor 2020',
/* authorisation */ 'Raccorderie metalliche s.p.a. ');

FILE_SCHEMA (('AUTOMOTIVE_DESIGN { 1 0 10303 214 3 1 1 }'));
ENDSEC;

DATA;
#10=MECHANICAL_DESIGN_GEOMETRIC_PRESENTATION_REPRESENTATION('',(#13),#432);
#11=SHAPE_REPRESENTATION_RELATIONSHIP('SRR','None',#439,#12);
#12=ADVANCED_BREP_SHAPE_REPRESENTATION('',(#14),#431);
#13=STYLED_ITEM('',(#448),#14);
#14=MANIFOLD_SOLID_BREP('Solido1',#218);
#15=CYLINDRICAL_SURFACE('',#264,11.15);
#16=CYLINDRICAL_SURFACE('',#272,12.65);
#17=PLANE('',#263);
#18=PLANE('',#271);
#19=LINE('',#385,#24);
#20=LINE('',#394,#25);
#21=LINE('',#410,#26);
#22=LINE('',#418,#27);
#23=LINE('',#424,#28);
#24=VECTOR('',#305,11.4459248056454);
#25=VECTOR('',#316,11.4214199503333);
#26=VECTOR('',#335,11.15);
#27=VECTOR('',#344,12.15);
#28=VECTOR('',#353,12.65);
#29=CONICAL_SURFACE('',#250,11.4459248056454,0.00545961378339189);
#30=CONICAL_SURFACE('',#253,11.4214199503333,0.00545961378339273);
#31=CONICAL_SURFACE('',#267,12.15,0.785398163397448);
#32=FACE_OUTER_BOUND('',#44,.T.);
#33=FACE_OUTER_BOUND('',#45,.T.);
#34=FACE_OUTER_BOUND('',#46,.T.);
#35=FACE_OUTER_BOUND('',#47,.T.);
#36=FACE_OUTER_BOUND('',#48,.T.);
#37=FACE_OUTER_BOUND('',#49,.T.);
#38=FACE_OUTER_BOUND('',#50,.T.);
#39=FACE_OUTER_BOUND('',#51,.T.);
#40=FACE_OUTER_BOUND('',#52,.T.);
#41=FACE_OUTER_BOUND('',#53,.T.);
#42=FACE_OUTER_BOUND('',#54,.T.);
#43=FACE_OUTER_BOUND('',#55,.T.);
#44=EDGE_LOOP('',(#137,#138,#139,#140,#141,#142));
#45=EDGE_LOOP('',(#143,#144,#145,#146,#147,#148));
#46=EDGE_LOOP('',(#149,#150,#151,#152,#153,#154));
#47=EDGE_LOOP('',(#155,#156,#157,#158,#159,#160));
#48=EDGE_LOOP('',(#161,#162,#163,#164,#165,#166,#167));
#49=EDGE_LOOP('',(#168,#169));
#50=EDGE_LOOP('',(#170,#171,#172,#173,#174,#175,#176));
#51=EDGE_LOOP('',(#177,#178,#179,#180,#181));
#52=EDGE_LOOP('',(#182));
#53=EDGE_LOOP('',(#183,#184,#185,#186,#187,#188));
#54=EDGE_LOOP('',(#189,#190,#191,#192,#193,#194));
#55=EDGE_LOOP('',(#195,#196,#197,#198,#199,#200));
#56=CIRCLE('',#239,12.65);
#57=CIRCLE('',#240,12.65);
#58=CIRCLE('',#241,3.758848383613);
#59=CIRCLE('',#242,12.1268260055843);
#60=CIRCLE('',#243,12.1268260055843);
#61=CIRCLE('',#245,11.4418496112907);
#62=CIRCLE('',#246,11.4418496112907);
#63=CIRCLE('',#247,3.);
#64=CIRCLE('',#248,11.4248907082355);
#65=CIRCLE('',#249,11.4248907082355);
#66=CIRCLE('',#251,11.45);
#67=CIRCLE('',#252,11.45);
#68=CIRCLE('',#254,11.4179491924311);
#69=CIRCLE('',#255,11.4179491924311);
#70=CIRCLE('',#257,11.15);
#71=CIRCLE('',#258,11.15);
#72=CIRCLE('',#259,0.8);
#73=CIRCLE('',#260,10.35);
#74=CIRCLE('',#261,10.35);
#75=CIRCLE('',#262,11.15);
#76=CIRCLE('',#265,11.15);
#77=CIRCLE('',#266,11.15);
#78=CIRCLE('',#268,11.65);
#79=CIRCLE('',#269,12.65);
#80=CIRCLE('',#270,12.65);
#81=CIRCLE('',#274,2.);
#82=CIRCLE('',#276,0.6);
#83=VERTEX_POINT('',#364);
#84=VERTEX_POINT('',#365);
#85=VERTEX_POINT('',#368);
#86=VERTEX_POINT('',#370);
#87=VERTEX_POINT('',#374);
#88=VERTEX_POINT('',#375);
#89=VERTEX_POINT('',#378);
#90=VERTEX_POINT('',#380);
#91=VERTEX_POINT('',#384);
#92=VERTEX_POINT('',#386);
#93=VERTEX_POINT('',#390);
#94=VERTEX_POINT('',#391);
#95=VERTEX_POINT('',#396);
#96=VERTEX_POINT('',#397);
#97=VERTEX_POINT('',#399);
#98=VERTEX_POINT('',#401);
#99=VERTEX_POINT('',#403);
#100=VERTEX_POINT('',#409);
#101=VERTEX_POINT('',#411);
#102=VERTEX_POINT('',#415);
#103=VERTEX_POINT('',#417);
#104=VERTEX_POINT('',#419);
#105=EDGE_CURVE('',#83,#84,#56,.T.);
#106=EDGE_CURVE('',#84,#83,#57,.T.);
#107=EDGE_CURVE('',#84,#85,#58,.T.);
#108=EDGE_CURVE('',#85,#86,#59,.T.);
#109=EDGE_CURVE('',#86,#85,#60,.T.);
#110=EDGE_CURVE('',#87,#88,#61,.T.);
#111=EDGE_CURVE('',#88,#87,#62,.T.);
#112=EDGE_CURVE('',#88,#89,#63,.T.);
#113=EDGE_CURVE('',#89,#90,#64,.T.);
#114=EDGE_CURVE('',#90,#89,#65,.T.);
#115=EDGE_CURVE('',#88,#91,#19,.T.);
#116=EDGE_CURVE('',#92,#91,#66,.T.);
#117=EDGE_CURVE('',#91,#92,#67,.T.);
#118=EDGE_CURVE('',#93,#94,#68,.T.);
#119=EDGE_CURVE('',#94,#93,#69,.T.);
#120=EDGE_CURVE('',#94,#89,#20,.T.);
#121=EDGE_CURVE('',#95,#96,#70,.T.);
#122=EDGE_CURVE('',#96,#97,#71,.T.);
#123=EDGE_CURVE('',#97,#98,#72,.T.);
#124=EDGE_CURVE('',#98,#99,#73,.T.);
#125=EDGE_CURVE('',#99,#98,#74,.T.);
#126=EDGE_CURVE('',#97,#95,#75,.T.);
#127=EDGE_CURVE('',#96,#100,#21,.T.);
#128=EDGE_CURVE('',#101,#100,#76,.T.);
#129=EDGE_CURVE('',#100,#101,#77,.T.);
#130=EDGE_CURVE('',#102,#102,#78,.T.);
#131=EDGE_CURVE('',#102,#103,#22,.T.);
#132=EDGE_CURVE('',#103,#104,#79,.T.);
#133=EDGE_CURVE('',#104,#103,#80,.T.);
#134=EDGE_CURVE('',#104,#84,#23,.T.);
#135=EDGE_CURVE('',#94,#100,#81,.T.);
#136=EDGE_CURVE('',#85,#91,#82,.T.);
#137=ORIENTED_EDGE('',*,*,#105,.F.);
#138=ORIENTED_EDGE('',*,*,#106,.F.);
#139=ORIENTED_EDGE('',*,*,#107,.T.);
#140=ORIENTED_EDGE('',*,*,#108,.T.);
#141=ORIENTED_EDGE('',*,*,#109,.T.);
#142=ORIENTED_EDGE('',*,*,#107,.F.);
#143=ORIENTED_EDGE('',*,*,#110,.F.);
#144=ORIENTED_EDGE('',*,*,#111,.F.);
#145=ORIENTED_EDGE('',*,*,#112,.T.);
#146=ORIENTED_EDGE('',*,*,#113,.T.);
#147=ORIENTED_EDGE('',*,*,#114,.T.);
#148=ORIENTED_EDGE('',*,*,#112,.F.);
#149=ORIENTED_EDGE('',*,*,#110,.T.);
#150=ORIENTED_EDGE('',*,*,#115,.T.);
#151=ORIENTED_EDGE('',*,*,#116,.F.);
#152=ORIENTED_EDGE('',*,*,#117,.F.);
#153=ORIENTED_EDGE('',*,*,#115,.F.);
#154=ORIENTED_EDGE('',*,*,#111,.T.);
#155=ORIENTED_EDGE('',*,*,#118,.F.);
#156=ORIENTED_EDGE('',*,*,#119,.F.);
#157=ORIENTED_EDGE('',*,*,#120,.T.);
#158=ORIENTED_EDGE('',*,*,#114,.F.);
#159=ORIENTED_EDGE('',*,*,#113,.F.);
#160=ORIENTED_EDGE('',*,*,#120,.F.);
#161=ORIENTED_EDGE('',*,*,#121,.T.);
#162=ORIENTED_EDGE('',*,*,#122,.T.);
#163=ORIENTED_EDGE('',*,*,#123,.T.);
#164=ORIENTED_EDGE('',*,*,#124,.T.);
#165=ORIENTED_EDGE('',*,*,#125,.T.);
#166=ORIENTED_EDGE('',*,*,#123,.F.);
#167=ORIENTED_EDGE('',*,*,#126,.T.);
#168=ORIENTED_EDGE('',*,*,#125,.F.);
#169=ORIENTED_EDGE('',*,*,#124,.F.);
#170=ORIENTED_EDGE('',*,*,#121,.F.);
#171=ORIENTED_EDGE('',*,*,#126,.F.);
#172=ORIENTED_EDGE('',*,*,#122,.F.);
#173=ORIENTED_EDGE('',*,*,#127,.T.);
#174=ORIENTED_EDGE('',*,*,#128,.F.);
#175=ORIENTED_EDGE('',*,*,#129,.F.);
#176=ORIENTED_EDGE('',*,*,#127,.F.);
#177=ORIENTED_EDGE('',*,*,#130,.T.);
#178=ORIENTED_EDGE('',*,*,#131,.T.);
#179=ORIENTED_EDGE('',*,*,#132,.T.);
#180=ORIENTED_EDGE('',*,*,#133,.T.);
#181=ORIENTED_EDGE('',*,*,#131,.F.);
#182=ORIENTED_EDGE('',*,*,#130,.F.);
#183=ORIENTED_EDGE('',*,*,#132,.F.);
#184=ORIENTED_EDGE('',*,*,#133,.F.);
#185=ORIENTED_EDGE('',*,*,#134,.T.);
#186=ORIENTED_EDGE('',*,*,#106,.T.);
#187=ORIENTED_EDGE('',*,*,#105,.T.);
#188=ORIENTED_EDGE('',*,*,#134,.F.);
#189=ORIENTED_EDGE('',*,*,#118,.T.);
#190=ORIENTED_EDGE('',*,*,#135,.T.);
#191=ORIENTED_EDGE('',*,*,#129,.T.);
#192=ORIENTED_EDGE('',*,*,#128,.T.);
#193=ORIENTED_EDGE('',*,*,#135,.F.);
#194=ORIENTED_EDGE('',*,*,#119,.T.);
#195=ORIENTED_EDGE('',*,*,#109,.F.);
#196=ORIENTED_EDGE('',*,*,#108,.F.);
#197=ORIENTED_EDGE('',*,*,#136,.T.);
#198=ORIENTED_EDGE('',*,*,#117,.T.);
#199=ORIENTED_EDGE('',*,*,#116,.T.);
#200=ORIENTED_EDGE('',*,*,#136,.F.);
#201=TOROIDAL_SURFACE('',#238,11.6455304940679,3.758848383613);
#202=TOROIDAL_SURFACE('',#244,14.,3.);
#203=TOROIDAL_SURFACE('',#256,10.35,0.8);
#204=TOROIDAL_SURFACE('',#273,13.15,2.);
#205=TOROIDAL_SURFACE('',#275,12.05,0.6);
#206=ADVANCED_FACE('',(#32),#201,.T.);
#207=ADVANCED_FACE('',(#33),#202,.T.);
#208=ADVANCED_FACE('',(#34),#29,.F.);
#209=ADVANCED_FACE('',(#35),#30,.F.);
#210=ADVANCED_FACE('',(#36),#203,.F.);
#211=ADVANCED_FACE('',(#37),#17,.T.);
#212=ADVANCED_FACE('',(#38),#15,.F.);
#213=ADVANCED_FACE('',(#39),#31,.T.);
#214=ADVANCED_FACE('',(#40),#18,.T.);
#215=ADVANCED_FACE('',(#41),#16,.T.);
#216=ADVANCED_FACE('',(#42),#204,.T.);
#217=ADVANCED_FACE('',(#43),#205,.T.);
#218=CLOSED_SHELL('',(#206,#207,#208,#209,#210,#211,#212,#213,#214,#215,
#216,#217));
#219=DERIVED_UNIT_ELEMENT(#221,1.);
#220=DERIVED_UNIT_ELEMENT(#434,3.);
#221=(
MASS_UNIT()
NAMED_UNIT(*)
SI_UNIT($,.GRAM.)
);
#222=DERIVED_UNIT((#219,#220));
#223=MEASURE_REPRESENTATION_ITEM('density measure',
POSITIVE_RATIO_MEASURE(0.001),#222);
#224=PROPERTY_DEFINITION_REPRESENTATION(#229,#226);
#225=PROPERTY_DEFINITION_REPRESENTATION(#230,#227);
#226=REPRESENTATION('material name',(#228),#431);
#227=REPRESENTATION('density',(#223),#431);
#228=DESCRIPTIVE_REPRESENTATION_ITEM('_','_');
#229=PROPERTY_DEFINITION('material property','material name',#441);
#230=PROPERTY_DEFINITION('material property','density of part',#441);
#231=DATE_TIME_ROLE('creation_date');
#232=APPLIED_DATE_AND_TIME_ASSIGNMENT(#233,#231,(#441));
#233=DATE_AND_TIME(#234,#235);
#234=CALENDAR_DATE(2021,18,5);
#235=LOCAL_TIME(13,47,39.,#236);
#236=COORDINATED_UNIVERSAL_TIME_OFFSET(0,0,.BEHIND.);
#237=AXIS2_PLACEMENT_3D('placement',#362,#277,#278);
#238=AXIS2_PLACEMENT_3D('',#363,#279,#280);
#239=AXIS2_PLACEMENT_3D('',#366,#281,#282);
#240=AXIS2_PLACEMENT_3D('',#367,#283,#284);
#241=AXIS2_PLACEMENT_3D('',#369,#285,#286);
#242=AXIS2_PLACEMENT_3D('',#371,#287,#288);
#243=AXIS2_PLACEMENT_3D('',#372,#289,#290);
#244=AXIS2_PLACEMENT_3D('',#373,#291,#292);
#245=AXIS2_PLACEMENT_3D('',#376,#293,#294);
#246=AXIS2_PLACEMENT_3D('',#377,#295,#296);
#247=AXIS2_PLACEMENT_3D('',#379,#297,#298);
#248=AXIS2_PLACEMENT_3D('',#381,#299,#300);
#249=AXIS2_PLACEMENT_3D('',#382,#301,#302);
#250=AXIS2_PLACEMENT_3D('',#383,#303,#304);
#251=AXIS2_PLACEMENT_3D('',#387,#306,#307);
#252=AXIS2_PLACEMENT_3D('',#388,#308,#309);
#253=AXIS2_PLACEMENT_3D('',#389,#310,#311);
#254=AXIS2_PLACEMENT_3D('',#392,#312,#313);
#255=AXIS2_PLACEMENT_3D('',#393,#314,#315);
#256=AXIS2_PLACEMENT_3D('',#395,#317,#318);
#257=AXIS2_PLACEMENT_3D('',#398,#319,#320);
#258=AXIS2_PLACEMENT_3D('',#400,#321,#322);
#259=AXIS2_PLACEMENT_3D('',#402,#323,#324);
#260=AXIS2_PLACEMENT_3D('',#404,#325,#326);
#261=AXIS2_PLACEMENT_3D('',#405,#327,#328);
#262=AXIS2_PLACEMENT_3D('',#406,#329,#330);
#263=AXIS2_PLACEMENT_3D('',#407,#331,#332);
#264=AXIS2_PLACEMENT_3D('',#408,#333,#334);
#265=AXIS2_PLACEMENT_3D('',#412,#336,#337);
#266=AXIS2_PLACEMENT_3D('',#413,#338,#339);
#267=AXIS2_PLACEMENT_3D('',#414,#340,#341);
#268=AXIS2_PLACEMENT_3D('',#416,#342,#343);
#269=AXIS2_PLACEMENT_3D('',#420,#345,#346);
#270=AXIS2_PLACEMENT_3D('',#421,#347,#348);
#271=AXIS2_PLACEMENT_3D('',#422,#349,#350);
#272=AXIS2_PLACEMENT_3D('',#423,#351,#352);
#273=AXIS2_PLACEMENT_3D('',#425,#354,#355);
#274=AXIS2_PLACEMENT_3D('',#426,#356,#357);
#275=AXIS2_PLACEMENT_3D('',#427,#358,#359);
#276=AXIS2_PLACEMENT_3D('',#428,#360,#361);
#277=DIRECTION('axis',(0.,0.,1.));
#278=DIRECTION('refdir',(1.,0.,0.));
#279=DIRECTION('center_axis',(0.,1.,0.));
#280=DIRECTION('ref_axis',(0.,0.,1.));
#281=DIRECTION('center_axis',(0.,1.,0.));
#282=DIRECTION('ref_axis',(0.,0.,1.));
#283=DIRECTION('center_axis',(0.,1.,0.));
#284=DIRECTION('ref_axis',(0.,0.,1.));
#285=DIRECTION('center_axis',(-1.,0.,1.22464679914735E-16));
#286=DIRECTION('ref_axis',(-1.22464679914735E-16,0.,-1.));
#287=DIRECTION('center_axis',(0.,1.,0.));
#288=DIRECTION('ref_axis',(0.,2.68215814753069E-18,1.));
#289=DIRECTION('center_axis',(0.,1.,0.));
#290=DIRECTION('ref_axis',(0.,2.68215814753069E-18,1.));
#291=DIRECTION('center_axis',(0.,1.,0.));
#292=DIRECTION('ref_axis',(0.,0.,1.));
#293=DIRECTION('center_axis',(0.,1.,0.));
#294=DIRECTION('ref_axis',(1.,0.,0.));
#295=DIRECTION('center_axis',(0.,1.,0.));
#296=DIRECTION('ref_axis',(1.,0.,0.));
#297=DIRECTION('center_axis',(-1.,0.,1.22464679914735E-16));
#298=DIRECTION('ref_axis',(-1.22464679914735E-16,0.,-1.));
#299=DIRECTION('center_axis',(0.,1.,0.));
#300=DIRECTION('ref_axis',(1.,0.,0.));
#301=DIRECTION('center_axis',(0.,1.,0.));
#302=DIRECTION('ref_axis',(1.,0.,0.));
#303=DIRECTION('center_axis',(0.,-1.,0.));
#304=DIRECTION('ref_axis',(0.,0.,1.));
#305=DIRECTION('',(-6.68606532861151E-19,-0.999985096345688,-0.00545958666063277));
#306=DIRECTION('center_axis',(0.,1.,0.));
#307=DIRECTION('ref_axis',(0.,0.,1.));
#308=DIRECTION('center_axis',(0.,1.,0.));
#309=DIRECTION('ref_axis',(0.,0.,1.));
#310=DIRECTION('center_axis',(0.,-1.,0.));
#311=DIRECTION('ref_axis',(0.,0.,1.));
#312=DIRECTION('center_axis',(0.,-1.,0.));
#313=DIRECTION('ref_axis',(0.,0.,1.));
#314=DIRECTION('center_axis',(0.,-1.,0.));
#315=DIRECTION('ref_axis',(0.,0.,1.));
#316=DIRECTION('',(-6.68606532861254E-19,-0.999985096345688,-0.00545958666063361));
#317=DIRECTION('center_axis',(0.,-1.,0.));
#318=DIRECTION('ref_axis',(0.,0.,-1.));
#319=DIRECTION('center_axis',(0.,-1.,0.));
#320=DIRECTION('ref_axis',(1.,0.,0.));
#321=DIRECTION('center_axis',(0.,-1.,0.));
#322=DIRECTION('ref_axis',(1.,0.,0.));
#323=DIRECTION('center_axis',(-1.,0.,-1.22464679914735E-16));
#324=DIRECTION('ref_axis',(-1.22464679914735E-16,0.,1.));
#325=DIRECTION('center_axis',(0.,1.,0.));
#326=DIRECTION('ref_axis',(1.,0.,0.));
#327=DIRECTION('center_axis',(0.,1.,0.));
#328=DIRECTION('ref_axis',(1.,0.,0.));
#329=DIRECTION('center_axis',(0.,-1.,0.));
#330=DIRECTION('ref_axis',(1.,0.,0.));
#331=DIRECTION('center_axis',(0.,-1.,0.));
#332=DIRECTION('ref_axis',(0.,0.,-1.));
#333=DIRECTION('center_axis',(0.,1.,0.));
#334=DIRECTION('ref_axis',(0.,0.,1.));
#335=DIRECTION('',(0.,-1.,0.));
#336=DIRECTION('center_axis',(0.,1.,0.));
#337=DIRECTION('ref_axis',(0.,0.,1.));
#338=DIRECTION('center_axis',(0.,1.,0.));
#339=DIRECTION('ref_axis',(0.,0.,1.));
#340=DIRECTION('center_axis',(0.,-1.,0.));
#341=DIRECTION('ref_axis',(0.,0.,-1.));
#342=DIRECTION('center_axis',(0.,-1.,0.));
#343=DIRECTION('ref_axis',(0.,0.,-1.));
#344=DIRECTION('',(8.65956056235493E-17,-0.707106781186548,0.707106781186548));
#345=DIRECTION('center_axis',(0.,1.,0.));
#346=DIRECTION('ref_axis',(0.,0.,-1.));
#347=DIRECTION('center_axis',(0.,1.,0.));
#348=DIRECTION('ref_axis',(0.,0.,-1.));
#349=DIRECTION('center_axis',(0.,1.,0.));
#350=DIRECTION('ref_axis',(0.,0.,1.));
#351=DIRECTION('center_axis',(0.,1.,0.));
#352=DIRECTION('ref_axis',(0.,0.,1.));
#353=DIRECTION('',(0.,-1.,0.));
#354=DIRECTION('center_axis',(0.,1.,0.));
#355=DIRECTION('ref_axis',(0.,0.,1.));
#356=DIRECTION('center_axis',(-1.,0.,1.22464679914735E-16));
#357=DIRECTION('ref_axis',(-1.22464679914735E-16,0.,-1.));
#358=DIRECTION('center_axis',(0.,1.,0.));
#359=DIRECTION('ref_axis',(0.,0.,1.));
#360=DIRECTION('center_axis',(-1.,0.,1.22464679914735E-16));
#361=DIRECTION('ref_axis',(-1.22464679914735E-16,0.,-1.));
#362=CARTESIAN_POINT('',(0.,0.,0.));
#363=CARTESIAN_POINT('Origin',(0.,3.7328465537625,0.));
#364=CARTESIAN_POINT('',(0.,7.35499814951863,12.65));
#365=CARTESIAN_POINT('',(-1.5491782009214E-15,7.35499814951863,-12.65));
#366=CARTESIAN_POINT('Origin',(0.,7.35499814951863,0.));
#367=CARTESIAN_POINT('Origin',(0.,7.35499814951863,0.));
#368=CARTESIAN_POINT('',(-1.48510786515558E-15,0.00493885619484935,-12.1268260055843));
#369=CARTESIAN_POINT('Origin',(-1.42616616439331E-15,3.7328465537625,-11.6455304940679));
#370=CARTESIAN_POINT('',(0.,0.00493885619473347,12.1268260055844));
#371=CARTESIAN_POINT('Origin',(0.,0.00493885619484935,0.));
#372=CARTESIAN_POINT('Origin',(0.,0.00493885619484935,0.));
#373=CARTESIAN_POINT('Origin',(0.,3.65995642670502,0.));
#374=CARTESIAN_POINT('',(0.,2.09283594992396,11.4418496112907));
#375=CARTESIAN_POINT('',(-1.40122245027926E-15,2.09283594992396,-11.4418496112907));
#376=CARTESIAN_POINT('Origin',(0.,2.09283594992396,0.));
#377=CARTESIAN_POINT('Origin',(0.,2.09283594992396,0.));
#378=CARTESIAN_POINT('',(-1.3991455836449E-15,5.19905100972075,-11.4248907082355));
#379=CARTESIAN_POINT('Origin',(-1.71450551880629E-15,3.65995642670502,-14.));
#380=CARTESIAN_POINT('',(0.,5.19905100972075,11.4248907082355));
#381=CARTESIAN_POINT('Origin',(0.,5.19905100972075,0.));
#382=CARTESIAN_POINT('Origin',(0.,5.19905100972075,0.));
#383=CARTESIAN_POINT('Origin',(0.,1.34641797496198,0.));
#384=CARTESIAN_POINT('',(-1.40222058502372E-15,0.6,-11.45));
#385=CARTESIAN_POINT('',(-1.40172151765149E-15,1.34641797496198,-11.4459248056454));
#386=CARTESIAN_POINT('',(0.,0.6,11.45));
#387=CARTESIAN_POINT('Origin',(0.,0.6,0.));
#388=CARTESIAN_POINT('Origin',(0.,0.6,0.));
#389=CARTESIAN_POINT('Origin',(0.,5.83475960653865,0.));
#390=CARTESIAN_POINT('',(0.,6.47046820335655,11.4179491924311));
#391=CARTESIAN_POINT('',(-1.39829549313379E-15,6.47046820335655,-11.4179491924311));
#392=CARTESIAN_POINT('Origin',(0.,6.47046820335655,0.));
#393=CARTESIAN_POINT('Origin',(0.,6.47046820335655,0.));
#394=CARTESIAN_POINT('',(-1.39872053838934E-15,5.83475960653865,-11.4214199503333));
#395=CARTESIAN_POINT('Origin',(0.,21.2,0.));
#396=CARTESIAN_POINT('',(-11.15,21.2,-1.3654811810493E-15));
#397=CARTESIAN_POINT('',(-1.3654811810493E-15,21.2,-11.15));
#398=CARTESIAN_POINT('Origin',(0.,21.2,0.));
#399=CARTESIAN_POINT('',(-1.3654811810493E-15,21.2,11.15));
#400=CARTESIAN_POINT('Origin',(0.,21.2,0.));
#401=CARTESIAN_POINT('',(-1.26750943711751E-15,22.,10.35));
#402=CARTESIAN_POINT('Origin',(-1.26750943711751E-15,21.2,10.35));
#403=CARTESIAN_POINT('',(-10.35,22.,1.26750943711751E-15));
#404=CARTESIAN_POINT('Origin',(0.,22.,0.));
#405=CARTESIAN_POINT('Origin',(0.,22.,0.));
#406=CARTESIAN_POINT('Origin',(0.,21.2,0.));
#407=CARTESIAN_POINT('Origin',(0.,22.,12.65));
#408=CARTESIAN_POINT('Origin',(0.,14.2352341016783,0.));
#409=CARTESIAN_POINT('',(-1.3654811810493E-15,7.47046820335655,-11.15));
#410=CARTESIAN_POINT('',(-1.3654811810493E-15,14.2352341016783,-11.15));
#411=CARTESIAN_POINT('',(0.,7.47046820335655,11.15));
#412=CARTESIAN_POINT('Origin',(0.,7.47046820335655,0.));
#413=CARTESIAN_POINT('Origin',(0.,7.47046820335655,0.));
#414=CARTESIAN_POINT('Origin',(0.,26.5,0.));
#415=CARTESIAN_POINT('',(-1.42671352100667E-15,27.,11.65));
#416=CARTESIAN_POINT('Origin',(0.,27.,0.));
#417=CARTESIAN_POINT('',(1.5491782009214E-15,26.,12.65));
#418=CARTESIAN_POINT('',(1.48794586096403E-15,26.5,12.15));
#419=CARTESIAN_POINT('',(-1.5491782009214E-15,26.,-12.65));
#420=CARTESIAN_POINT('Origin',(0.,26.,0.));
#421=CARTESIAN_POINT('Origin',(0.,26.,0.));
#422=CARTESIAN_POINT('Origin',(0.,27.,0.));
#423=CARTESIAN_POINT('Origin',(0.,14.1774990747593,0.));
#424=CARTESIAN_POINT('',(-1.5491782009214E-15,14.1774990747593,-12.65));
#425=CARTESIAN_POINT('Origin',(0.,7.47046820335655,0.));
#426=CARTESIAN_POINT('Origin',(-1.61041054087877E-15,7.47046820335655,-13.15));
#427=CARTESIAN_POINT('Origin',(0.,0.6,0.));
#428=CARTESIAN_POINT('Origin',(-1.47569939297256E-15,0.6,-12.05));
#429=UNCERTAINTY_MEASURE_WITH_UNIT(LENGTH_MEASURE(0.01),#433,
'DISTANCE_ACCURACY_VALUE',
'Maximum model space distance between geometric entities at asserted c
onnectivities');
#430=UNCERTAINTY_MEASURE_WITH_UNIT(LENGTH_MEASURE(0.01),#433,
'DISTANCE_ACCURACY_VALUE',
'Maximum model space distance between geometric entities at asserted c
onnectivities');
#431=(
GEOMETRIC_REPRESENTATION_CONTEXT(3)
GLOBAL_UNCERTAINTY_ASSIGNED_CONTEXT((#429))
GLOBAL_UNIT_ASSIGNED_CONTEXT((#433,#435,#436))
REPRESENTATION_CONTEXT('','3D')
);
#432=(
GEOMETRIC_REPRESENTATION_CONTEXT(3)
GLOBAL_UNCERTAINTY_ASSIGNED_CONTEXT((#430))
GLOBAL_UNIT_ASSIGNED_CONTEXT((#433,#435,#436))
REPRESENTATION_CONTEXT('','3D')
);
#433=(
LENGTH_UNIT()
NAMED_UNIT(*)
SI_UNIT(.MILLI.,.METRE.)
);
#434=(
LENGTH_UNIT()
NAMED_UNIT(*)
SI_UNIT(.CENTI.,.METRE.)
);
#435=(
NAMED_UNIT(*)
PLANE_ANGLE_UNIT()
SI_UNIT($,.RADIAN.)
);
#436=(
NAMED_UNIT(*)
SI_UNIT($,.STERADIAN.)
SOLID_ANGLE_UNIT()
);
#437=SHAPE_DEFINITION_REPRESENTATION(#438,#439);
#438=PRODUCT_DEFINITION_SHAPE('',$,#441);
#439=SHAPE_REPRESENTATION('',(#237),#431);
#440=PRODUCT_DEFINITION_CONTEXT('part definition',#445,'design');
#441=PRODUCT_DEFINITION('183022003_Inoxpres','183022003_Inoxpres',#442,
#440);
#442=PRODUCT_DEFINITION_FORMATION('0',$,#447);
#443=PRODUCT_RELATED_PRODUCT_CATEGORY('183022003_Inoxpres',
'183022003_Inoxpres',(#447));
#444=APPLICATION_PROTOCOL_DEFINITION('international standard',
'automotive_design',2009,#445);
#445=APPLICATION_CONTEXT(
'Core Data for Automotive Mechanical Design Process');
#446=PRODUCT_CONTEXT('part definition',#445,'mechanical');
#447=PRODUCT('183022003_Inoxpres','183022003_Inoxpres',$,(#446));
#448=PRESENTATION_STYLE_ASSIGNMENT((#449));
#449=SURFACE_STYLE_USAGE(.BOTH.,#452);
#450=SURFACE_STYLE_RENDERING_WITH_PROPERTIES($,#456,(#451));
#451=SURFACE_STYLE_TRANSPARENT(0.);
#452=SURFACE_SIDE_STYLE('',(#453,#450));
#453=SURFACE_STYLE_FILL_AREA(#454);
#454=FILL_AREA_STYLE('',(#455));
#455=FILL_AREA_STYLE_COLOUR('',#456);
#456=COLOUR_RGB('',0.83921568627451,0.886274509803922,0.854901960784314);
ENDSEC;
END-ISO-10303-21;
