ISO-10303-21;
HEADER;
FILE_DESCRIPTION (( 'STEP AP203' ),
    '1' );
FILE_NAME ('3D_GR1382_DN30x2_18380360.STEP',
    '2024-09-23T06:02:10',
    ( '' ),
    ( '' ),
    'SwSTEP 2.0',
    'SolidWorks 2024',
    '' );
FILE_SCHEMA (( 'CONFIG_CONTROL_DESIGN' ));
ENDSEC;

DATA;
#1 = COORDINATED_UNIVERSAL_TIME_OFFSET ( 1, 0, .AHEAD. ) ;
#2 = FACE_OUTER_BOUND ( 'NONE', #94, .T. ) ;
#3 = COORDINATED_UNIVERSAL_TIME_OFFSET ( 1, 0, .AHEAD. ) ;
#4 = ORIENTED_EDGE ( 'NONE', *, *, #195, .T. ) ;
#5 = APPROVAL_ROLE ( '' ) ;
#6 = CIRCLE ( 'NONE', #239, 13.00000000000001776 ) ;
#7 = ORIENTED_EDGE ( 'NONE', *, *, #195, .F. ) ;
#8 = DIRECTION ( 'NONE',  ( -1.000000000000000000, -0.000000000000000000, -0.000000000000000000 ) ) ;
#9 = APPROVAL ( #148, 'UNSPECIFIED' ) ;
#10 = CARTESIAN_POINT ( 'NONE',  ( -3.000000000000002665, 1.775737858763664381E-15, -14.00000000000001954 ) ) ;
#11 = DIRECTION ( 'NONE',  ( -1.000000000000000000, -0.000000000000000000, -0.000000000000000000 ) ) ;
#12 = CONICAL_SURFACE ( 'NONE', #98, 12.00000000000002132, 0.7853981633974466137 ) ;
#13 = CARTESIAN_POINT ( 'NONE',  ( -2.000000000000001776, 0.000000000000000000, 14.00000000000001954 ) ) ;
#14 = DIRECTION ( 'NONE',  ( -1.000000000000000000, -0.000000000000000000, -0.000000000000000000 ) ) ;
#15 = ADVANCED_FACE ( 'NONE', ( #2 ), #23, .T. ) ;
#16 = PLANE ( 'NONE',  #110 ) ;
#17 = CIRCLE ( 'NONE', #346, 14.00000000000001954 ) ;
#18 = DIRECTION ( 'NONE',  ( 0.000000000000000000, 0.000000000000000000, 1.000000000000000000 ) ) ;
#19 = PRODUCT_DEFINITION ( 'UNKNOWN', '', #216, #170 ) ;
#20 = CYLINDRICAL_SURFACE ( 'NONE', #171, 13.00000000000001776 ) ;
#21 = FACE_OUTER_BOUND ( 'NONE', #95, .T. ) ;
#22 = APPLICATION_CONTEXT ( 'configuration controlled 3d designs of mechanical parts and assemblies' ) ;
#23 = CONICAL_SURFACE ( 'NONE', #230, 12.00000000000002132, 0.7853981633974466137 ) ;
#24 = DIRECTION ( 'NONE',  ( -1.000000000000000000, -0.000000000000000000, -0.000000000000000000 ) ) ;
#25 = APPROVAL_ROLE ( '' ) ;
#26 = ADVANCED_FACE ( 'NONE', ( #63 ), #173, .T. ) ;
#27 = PERSON_AND_ORGANIZATION ( #66, #177 ) ;
#28 = VERTEX_POINT ( 'NONE', #41 ) ;
#29 = PRODUCT ( '3D_GR1382_DN30x2_18380360', '3D_GR1382_DN30x2_18380360', '', ( #223 ) ) ;
#30 = AXIS2_PLACEMENT_3D ( 'NONE', #340, #318, #203 ) ;
#31 = DATE_TIME_ROLE ( 'classification_date' ) ;
#32 = EDGE_LOOP ( 'NONE', ( #211, #250, #60, #65 ) ) ;
#33 = ADVANCED_FACE ( 'NONE', ( #234 ), #321, .T. ) ;
#34 = ORIENTED_EDGE ( 'NONE', *, *, #188, .F. ) ;
#35 = DATE_AND_TIME ( #334, #62 ) ;
#36 = ORIENTED_EDGE ( 'NONE', *, *, #50, .F. ) ;
#37 = AXIS2_PLACEMENT_3D ( 'NONE', #301, #324, #240 ) ;
#38 = DIRECTION ( 'NONE',  ( -1.000000000000000000, -0.000000000000000000, -0.000000000000000000 ) ) ;
#39 = PRODUCT_RELATED_PRODUCT_CATEGORY ( 'detail', '', ( #29 ) ) ;
#40 = CARTESIAN_POINT ( 'NONE',  ( -2.000000000000001776, 1.714505518806296807E-15, -14.00000000000001954 ) ) ;
#41 = CARTESIAN_POINT ( 'NONE',  ( 0.000000000000000000, 0.000000000000000000, 13.00000000000001776 ) ) ;
#42 = CARTESIAN_POINT ( 'NONE',  ( 8.000000000001088907, 0.000000000000000000, 12.00000000000002132 ) ) ;
#43 = CLOSED_SHELL ( 'NONE', ( #154, #33, #293, #15, #313, #341, #209, #200, #26, #90, #285 ) ) ;
#44 = APPROVAL_PERSON_ORGANIZATION ( #221, #56, #5 ) ;
#45 = CARTESIAN_POINT ( 'NONE',  ( 0.000000000000000000, 0.000000000000000000, 0.000000000000000000 ) ) ;
#46 = CARTESIAN_POINT ( 'NONE',  ( -3.000000000000002665, 0.000000000000000000, 14.00000000000001954 ) ) ;
#47 = ORIENTED_EDGE ( 'NONE', *, *, #214, .T. ) ;
#48 = CARTESIAN_POINT ( 'NONE',  ( 0.000000000000000000, 0.000000000000000000, 0.000000000000000000 ) ) ;
#49 = CIRCLE ( 'NONE', #176, 1.000000000000000888 ) ;
#50 = EDGE_CURVE ( 'NONE', #28, #229, #320, .T. ) ;
#51 = CARTESIAN_POINT ( 'NONE',  ( -2.000000000000001776, 0.000000000000000000, 15.00000000000001954 ) ) ;
#52 = CARTESIAN_POINT ( 'NONE',  ( 7.000000000001088907, 1.592040838891561462E-15, -13.00000000000001776 ) ) ;
#53 = CYLINDRICAL_SURFACE ( 'NONE', #192, 13.00000000000001776 ) ;
#54 = TOROIDAL_SURFACE ( 'NONE', #235, 14.00000000000001954, 1.000000000000000444 ) ;
#55 = DATE_AND_TIME ( #196, #347 ) ;
#56 = APPROVAL ( #311, 'UNSPECIFIED' ) ;
#57 = APPLICATION_PROTOCOL_DEFINITION ( 'international standard', 'config_control_design', 1994, #22 ) ;
#58 = VERTEX_POINT ( 'NONE', #237 ) ;
#59 = DATE_TIME_ROLE ( 'creation_date' ) ;
#60 = ORIENTED_EDGE ( 'NONE', *, *, #232, .T. ) ;
#61 = EDGE_CURVE ( 'NONE', #58, #145, #74, .T. ) ;
#62 = LOCAL_TIME ( 8, 2, 10.00000000000000000, #225 ) ;
#63 = FACE_OUTER_BOUND ( 'NONE', #32, .T. ) ;
#64 = CARTESIAN_POINT ( 'NONE',  ( 0.000000000000000000, 0.000000000000000000, 0.000000000000000000 ) ) ;
#65 = ORIENTED_EDGE ( 'NONE', *, *, #178, .F. ) ;
#66 = PERSON ( 'UNSPECIFIED', 'UNSPECIFIED', 'UNSPECIFIED', ('UNSPECIFIED'), ('UNSPECIFIED'), ('UNSPECIFIED') ) ;
#67 = ORIENTED_EDGE ( 'NONE', *, *, #117, .T. ) ;
#68 = CIRCLE ( 'NONE', #85, 15.00000000000001776 ) ;
#69 = CARTESIAN_POINT ( 'NONE',  ( -2.000000000000001776, 0.000000000000000000, 0.000000000000000000 ) ) ;
#70 = CARTESIAN_POINT ( 'NONE',  ( 0.000000000000000000, 0.000000000000000000, 0.000000000000000000 ) ) ;
#71 = DIRECTION ( 'NONE',  ( 0.000000000000000000, 0.000000000000000000, 1.000000000000000000 ) ) ;
#72 = EDGE_CURVE ( 'NONE', #199, #89, #93, .T. ) ;
#73 = CARTESIAN_POINT ( 'NONE',  ( 8.000000000001088907, 1.530808498934193888E-15, -12.00000000000002132 ) ) ;
#74 = CIRCLE ( 'NONE', #123, 15.00000000000001776 ) ;
#75 = CC_DESIGN_SECURITY_CLASSIFICATION ( #245, ( #216 ) ) ;
#76 = CARTESIAN_POINT ( 'NONE',  ( -154.8395502972293230, 1.836970198721032350E-15, -15.00000000000001954 ) ) ;
#77 = ORIENTED_EDGE ( 'NONE', *, *, #61, .F. ) ;
#78 = CARTESIAN_POINT ( 'NONE',  ( 8.000000000000552447, 1.517883041479706208E-15, 0.000000000000000000 ) ) ;
#79 = EDGE_CURVE ( 'NONE', #229, #28, #164, .T. ) ;
#80 = CARTESIAN_POINT ( 'NONE',  ( -3.000000000000001776, 14.00000000000001954, 0.000000000000000000 ) ) ;
#81 = VECTOR ( 'NONE', #189, 1000.000000000000000 ) ;
#82 = DIRECTION ( 'NONE',  ( -1.000000000000000000, 0.000000000000000000, -0.000000000000000000 ) ) ;
#83 = CARTESIAN_POINT ( 'NONE',  ( -2.000000000000001776, 1.836970198721032350E-15, -15.00000000000001954 ) ) ;
#84 = DIRECTION ( 'NONE',  ( 0.000000000000000000, 0.000000000000000000, 1.000000000000000000 ) ) ;
#85 = AXIS2_PLACEMENT_3D ( 'NONE', #48, #329, #326 ) ;
#86 = SECURITY_CLASSIFICATION_LEVEL ( 'unclassified' ) ;
#87 = ORIENTED_EDGE ( 'NONE', *, *, #227, .T. ) ;
#88 = PERSON_AND_ORGANIZATION_ROLE ( 'creator' ) ;
#89 = VERTEX_POINT ( 'NONE', #10 ) ;
#90 = ADVANCED_FACE ( 'NONE', ( #207 ), #325, .T. ) ;
#91 = DIRECTION ( 'NONE',  ( -1.000000000000000000, -0.000000000000000000, -0.000000000000000000 ) ) ;
#92 = PRODUCT_DEFINITION_SHAPE ( 'NONE', 'NONE',  #19 ) ;
#93 = CIRCLE ( 'NONE', #187, 1.000000000000000888 ) ;
#94 = EDGE_LOOP ( 'NONE', ( #4, #169, #280, #277 ) ) ;
#95 = EDGE_LOOP ( 'NONE', ( #34, #174, #122, #357 ) ) ;
#96 = EDGE_CURVE ( 'NONE', #314, #201, #49, .T. ) ;
#97 = LINE ( 'NONE', #315, #105 ) ;
#98 = AXIS2_PLACEMENT_3D ( 'NONE', #185, #24, #160 ) ;
#99 = DIRECTION ( 'NONE',  ( -1.000000000000000000, -0.000000000000000000, -0.000000000000000000 ) ) ;
#100 = APPROVAL_PERSON_ORGANIZATION ( #228, #106, #25 ) ;
#101 = DIRECTION ( 'NONE',  ( -0.000000000000000000, 1.000000000000000000, 1.224646799147353207E-16 ) ) ;
#102 = EDGE_CURVE ( 'NONE', #120, #175, #156, .T. ) ;
#103 = DIRECTION ( 'NONE',  ( -1.000000000000000000, -0.000000000000000000, -0.000000000000000000 ) ) ;
#104 = DIRECTION ( 'NONE',  ( 0.000000000000000000, 0.000000000000000000, 1.000000000000000000 ) ) ;
#105 = VECTOR ( 'NONE', #246, 1000.000000000000000 ) ;
#106 = APPROVAL ( #119, 'UNSPECIFIED' ) ;
#107 = DIRECTION ( 'NONE',  ( 0.000000000000000000, 0.000000000000000000, -1.000000000000000000 ) ) ;
#108 = CARTESIAN_POINT ( 'NONE',  ( -154.8395502972293230, 0.000000000000000000, 0.000000000000000000 ) ) ;
#109 = CARTESIAN_POINT ( 'NONE',  ( -3.000000000000002665, 0.000000000000000000, 0.000000000000000000 ) ) ;
#110 = AXIS2_PLACEMENT_3D ( 'NONE', #80, #349, #107 ) ;
#111 = EDGE_LOOP ( 'NONE', ( #312, #224, #158, #251 ) ) ;
#112 = CC_DESIGN_APPROVAL ( #9, ( #216 ) ) ;
#113 = LINE ( 'NONE', #219, #81 ) ;
#114 = DIRECTION ( 'NONE',  ( 1.000000000000000000, 0.000000000000000000, 0.000000000000000000 ) ) ;
#115 = AXIS2_PLACEMENT_3D ( 'NONE', #78, #298, #270 ) ;
#116 =( NAMED_UNIT ( * ) PLANE_ANGLE_UNIT ( ) SI_UNIT ( $, .RADIAN. ) );
#117 = EDGE_CURVE ( 'NONE', #175, #253, #355, .T. ) ;
#118 = ORIENTED_EDGE ( 'NONE', *, *, #278, .T. ) ;
#119 = APPROVAL_STATUS ( 'not_yet_approved' ) ;
#120 = VERTEX_POINT ( 'NONE', #42 ) ;
#121 = PERSON_AND_ORGANIZATION ( #66, #177 ) ;
#122 = ORIENTED_EDGE ( 'NONE', *, *, #102, .T. ) ;
#123 = AXIS2_PLACEMENT_3D ( 'NONE', #45, #290, #343 ) ;
#124 = PERSON_AND_ORGANIZATION ( #66, #177 ) ;
#125 = ORIENTED_EDGE ( 'NONE', *, *, #96, .F. ) ;
#126 = EDGE_CURVE ( 'NONE', #147, #120, #163, .T. ) ;
#127 = CARTESIAN_POINT ( 'NONE',  ( -2.000000000000001776, 0.000000000000000000, 0.000000000000000000 ) ) ;
#128 = DIRECTION ( 'NONE',  ( 0.000000000000000000, 0.000000000000000000, 1.000000000000000000 ) ) ;
#129 = AXIS2_PLACEMENT_3D ( 'NONE', #70, #103, #263 ) ;
#130 = DIRECTION ( 'NONE',  ( 0.000000000000000000, 0.000000000000000000, 1.000000000000000000 ) ) ;
#131 = EDGE_CURVE ( 'NONE', #253, #175, #6, .T. ) ;
#132 = LINE ( 'NONE', #76, #210 ) ;
#133 = DIRECTION ( 'NONE',  ( 0.000000000000000000, -1.224646799147353454E-16, 1.000000000000000000 ) ) ;
#134 = DIRECTION ( 'NONE',  ( -1.000000000000000000, -0.000000000000000000, -0.000000000000000000 ) ) ;
#135 = VECTOR ( 'NONE', #242, 1000.000000000000000 ) ;
#136 = CARTESIAN_POINT ( 'NONE',  ( 8.000000000001088907, 1.469576158976826314E-15, -12.00000000000002132 ) ) ;
#137 = DIRECTION ( 'NONE',  ( -1.000000000000000000, -0.000000000000000000, -0.000000000000000000 ) ) ;
#138 = ORIENTED_EDGE ( 'NONE', *, *, #348, .F. ) ;
#139 = EDGE_CURVE ( 'NONE', #145, #199, #132, .T. ) ;
#140 = LINE ( 'NONE', #295, #204 ) ;
#141 = CALENDAR_DATE ( 2024, 23, 9 ) ;
#142 = EDGE_LOOP ( 'NONE', ( #87, #255, #149, #125 ) ) ;
#143 = AXIS2_PLACEMENT_3D ( 'NONE', #345, #153, #179 ) ;
#144 = COORDINATED_UNIVERSAL_TIME_OFFSET ( 1, 0, .AHEAD. ) ;
#145 = VERTEX_POINT ( 'NONE', #206 ) ;
#146 =( NAMED_UNIT ( * ) SI_UNIT ( $, .STERADIAN. ) SOLID_ANGLE_UNIT ( ) );
#147 = VERTEX_POINT ( 'NONE', #73 ) ;
#148 = APPROVAL_STATUS ( 'not_yet_approved' ) ;
#149 = ORIENTED_EDGE ( 'NONE', *, *, #278, .F. ) ;
#150 = AXIS2_PLACEMENT_3D ( 'NONE', #190, #82, #292 ) ;
#151 = APPROVAL_PERSON_ORGANIZATION ( #356, #9, #282 ) ;
#152 = CARTESIAN_POINT ( 'NONE',  ( -2.000000000000001776, 0.000000000000000000, 0.000000000000000000 ) ) ;
#153 = DIRECTION ( 'NONE',  ( -1.000000000000000000, -0.000000000000000000, -0.000000000000000000 ) ) ;
#154 = ADVANCED_FACE ( 'NONE', ( #264 ), #54, .T. ) ;
#155 = CARTESIAN_POINT ( 'NONE',  ( 8.000000000001088907, 0.000000000000000000, 0.000000000000000000 ) ) ;
#156 = LINE ( 'NONE', #344, #180 ) ;
#157 = FACE_OUTER_BOUND ( 'NONE', #202, .T. ) ;
#158 = ORIENTED_EDGE ( 'NONE', *, *, #96, .T. ) ;
#159 = CARTESIAN_POINT ( 'NONE',  ( -3.000000000000002665, 0.000000000000000000, 0.000000000000000000 ) ) ;
#160 = DIRECTION ( 'NONE',  ( 0.000000000000000000, 0.000000000000000000, 1.000000000000000000 ) ) ;
#161 = FACE_OUTER_BOUND ( 'NONE', #217, .T. ) ;
#162 = DIRECTION ( 'NONE',  ( -1.000000000000000000, -0.000000000000000000, -0.000000000000000000 ) ) ;
#163 = CIRCLE ( 'NONE', #310, 12.00000000000002132 ) ;
#164 = CIRCLE ( 'NONE', #30, 13.00000000000001776 ) ;
#165 = LOCAL_TIME ( 8, 2, 10.00000000000000000, #3 ) ;
#166 = CC_DESIGN_DATE_AND_TIME_ASSIGNMENT ( #55, #31, ( #245 ) ) ;
#167 = COORDINATED_UNIVERSAL_TIME_OFFSET ( 1, 0, .AHEAD. ) ;
#168 = EDGE_LOOP ( 'NONE', ( #7, #307 ) ) ;
#169 = ORIENTED_EDGE ( 'NONE', *, *, #188, .T. ) ;
#170 = DESIGN_CONTEXT ( 'detailed design', #271, 'design' ) ;
#171 = AXIS2_PLACEMENT_3D ( 'NONE', #108, #322, #212 ) ;
#172 = DATE_AND_TIME ( #191, #165 ) ;
#173 = CYLINDRICAL_SURFACE ( 'NONE', #342, 15.00000000000001954 ) ;
#174 = ORIENTED_EDGE ( 'NONE', *, *, #126, .T. ) ;
#175 = VERTEX_POINT ( 'NONE', #317 ) ;
#176 = AXIS2_PLACEMENT_3D ( 'NONE', #13, #291, #260 ) ;
#177 = ORGANIZATION ( 'UNSPECIFIED', 'UNSPECIFIED', '' ) ;
#178 = EDGE_CURVE ( 'NONE', #199, #314, #286, .T. ) ;
#179 = DIRECTION ( 'NONE',  ( 0.000000000000000000, 0.000000000000000000, 1.000000000000000000 ) ) ;
#180 = VECTOR ( 'NONE', #181, 1000.000000000000000 ) ;
#181 = DIRECTION ( 'NONE',  ( -0.7071067811865487940, 0.000000000000000000, 0.7071067811865463515 ) ) ;
#182 = DIRECTION ( 'NONE',  ( 0.000000000000000000, 0.000000000000000000, 1.000000000000000000 ) ) ;
#183 = EDGE_CURVE ( 'NONE', #175, #28, #97, .T. ) ;
#184 = ORIENTED_EDGE ( 'NONE', *, *, #139, .T. ) ;
#185 = CARTESIAN_POINT ( 'NONE',  ( 8.000000000001088907, 0.000000000000000000, 0.000000000000000000 ) ) ;
#186 = FACE_OUTER_BOUND ( 'NONE', #168, .T. ) ;
#187 = AXIS2_PLACEMENT_3D ( 'NONE', #40, #101, #133 ) ;
#188 = EDGE_CURVE ( 'NONE', #147, #253, #351, .T. ) ;
#189 = DIRECTION ( 'NONE',  ( -1.000000000000000000, -0.000000000000000000, -0.000000000000000000 ) ) ;
#190 = CARTESIAN_POINT ( 'NONE',  ( -1.683889348827542220E-15, 13.00000000000001776, 0.000000000000000000 ) ) ;
#191 = CALENDAR_DATE ( 2024, 23, 9 ) ;
#192 = AXIS2_PLACEMENT_3D ( 'NONE', #328, #350, #265 ) ;
#193 = APPLICATION_PROTOCOL_DEFINITION ( 'international standard', 'config_control_design', 1994, #271 ) ;
#194 = EDGE_LOOP ( 'NONE', ( #138, #226, #284, #339 ) ) ;
#195 = EDGE_CURVE ( 'NONE', #120, #147, #302, .T. ) ;
#196 = CALENDAR_DATE ( 2024, 23, 9 ) ;
#197 = EDGE_LOOP ( 'NONE', ( #77, #327 ) ) ;
#198 = DIRECTION ( 'NONE',  ( 0.000000000000000000, 0.000000000000000000, 1.000000000000000000 ) ) ;
#199 = VERTEX_POINT ( 'NONE', #83 ) ;
#200 = ADVANCED_FACE ( 'NONE', ( #268, #243 ), #354, .F. ) ;
#201 = VERTEX_POINT ( 'NONE', #46 ) ;
#202 = EDGE_LOOP ( 'NONE', ( #118, #47 ) ) ;
#203 = DIRECTION ( 'NONE',  ( 0.000000000000000000, 0.000000000000000000, 1.000000000000000000 ) ) ;
#204 = VECTOR ( 'NONE', #137, 1000.000000000000000 ) ;
#205 = DIRECTION ( 'NONE',  ( -1.000000000000000000, -0.000000000000000000, -0.000000000000000000 ) ) ;
#206 = CARTESIAN_POINT ( 'NONE',  ( 0.000000000000000000, 1.836970198721031955E-15, -15.00000000000001776 ) ) ;
#207 = FACE_OUTER_BOUND ( 'NONE', #111, .T. ) ;
#208 = ADVANCED_BREP_SHAPE_REPRESENTATION ( '3D_GR1382_DN30x2_18380360', ( #288, #262 ), #257 ) ;
#209 = ADVANCED_FACE ( 'NONE', ( #218 ), #53, .T. ) ;
#210 = VECTOR ( 'NONE', #8, 1000.000000000000000 ) ;
#211 = ORIENTED_EDGE ( 'NONE', *, *, #139, .F. ) ;
#212 = DIRECTION ( 'NONE',  ( 0.000000000000000000, 0.000000000000000000, 1.000000000000000000 ) ) ;
#213 = CARTESIAN_POINT ( 'NONE',  ( 8.000000000001088907, 0.000000000000000000, 0.000000000000000000 ) ) ;
#214 = EDGE_CURVE ( 'NONE', #89, #201, #17, .T. ) ;
#215 = DIRECTION ( 'NONE',  ( -1.000000000000000000, -0.000000000000000000, -0.000000000000000000 ) ) ;
#216 = PRODUCT_DEFINITION_FORMATION_WITH_SPECIFIED_SOURCE ( 'ANY', '', #29, .NOT_KNOWN. ) ;
#217 = EDGE_LOOP ( 'NONE', ( #67, #231, #36, #294 ) ) ;
#218 = FACE_OUTER_BOUND ( 'NONE', #194, .T. ) ;
#219 = CARTESIAN_POINT ( 'NONE',  ( -154.8395502972293230, 0.000000000000000000, 15.00000000000001954 ) ) ;
#220 = CC_DESIGN_PERSON_AND_ORGANIZATION_ASSIGNMENT ( #124, #331, ( #216 ) ) ;
#221 = PERSON_AND_ORGANIZATION ( #66, #177 ) ;
#222 = CIRCLE ( 'NONE', #37, 15.00000000000001954 ) ;
#223 = MECHANICAL_CONTEXT ( 'NONE', #22, 'mechanical' ) ;
#224 = ORIENTED_EDGE ( 'NONE', *, *, #178, .T. ) ;
#225 = COORDINATED_UNIVERSAL_TIME_OFFSET ( 1, 0, .AHEAD. ) ;
#226 = ORIENTED_EDGE ( 'NONE', *, *, #131, .T. ) ;
#227 = EDGE_CURVE ( 'NONE', #314, #199, #222, .T. ) ;
#228 = PERSON_AND_ORGANIZATION ( #66, #177 ) ;
#229 = VERTEX_POINT ( 'NONE', #269 ) ;
#230 = AXIS2_PLACEMENT_3D ( 'NONE', #335, #91, #309 ) ;
#231 = ORIENTED_EDGE ( 'NONE', *, *, #348, .T. ) ;
#232 = EDGE_CURVE ( 'NONE', #58, #314, #113, .T. ) ;
#233 = DIRECTION ( 'NONE',  ( -1.000000000000000000, -0.000000000000000000, -0.000000000000000000 ) ) ;
#234 = FACE_OUTER_BOUND ( 'NONE', #244, .T. ) ;
#235 = AXIS2_PLACEMENT_3D ( 'NONE', #152, #205, #258 ) ;
#236 = CARTESIAN_POINT ( 'NONE',  ( 7.000000000001088907, 0.000000000000000000, 0.000000000000000000 ) ) ;
#237 = CARTESIAN_POINT ( 'NONE',  ( 0.000000000000000000, 0.000000000000000000, 15.00000000000001776 ) ) ;
#238 = CC_DESIGN_PERSON_AND_ORGANIZATION_ASSIGNMENT ( #121, #336, ( #216 ) ) ;
#239 = AXIS2_PLACEMENT_3D ( 'NONE', #236, #99, #104 ) ;
#240 = DIRECTION ( 'NONE',  ( 0.000000000000000000, 0.000000000000000000, 1.000000000000000000 ) ) ;
#241 = EDGE_CURVE ( 'NONE', #145, #58, #68, .T. ) ;
#242 = DIRECTION ( 'NONE',  ( -0.7071067811865487940, 8.659560562354918067E-17, -0.7071067811865463515 ) ) ;
#243 = FACE_BOUND ( 'NONE', #337, .T. ) ;
#244 = EDGE_LOOP ( 'NONE', ( #296, #184, #283, #305 ) ) ;
#245 = SECURITY_CLASSIFICATION ( '', '', #86 ) ;
#246 = DIRECTION ( 'NONE',  ( -1.000000000000000000, -0.000000000000000000, -0.000000000000000000 ) ) ;
#247 = CC_DESIGN_DATE_AND_TIME_ASSIGNMENT ( #252, #59, ( #19 ) ) ;
#248 = SHAPE_DEFINITION_REPRESENTATION ( #92, #208 ) ;
#249 = PERSON_AND_ORGANIZATION ( #66, #177 ) ;
#250 = ORIENTED_EDGE ( 'NONE', *, *, #241, .T. ) ;
#251 = ORIENTED_EDGE ( 'NONE', *, *, #214, .F. ) ;
#252 = DATE_AND_TIME ( #338, #332 ) ;
#253 = VERTEX_POINT ( 'NONE', #52 ) ;
#254 = PERSON_AND_ORGANIZATION ( #66, #177 ) ;
#255 = ORIENTED_EDGE ( 'NONE', *, *, #72, .T. ) ;
#256 = AXIS2_PLACEMENT_3D ( 'NONE', #69, #233, #182 ) ;
#257 =( GEOMETRIC_REPRESENTATION_CONTEXT ( 3 ) GLOBAL_UNCERTAINTY_ASSIGNED_CONTEXT ( ( #274 ) ) GLOBAL_UNIT_ASSIGNED_CONTEXT ( ( #353, #116, #146 ) ) REPRESENTATION_CONTEXT ( 'NONE', 'WORKASPACE' ) );
#258 = DIRECTION ( 'NONE',  ( 0.000000000000000000, 0.000000000000000000, 1.000000000000000000 ) ) ;
#259 = CC_DESIGN_PERSON_AND_ORGANIZATION_ASSIGNMENT ( #254, #303, ( #245 ) ) ;
#260 = DIRECTION ( 'NONE',  ( 0.000000000000000000, 0.000000000000000000, -1.000000000000000000 ) ) ;
#261 = AXIS2_PLACEMENT_3D ( 'NONE', #213, #134, #18 ) ;
#262 = AXIS2_PLACEMENT_3D ( 'NONE', #64, #198, #114 ) ;
#263 = DIRECTION ( 'NONE',  ( 0.000000000000000000, 0.000000000000000000, 1.000000000000000000 ) ) ;
#264 = FACE_OUTER_BOUND ( 'NONE', #142, .T. ) ;
#265 = DIRECTION ( 'NONE',  ( 0.000000000000000000, 0.000000000000000000, 1.000000000000000000 ) ) ;
#266 = AXIS2_PLACEMENT_3D ( 'NONE', #159, #162, #84 ) ;
#267 = LOCAL_TIME ( 8, 2, 10.00000000000000000, #144 ) ;
#268 = FACE_OUTER_BOUND ( 'NONE', #197, .T. ) ;
#269 = CARTESIAN_POINT ( 'NONE',  ( 0.000000000000000000, 1.592040838891561462E-15, -13.00000000000001776 ) ) ;
#270 = DIRECTION ( 'NONE',  ( -0.000000000000000000, 0.000000000000000000, 1.000000000000000000 ) ) ;
#271 = APPLICATION_CONTEXT ( 'configuration controlled 3d designs of mechanical parts and assemblies' ) ;
#272 = PLANE ( 'NONE',  #115 ) ;
#273 = AXIS2_PLACEMENT_3D ( 'NONE', #319, #289, #71 ) ;
#274 = UNCERTAINTY_MEASURE_WITH_UNIT (LENGTH_MEASURE( 1.000000000000000082E-05 ), #353, 'distance_accuracy_value', 'NONE');
#275 = DATE_AND_TIME ( #141, #267 ) ;
#276 = PERSON_AND_ORGANIZATION_ROLE ( 'design_owner' ) ;
#277 = ORIENTED_EDGE ( 'NONE', *, *, #102, .F. ) ;
#278 = EDGE_CURVE ( 'NONE', #201, #89, #330, .T. ) ;
#279 = APPROVAL_DATE_TIME ( #172, #9 ) ;
#280 = ORIENTED_EDGE ( 'NONE', *, *, #117, .F. ) ;
#281 = CARTESIAN_POINT ( 'NONE',  ( -154.8395502972293230, 0.000000000000000000, 0.000000000000000000 ) ) ;
#282 = APPROVAL_ROLE ( '' ) ;
#283 = ORIENTED_EDGE ( 'NONE', *, *, #227, .F. ) ;
#284 = ORIENTED_EDGE ( 'NONE', *, *, #183, .T. ) ;
#285 = ADVANCED_FACE ( 'NONE', ( #157 ), #16, .F. ) ;
#286 = CIRCLE ( 'NONE', #256, 15.00000000000001954 ) ;
#287 = DIRECTION ( 'NONE',  ( 0.000000000000000000, 0.000000000000000000, 1.000000000000000000 ) ) ;
#288 = MANIFOLD_SOLID_BREP ( 'Rotation1', #43 ) ;
#289 = DIRECTION ( 'NONE',  ( -1.000000000000000000, -0.000000000000000000, -0.000000000000000000 ) ) ;
#290 = DIRECTION ( 'NONE',  ( -1.000000000000000000, -0.000000000000000000, -0.000000000000000000 ) ) ;
#291 = DIRECTION ( 'NONE',  ( 0.000000000000000000, -1.000000000000000000, 0.000000000000000000 ) ) ;
#292 = DIRECTION ( 'NONE',  ( -0.000000000000000000, 0.000000000000000000, 1.000000000000000000 ) ) ;
#293 = ADVANCED_FACE ( 'NONE', ( #161 ), #20, .T. ) ;
#294 = ORIENTED_EDGE ( 'NONE', *, *, #183, .F. ) ;
#295 = CARTESIAN_POINT ( 'NONE',  ( -154.8395502972293230, 1.592040838891561462E-15, -13.00000000000001776 ) ) ;
#296 = ORIENTED_EDGE ( 'NONE', *, *, #61, .T. ) ;
#297 = CC_DESIGN_APPROVAL ( #106, ( #245 ) ) ;
#298 = DIRECTION ( 'NONE',  ( -1.000000000000000000, 0.000000000000000000, -0.000000000000000000 ) ) ;
#299 = DIRECTION ( 'NONE',  ( 0.000000000000000000, 0.000000000000000000, 1.000000000000000000 ) ) ;
#300 = CC_DESIGN_PERSON_AND_ORGANIZATION_ASSIGNMENT ( #249, #88, ( #19 ) ) ;
#301 = CARTESIAN_POINT ( 'NONE',  ( -2.000000000000001776, 0.000000000000000000, 0.000000000000000000 ) ) ;
#302 = CIRCLE ( 'NONE', #261, 12.00000000000002132 ) ;
#303 = PERSON_AND_ORGANIZATION_ROLE ( 'classification_officer' ) ;
#304 = CC_DESIGN_APPROVAL ( #56, ( #19 ) ) ;
#305 = ORIENTED_EDGE ( 'NONE', *, *, #232, .F. ) ;
#306 = APPROVAL_DATE_TIME ( #275, #56 ) ;
#307 = ORIENTED_EDGE ( 'NONE', *, *, #126, .F. ) ;
#308 = APPROVAL_DATE_TIME ( #35, #106 ) ;
#309 = DIRECTION ( 'NONE',  ( 0.000000000000000000, 0.000000000000000000, 1.000000000000000000 ) ) ;
#310 = AXIS2_PLACEMENT_3D ( 'NONE', #155, #38, #130 ) ;
#311 = APPROVAL_STATUS ( 'not_yet_approved' ) ;
#312 = ORIENTED_EDGE ( 'NONE', *, *, #72, .F. ) ;
#313 = ADVANCED_FACE ( 'NONE', ( #186 ), #272, .F. ) ;
#314 = VERTEX_POINT ( 'NONE', #51 ) ;
#315 = CARTESIAN_POINT ( 'NONE',  ( -154.8395502972293230, 0.000000000000000000, 13.00000000000001776 ) ) ;
#316 = AXIS2_PLACEMENT_3D ( 'NONE', #127, #11, #128 ) ;
#317 = CARTESIAN_POINT ( 'NONE',  ( 7.000000000001088907, 0.000000000000000000, 13.00000000000001776 ) ) ;
#318 = DIRECTION ( 'NONE',  ( -1.000000000000000000, -0.000000000000000000, -0.000000000000000000 ) ) ;
#319 = CARTESIAN_POINT ( 'NONE',  ( 7.000000000001088907, 0.000000000000000000, 0.000000000000000000 ) ) ;
#320 = CIRCLE ( 'NONE', #129, 13.00000000000001776 ) ;
#321 = CYLINDRICAL_SURFACE ( 'NONE', #143, 15.00000000000001954 ) ;
#322 = DIRECTION ( 'NONE',  ( -1.000000000000000000, -0.000000000000000000, -0.000000000000000000 ) ) ;
#323 = CC_DESIGN_PERSON_AND_ORGANIZATION_ASSIGNMENT ( #27, #276, ( #29 ) ) ;
#324 = DIRECTION ( 'NONE',  ( -1.000000000000000000, -0.000000000000000000, -0.000000000000000000 ) ) ;
#325 = TOROIDAL_SURFACE ( 'NONE', #316, 14.00000000000001954, 1.000000000000000444 ) ;
#326 = DIRECTION ( 'NONE',  ( 0.000000000000000000, 0.000000000000000000, 1.000000000000000000 ) ) ;
#327 = ORIENTED_EDGE ( 'NONE', *, *, #241, .F. ) ;
#328 = CARTESIAN_POINT ( 'NONE',  ( -154.8395502972293230, 0.000000000000000000, 0.000000000000000000 ) ) ;
#329 = DIRECTION ( 'NONE',  ( -1.000000000000000000, -0.000000000000000000, -0.000000000000000000 ) ) ;
#330 = CIRCLE ( 'NONE', #266, 14.00000000000001954 ) ;
#331 = PERSON_AND_ORGANIZATION_ROLE ( 'creator' ) ;
#332 = LOCAL_TIME ( 8, 2, 10.00000000000000000, #167 ) ;
#333 = ORIENTED_EDGE ( 'NONE', *, *, #79, .T. ) ;
#334 = CALENDAR_DATE ( 2024, 23, 9 ) ;
#335 = CARTESIAN_POINT ( 'NONE',  ( 8.000000000001088907, 0.000000000000000000, 0.000000000000000000 ) ) ;
#336 = PERSON_AND_ORGANIZATION_ROLE ( 'design_supplier' ) ;
#337 = EDGE_LOOP ( 'NONE', ( #352, #333 ) ) ;
#338 = CALENDAR_DATE ( 2024, 23, 9 ) ;
#339 = ORIENTED_EDGE ( 'NONE', *, *, #79, .F. ) ;
#340 = CARTESIAN_POINT ( 'NONE',  ( 0.000000000000000000, 0.000000000000000000, 0.000000000000000000 ) ) ;
#341 = ADVANCED_FACE ( 'NONE', ( #21 ), #12, .T. ) ;
#342 = AXIS2_PLACEMENT_3D ( 'NONE', #281, #14, #287 ) ;
#343 = DIRECTION ( 'NONE',  ( 0.000000000000000000, 0.000000000000000000, 1.000000000000000000 ) ) ;
#344 = CARTESIAN_POINT ( 'NONE',  ( 8.000000000001088907, 0.000000000000000000, 12.00000000000002132 ) ) ;
#345 = CARTESIAN_POINT ( 'NONE',  ( -154.8395502972293230, 0.000000000000000000, 0.000000000000000000 ) ) ;
#346 = AXIS2_PLACEMENT_3D ( 'NONE', #109, #215, #299 ) ;
#347 = LOCAL_TIME ( 8, 2, 10.00000000000000000, #1 ) ;
#348 = EDGE_CURVE ( 'NONE', #253, #229, #140, .T. ) ;
#349 = DIRECTION ( 'NONE',  ( 1.000000000000000000, 0.000000000000000000, 0.000000000000000000 ) ) ;
#350 = DIRECTION ( 'NONE',  ( -1.000000000000000000, -0.000000000000000000, -0.000000000000000000 ) ) ;
#351 = LINE ( 'NONE', #136, #135 ) ;
#352 = ORIENTED_EDGE ( 'NONE', *, *, #50, .T. ) ;
#353 =( LENGTH_UNIT ( ) NAMED_UNIT ( * ) SI_UNIT ( .MILLI., .METRE. ) );
#354 = PLANE ( 'NONE',  #150 ) ;
#355 = CIRCLE ( 'NONE', #273, 13.00000000000001776 ) ;
#356 = PERSON_AND_ORGANIZATION ( #66, #177 ) ;
#357 = ORIENTED_EDGE ( 'NONE', *, *, #131, .F. ) ;
ENDSEC;
END-ISO-10303-21;
