ISO-10303-21;
HEADER;
FILE_DESCRIPTION (( 'STEP AP203' ),
    '1' );
FILE_NAME ('OT200-25-33_7x1_6_OSTP.step',
    '2020-12-16T01:40:27',
    ( '' ),
    ( '' ),
    'SwSTEP 2.0',
    'SolidWorks 2014',
    '' );
FILE_SCHEMA (( 'CONFIG_CONTROL_DESIGN' ));
ENDSEC;

DATA;
#1 = ORIENTED_EDGE ( 'NONE', *, *, #197, .F. ) ;
#2 = EDGE_CURVE ( 'NONE', #116, #111, #67, .T. ) ;
#3 = CARTESIAN_POINT ( 'NONE',  ( 38.00000000000000000, 38.00000000000000000, 0.0000000000000000000 ) ) ;
#4 = ORIENTED_EDGE ( 'NONE', *, *, #52, .F. ) ;
#5 = ADVANCED_BREP_SHAPE_REPRESENTATION ( 'OT200-25-33_7x1_6_OSTP', ( #177, #188 ), #226 ) ;
#6 = AXIS2_PLACEMENT_3D ( 'NONE', #13, #60, #61 ) ;
#7 = ORIENTED_EDGE ( 'NONE', *, *, #216, .T. ) ;
#8 = ORIENTED_EDGE ( 'NONE', *, *, #118, .F. ) ;
#9 = DIRECTION ( 'NONE',  ( 0.0000000000000000000, 1.000000000000000000, 0.0000000000000000000 ) ) ;
#10 = CARTESIAN_POINT ( 'NONE',  ( 0.0000000000000000000, 0.0000000000000000000, 0.0000000000000000000 ) ) ;
#11 = AXIS2_PLACEMENT_3D ( 'NONE', #136, #12, #244 ) ;
#12 = DIRECTION ( 'NONE',  ( 0.0000000000000000000, 1.000000000000000000, 0.0000000000000000000 ) ) ;
#13 = CARTESIAN_POINT ( 'NONE',  ( 37.99999999999999300, 38.00000000000000000, 0.0000000000000000000 ) ) ;
#14 = AXIS2_PLACEMENT_3D ( 'NONE', #195, #233, #33 ) ;
#15 = CARTESIAN_POINT ( 'NONE',  ( 37.99999999999999300, 38.00000000000000000, 0.0000000000000000000 ) ) ;
#16 = ORIENTED_EDGE ( 'NONE', *, *, #57, .F. ) ;
#17 = DIRECTION ( 'NONE',  ( 0.0000000000000000000, 0.0000000000000000000, 1.000000000000000000 ) ) ;
#18 = CARTESIAN_POINT ( 'NONE',  ( 37.99999999999999300, 38.00000000000000000, 0.0000000000000000000 ) ) ;
#19 = APPLICATION_PROTOCOL_DEFINITION ( 'international standard', 'config_control_design', 1994, #91 ) ;
#20 = PERSON_AND_ORGANIZATION ( #70, #205 ) ;
#21 = ORIENTED_EDGE ( 'NONE', *, *, #2, .F. ) ;
#22 = DESIGN_CONTEXT ( 'detailed design', #91, 'design' ) ;
#23 = DATE_TIME_ROLE ( 'creation_date' ) ;
#24 = EDGE_LOOP ( 'NONE', ( #232, #168, #115, #21 ) ) ;
#25 = AXIS2_PLACEMENT_3D ( 'NONE', #253, #104, #85 ) ;
#26 = FACE_OUTER_BOUND ( 'NONE', #24, .T. ) ;
#27 = AXIS2_PLACEMENT_3D ( 'NONE', #18, #79, #107 ) ;
#28 = CIRCLE ( 'NONE', #25, 15.25000000000000000 ) ;
#29 = VERTEX_POINT ( 'NONE', #228 ) ;
#30 = CALENDAR_DATE ( 2020, 16, 12 ) ;
#31 = EDGE_CURVE ( 'NONE', #247, #170, #122, .T. ) ;
#32 = CIRCLE ( 'NONE', #38, 53.25000000000000000 ) ;
#33 = DIRECTION ( 'NONE',  ( 1.000000000000000000, 0.0000000000000000000, 0.0000000000000000000 ) ) ;
#34 = DIRECTION ( 'NONE',  ( 1.000000000000000000, 6.123233995736766000E-017, 0.0000000000000000000 ) ) ;
#35 = DIRECTION ( 'NONE',  ( 0.0000000000000000000, 0.0000000000000000000, 1.000000000000000000 ) ) ;
#36 = CARTESIAN_POINT ( 'NONE',  ( 38.00000000000000000, 0.0000000000000000000, 0.0000000000000000000 ) ) ;
#37 = COORDINATED_UNIVERSAL_TIME_OFFSET ( 1, 0, .AHEAD. ) ;
#38 = AXIS2_PLACEMENT_3D ( 'NONE', #209, #208, #171 ) ;
#39 =( NAMED_UNIT ( * ) PLANE_ANGLE_UNIT ( ) SI_UNIT ( $, .RADIAN. ) );
#40 = PERSON_AND_ORGANIZATION_ROLE ( 'creator' ) ;
#41 = DIRECTION ( 'NONE',  ( 0.0000000000000000000, 1.000000000000000000, 0.0000000000000000000 ) ) ;
#42 = ADVANCED_FACE ( 'NONE', ( #175, #72 ), #117, .F. ) ;
#43 = UNCERTAINTY_MEASURE_WITH_UNIT (LENGTH_MEASURE( 1.000000000000000100E-005 ), #148, 'distance_accuracy_value', 'NONE');
#44 = LOCAL_TIME ( 2, 40, 26.00000000000000000, #110 ) ;
#45 = AXIS2_PLACEMENT_3D ( 'NONE', #179, #121, #215 ) ;
#46 = AXIS2_PLACEMENT_3D ( 'NONE', #144, #34, #102 ) ;
#47 = AXIS2_PLACEMENT_3D ( 'NONE', #80, #124, #105 ) ;
#48 = PRODUCT ( 'OT200-25-33_7x1_6_OSTP', 'OT200-25-33_7x1_6_OSTP', '', ( #237 ) ) ;
#49 = APPROVAL_PERSON_ORGANIZATION ( #173, #134, #88 ) ;
#50 = EDGE_LOOP ( 'NONE', ( #222, #8, #7, #77 ) ) ;
#51 = DATE_AND_TIME ( #186, #191 ) ;
#52 = EDGE_CURVE ( 'NONE', #29, #96, #32, .T. ) ;
#53 = CIRCLE ( 'NONE', #224, 21.14999999999999500 ) ;
#54 = EDGE_LOOP ( 'NONE', ( #211, #126 ) ) ;
#55 = DIRECTION ( 'NONE',  ( 0.0000000000000000000, 1.000000000000000000, 0.0000000000000000000 ) ) ;
#56 = DIRECTION ( 'NONE',  ( 1.000000000000000000, 0.0000000000000000000, 0.0000000000000000000 ) ) ;
#57 = EDGE_CURVE ( 'NONE', #96, #111, #234, .T. ) ;
#58 = CARTESIAN_POINT ( 'NONE',  ( 38.00000000000000000, 0.0000000000000000000, -2.063529856563290200E-015 ) ) ;
#59 = AXIS2_PLACEMENT_3D ( 'NONE', #36, #83, #142 ) ;
#60 = DIRECTION ( 'NONE',  ( 1.000000000000000000, 6.123233995736766000E-017, 0.0000000000000000000 ) ) ;
#61 = DIRECTION ( 'NONE',  ( 0.0000000000000000000, 0.0000000000000000000, 1.000000000000000000 ) ) ;
#62 = APPROVAL_STATUS ( 'not_yet_approved' ) ;
#63 = PERSON_AND_ORGANIZATION_ROLE ( 'design_supplier' ) ;
#64 = PRODUCT_DEFINITION_FORMATION_WITH_SPECIFIED_SOURCE ( 'ANY', '', #48, .NOT_KNOWN. ) ;
#65 = APPROVAL_STATUS ( 'not_yet_approved' ) ;
#66 = CALENDAR_DATE ( 2020, 16, 12 ) ;
#67 = CIRCLE ( 'NONE', #71, 22.75000000000000000 ) ;
#68 = TOROIDAL_SURFACE ( 'NONE', #14, 38.00000000000000000, 16.85000000000000100 ) ;
#69 = ORIENTED_EDGE ( 'NONE', *, *, #2, .T. ) ;
#70 = PERSON ( 'UNSPECIFIED', 'UNSPECIFIED', 'UNSPECIFIED', ('UNSPECIFIED'), ('UNSPECIFIED'), ('UNSPECIFIED') ) ;
#71 = AXIS2_PLACEMENT_3D ( 'NONE', #75, #73, #97 ) ;
#72 = FACE_OUTER_BOUND ( 'NONE', #54, .T. ) ;
#73 = DIRECTION ( 'NONE',  ( 0.0000000000000000000, 0.0000000000000000000, 1.000000000000000000 ) ) ;
#74 = CC_DESIGN_PERSON_AND_ORGANIZATION_ASSIGNMENT ( #146, #161, ( #48 ) ) ;
#75 = CARTESIAN_POINT ( 'NONE',  ( 38.00000000000000000, 0.0000000000000000000, -1.867586368699713800E-015 ) ) ;
#76 = DATE_AND_TIME ( #137, #145 ) ;
#77 = ORIENTED_EDGE ( 'NONE', *, *, #31, .T. ) ;
#78 = APPROVAL ( #198, 'UNSPECIFIED' ) ;
#79 = DIRECTION ( 'NONE',  ( 1.000000000000000000, 6.123233995736766000E-017, 0.0000000000000000000 ) ) ;
#80 = CARTESIAN_POINT ( 'NONE',  ( 0.0000000000000000000, 0.0000000000000000000, 0.0000000000000000000 ) ) ;
#81 = SHAPE_DEFINITION_REPRESENTATION ( #172, #5 ) ;
#82 = EDGE_LOOP ( 'NONE', ( #4, #165, #69, #16 ) ) ;
#83 = DIRECTION ( 'NONE',  ( 0.0000000000000000000, 0.0000000000000000000, 1.000000000000000000 ) ) ;
#84 = CARTESIAN_POINT ( 'NONE',  ( 38.00000000000000000, 0.0000000000000000000, 0.0000000000000000000 ) ) ;
#85 = DIRECTION ( 'NONE',  ( 0.0000000000000000000, 0.0000000000000000000, 1.000000000000000000 ) ) ;
#86 = EDGE_CURVE ( 'NONE', #170, #247, #125, .T. ) ;
#87 = DATE_AND_TIME ( #223, #242 ) ;
#88 = APPROVAL_ROLE ( '' ) ;
#89 = CIRCLE ( 'NONE', #59, 54.84999999999998700 ) ;
#90 = CLOSED_SHELL ( 'NONE', ( #238, #127, #219, #199, #42, #183 ) ) ;
#91 = APPLICATION_CONTEXT ( 'configuration controlled 3d designs of mechanical parts and assemblies' ) ;
#92 = PRODUCT_DEFINITION ( 'UNKNOWN', '', #64, #22 ) ;
#93 = CIRCLE ( 'NONE', #6, 16.85000000000000100 ) ;
#94 = CC_DESIGN_PERSON_AND_ORGANIZATION_ASSIGNMENT ( #20, #40, ( #64 ) ) ;
#95 = COORDINATED_UNIVERSAL_TIME_OFFSET ( 1, 0, .AHEAD. ) ;
#96 = VERTEX_POINT ( 'NONE', #153 ) ;
#97 = DIRECTION ( 'NONE',  ( 1.000000000000000000, 0.0000000000000000000, 0.0000000000000000000 ) ) ;
#98 = DATE_AND_TIME ( #66, #131 ) ;
#99 = PERSON_AND_ORGANIZATION ( #70, #205 ) ;
#100 = EDGE_CURVE ( 'NONE', #29, #116, #164, .T. ) ;
#101 = COORDINATED_UNIVERSAL_TIME_OFFSET ( 1, 0, .AHEAD. ) ;
#102 = DIRECTION ( 'NONE',  ( 0.0000000000000000000, 1.000000000000000000, 0.0000000000000000000 ) ) ;
#103 = EDGE_LOOP ( 'NONE', ( #1, #225, #201, #166 ) ) ;
#104 = DIRECTION ( 'NONE',  ( 0.0000000000000000000, 1.000000000000000000, 0.0000000000000000000 ) ) ;
#105 = DIRECTION ( 'NONE',  ( 0.0000000000000000000, 0.0000000000000000000, 1.000000000000000000 ) ) ;
#106 = CC_DESIGN_PERSON_AND_ORGANIZATION_ASSIGNMENT ( #196, #128, ( #92 ) ) ;
#107 = DIRECTION ( 'NONE',  ( 0.0000000000000000000, 0.0000000000000000000, 1.000000000000000000 ) ) ;
#108 = DIRECTION ( 'NONE',  ( 1.000000000000000000, 0.0000000000000000000, 0.0000000000000000000 ) ) ;
#109 = CC_DESIGN_PERSON_AND_ORGANIZATION_ASSIGNMENT ( #99, #112, ( #178 ) ) ;
#110 = COORDINATED_UNIVERSAL_TIME_OFFSET ( 1, 0, .AHEAD. ) ;
#111 = VERTEX_POINT ( 'NONE', #213 ) ;
#112 = PERSON_AND_ORGANIZATION_ROLE ( 'classification_officer' ) ;
#113 = ORIENTED_EDGE ( 'NONE', *, *, #143, .T. ) ;
#114 = PERSON_AND_ORGANIZATION ( #70, #205 ) ;
#115 = ORIENTED_EDGE ( 'NONE', *, *, #143, .F. ) ;
#116 = VERTEX_POINT ( 'NONE', #174 ) ;
#117 = PLANE ( 'NONE',  #138 ) ;
#118 = EDGE_CURVE ( 'NONE', #240, #187, #93, .T. ) ;
#119 = CC_DESIGN_DATE_AND_TIME_ASSIGNMENT ( #87, #130, ( #178 ) ) ;
#120 = CARTESIAN_POINT ( 'NONE',  ( 0.0000000000000000000, 0.0000000000000000000, 0.0000000000000000000 ) ) ;
#121 = DIRECTION ( 'NONE',  ( 0.0000000000000000000, 0.0000000000000000000, 1.000000000000000000 ) ) ;
#122 = CIRCLE ( 'NONE', #11, 16.85000000000000100 ) ;
#123 = DIRECTION ( 'NONE',  ( 0.0000000000000000000, 0.0000000000000000000, 1.000000000000000000 ) ) ;
#124 = DIRECTION ( 'NONE',  ( 0.0000000000000000000, 1.000000000000000000, 0.0000000000000000000 ) ) ;
#125 = CIRCLE ( 'NONE', #47, 16.85000000000000100 ) ;
#126 = ORIENTED_EDGE ( 'NONE', *, *, #86, .F. ) ;
#127 = ADVANCED_FACE ( 'NONE', ( #184 ), #68, .T. ) ;
#128 = PERSON_AND_ORGANIZATION_ROLE ( 'creator' ) ;
#129 = DIRECTION ( 'NONE',  ( 1.000000000000000000, 6.123233995736766000E-017, 0.0000000000000000000 ) ) ;
#130 = DATE_TIME_ROLE ( 'classification_date' ) ;
#131 = LOCAL_TIME ( 2, 40, 26.00000000000000000, #95 ) ;
#132 = CC_DESIGN_DATE_AND_TIME_ASSIGNMENT ( #51, #23, ( #92 ) ) ;
#133 = COORDINATED_UNIVERSAL_TIME_OFFSET ( 1, 0, .AHEAD. ) ;
#134 = APPROVAL ( #62, 'UNSPECIFIED' ) ;
#135 = ORIENTED_EDGE ( 'NONE', *, *, #100, .F. ) ;
#136 = CARTESIAN_POINT ( 'NONE',  ( 0.0000000000000000000, 0.0000000000000000000, 0.0000000000000000000 ) ) ;
#137 = CALENDAR_DATE ( 2020, 16, 12 ) ;
#138 = AXIS2_PLACEMENT_3D ( 'NONE', #139, #9, #151 ) ;
#139 = CARTESIAN_POINT ( 'NONE',  ( 0.0000000000000000000, 0.0000000000000000000, 0.0000000000000000000 ) ) ;
#140 = DIRECTION ( 'NONE',  ( 1.000000000000000000, 0.0000000000000000000, 0.0000000000000000000 ) ) ;
#141 = DATE_AND_TIME ( #30, #44 ) ;
#142 = DIRECTION ( 'NONE',  ( 1.000000000000000000, 0.0000000000000000000, 0.0000000000000000000 ) ) ;
#143 = EDGE_CURVE ( 'NONE', #111, #96, #28, .T. ) ;
#144 = CARTESIAN_POINT ( 'NONE',  ( 38.00000000000000000, 38.00000000000000000, 0.0000000000000000000 ) ) ;
#145 = LOCAL_TIME ( 2, 40, 26.00000000000000000, #101 ) ;
#146 = PERSON_AND_ORGANIZATION ( #70, #205 ) ;
#147 = APPLICATION_PROTOCOL_DEFINITION ( 'international standard', 'config_control_design', 1994, #163 ) ;
#148 =( LENGTH_UNIT ( ) NAMED_UNIT ( * ) SI_UNIT ( .MILLI., .METRE. ) );
#149 = PERSON_AND_ORGANIZATION ( #70, #205 ) ;
#150 = ORIENTED_EDGE ( 'NONE', *, *, #118, .T. ) ;
#151 = DIRECTION ( 'NONE',  ( 0.0000000000000000000, -0.0000000000000000000, 1.000000000000000000 ) ) ;
#152 = CC_DESIGN_PERSON_AND_ORGANIZATION_ASSIGNMENT ( #149, #63, ( #64 ) ) ;
#153 = CARTESIAN_POINT ( 'NONE',  ( -15.25000000000000000, 0.0000000000000000000, 0.0000000000000000000 ) ) ;
#154 = APPROVAL_PERSON_ORGANIZATION ( #114, #181, #221 ) ;
#155 = AXIS2_PLACEMENT_3D ( 'NONE', #3, #129, #41 ) ;
#156 = DIRECTION ( 'NONE',  ( 0.0000000000000000000, 0.0000000000000000000, 1.000000000000000000 ) ) ;
#157 = DIRECTION ( 'NONE',  ( 0.0000000000000000000, 0.0000000000000000000, 1.000000000000000000 ) ) ;
#158 = CARTESIAN_POINT ( 'NONE',  ( 37.99999999999999300, 21.14999999999999900, -2.063529856563290200E-015 ) ) ;
#159 = ORIENTED_EDGE ( 'NONE', *, *, #57, .T. ) ;
#160 = CARTESIAN_POINT ( 'NONE',  ( 38.00000000000000000, 0.0000000000000000000, 0.0000000000000000000 ) ) ;
#161 = PERSON_AND_ORGANIZATION_ROLE ( 'design_owner' ) ;
#162 = AXIS2_PLACEMENT_3D ( 'NONE', #160, #156, #56 ) ;
#163 = APPLICATION_CONTEXT ( 'configuration controlled 3d designs of mechanical parts and assemblies' ) ;
#164 = CIRCLE ( 'NONE', #46, 15.25000000000000000 ) ;
#165 = ORIENTED_EDGE ( 'NONE', *, *, #100, .T. ) ;
#166 = ORIENTED_EDGE ( 'NONE', *, *, #216, .F. ) ;
#167 = TOROIDAL_SURFACE ( 'NONE', #45, 38.00000000000000000, 15.25000000000000000 ) ;
#168 = ORIENTED_EDGE ( 'NONE', *, *, #52, .T. ) ;
#169 = CC_DESIGN_APPROVAL ( #78, ( #64 ) ) ;
#170 = VERTEX_POINT ( 'NONE', #248 ) ;
#171 = DIRECTION ( 'NONE',  ( 1.000000000000000000, 0.0000000000000000000, 0.0000000000000000000 ) ) ;
#172 = PRODUCT_DEFINITION_SHAPE ( 'NONE', 'NONE',  #92 ) ;
#173 = PERSON_AND_ORGANIZATION ( #70, #205 ) ;
#174 = CARTESIAN_POINT ( 'NONE',  ( 38.00000000000000000, 22.75000000000000000, -1.867586368699713800E-015 ) ) ;
#175 = FACE_BOUND ( 'NONE', #192, .T. ) ;
#176 = CARTESIAN_POINT ( 'NONE',  ( 16.85000000000000100, 0.0000000000000000000, -2.063529856563290200E-015 ) ) ;
#177 = MANIFOLD_SOLID_BREP ( 'cut-body', #90 ) ;
#178 = SECURITY_CLASSIFICATION ( '', '', #202 ) ;
#179 = CARTESIAN_POINT ( 'NONE',  ( 38.00000000000000000, 0.0000000000000000000, 0.0000000000000000000 ) ) ;
#180 = CIRCLE ( 'NONE', #155, 15.25000000000000000 ) ;
#181 = APPROVAL ( #65, 'UNSPECIFIED' ) ;
#182 = ORIENTED_EDGE ( 'NONE', *, *, #197, .T. ) ;
#183 = ADVANCED_FACE ( 'NONE', ( #251 ), #231, .F. ) ;
#184 = FACE_OUTER_BOUND ( 'NONE', #103, .T. ) ;
#185 = AXIS2_PLACEMENT_3D ( 'NONE', #84, #35, #249 ) ;
#186 = CALENDAR_DATE ( 2020, 16, 12 ) ;
#187 = VERTEX_POINT ( 'NONE', #193 ) ;
#188 = AXIS2_PLACEMENT_3D ( 'NONE', #120, #17, #108 ) ;
#189 = FACE_BOUND ( 'NONE', #218, .T. ) ;
#190 = CC_DESIGN_APPROVAL ( #134, ( #178 ) ) ;
#191 = LOCAL_TIME ( 2, 40, 26.00000000000000000, #133 ) ;
#192 = EDGE_LOOP ( 'NONE', ( #113, #159 ) ) ;
#193 = CARTESIAN_POINT ( 'NONE',  ( 37.99999999999999300, 54.84999999999999400, 0.0000000000000000000 ) ) ;
#194 = APPROVAL_DATE_TIME ( #98, #134 ) ;
#195 = CARTESIAN_POINT ( 'NONE',  ( 38.00000000000000000, 0.0000000000000000000, 0.0000000000000000000 ) ) ;
#196 = PERSON_AND_ORGANIZATION ( #70, #205 ) ;
#197 = EDGE_CURVE ( 'NONE', #187, #240, #217, .T. ) ;
#198 = APPROVAL_STATUS ( 'not_yet_approved' ) ;
#199 = ADVANCED_FACE ( 'NONE', ( #189, #243 ), #212, .T. ) ;
#200 = PERSON_AND_ORGANIZATION ( #70, #205 ) ;
#201 = ORIENTED_EDGE ( 'NONE', *, *, #86, .T. ) ;
#202 = SECURITY_CLASSIFICATION_LEVEL ( 'unclassified' ) ;
#203 =( NAMED_UNIT ( * ) SI_UNIT ( $, .STERADIAN. ) SOLID_ANGLE_UNIT ( ) );
#204 = TOROIDAL_SURFACE ( 'NONE', #162, 38.00000000000000000, 16.85000000000000100 ) ;
#205 = ORGANIZATION ( 'UNSPECIFIED', 'UNSPECIFIED', '' ) ;
#206 = ORIENTED_EDGE ( 'NONE', *, *, #252, .F. ) ;
#207 = PRODUCT_RELATED_PRODUCT_CATEGORY ( 'detail', '', ( #48 ) ) ;
#208 = DIRECTION ( 'NONE',  ( 0.0000000000000000000, 0.0000000000000000000, 1.000000000000000000 ) ) ;
#209 = CARTESIAN_POINT ( 'NONE',  ( 38.00000000000000000, 0.0000000000000000000, 0.0000000000000000000 ) ) ;
#210 = AXIS2_PLACEMENT_3D ( 'NONE', #10, #55, #250 ) ;
#211 = ORIENTED_EDGE ( 'NONE', *, *, #31, .F. ) ;
#212 = PLANE ( 'NONE',  #241 ) ;
#213 = CARTESIAN_POINT ( 'NONE',  ( 15.25000000000000000, 0.0000000000000000000, -1.867586368699713800E-015 ) ) ;
#214 = EDGE_LOOP ( 'NONE', ( #150, #182 ) ) ;
#215 = DIRECTION ( 'NONE',  ( 1.000000000000000000, 0.0000000000000000000, 0.0000000000000000000 ) ) ;
#216 = EDGE_CURVE ( 'NONE', #240, #247, #53, .T. ) ;
#217 = CIRCLE ( 'NONE', #27, 16.85000000000000100 ) ;
#218 = EDGE_LOOP ( 'NONE', ( #206, #135 ) ) ;
#219 = ADVANCED_FACE ( 'NONE', ( #239 ), #204, .T. ) ;
#220 = EDGE_CURVE ( 'NONE', #187, #170, #89, .T. ) ;
#221 = APPROVAL_ROLE ( '' ) ;
#222 = ORIENTED_EDGE ( 'NONE', *, *, #220, .F. ) ;
#223 = CALENDAR_DATE ( 2020, 16, 12 ) ;
#224 = AXIS2_PLACEMENT_3D ( 'NONE', #58, #157, #140 ) ;
#225 = ORIENTED_EDGE ( 'NONE', *, *, #220, .T. ) ;
#226 =( GEOMETRIC_REPRESENTATION_CONTEXT ( 3 ) GLOBAL_UNCERTAINTY_ASSIGNED_CONTEXT ( ( #43 ) ) GLOBAL_UNIT_ASSIGNED_CONTEXT ( ( #148, #39, #203 ) ) REPRESENTATION_CONTEXT ( 'NONE', 'WORKASPACE' ) );
#227 = APPROVAL_DATE_TIME ( #141, #78 ) ;
#228 = CARTESIAN_POINT ( 'NONE',  ( 38.00000000000000000, 53.25000000000000000, 0.0000000000000000000 ) ) ;
#229 = DIRECTION ( 'NONE',  ( 1.000000000000000000, 6.123233995736766000E-017, -0.0000000000000000000 ) ) ;
#230 = CC_DESIGN_SECURITY_CLASSIFICATION ( #178, ( #64 ) ) ;
#231 = TOROIDAL_SURFACE ( 'NONE', #185, 38.00000000000000000, 15.25000000000000000 ) ;
#232 = ORIENTED_EDGE ( 'NONE', *, *, #252, .T. ) ;
#233 = DIRECTION ( 'NONE',  ( 0.0000000000000000000, 0.0000000000000000000, 1.000000000000000000 ) ) ;
#234 = CIRCLE ( 'NONE', #210, 15.25000000000000000 ) ;
#235 = CC_DESIGN_APPROVAL ( #181, ( #92 ) ) ;
#236 = APPROVAL_ROLE ( '' ) ;
#237 = MECHANICAL_CONTEXT ( 'NONE', #163, 'mechanical' ) ;
#238 = ADVANCED_FACE ( 'NONE', ( #26 ), #167, .F. ) ;
#239 = FACE_OUTER_BOUND ( 'NONE', #50, .T. ) ;
#240 = VERTEX_POINT ( 'NONE', #158 ) ;
#241 = AXIS2_PLACEMENT_3D ( 'NONE', #15, #229, #123 ) ;
#242 = LOCAL_TIME ( 2, 40, 26.00000000000000000, #37 ) ;
#243 = FACE_OUTER_BOUND ( 'NONE', #214, .T. ) ;
#244 = DIRECTION ( 'NONE',  ( 0.0000000000000000000, 0.0000000000000000000, 1.000000000000000000 ) ) ;
#245 = APPROVAL_DATE_TIME ( #76, #181 ) ;
#246 = APPROVAL_PERSON_ORGANIZATION ( #200, #78, #236 ) ;
#247 = VERTEX_POINT ( 'NONE', #176 ) ;
#248 = CARTESIAN_POINT ( 'NONE',  ( -16.84999999999999800, 0.0000000000000000000, 0.0000000000000000000 ) ) ;
#249 = DIRECTION ( 'NONE',  ( 1.000000000000000000, 0.0000000000000000000, 0.0000000000000000000 ) ) ;
#250 = DIRECTION ( 'NONE',  ( 0.0000000000000000000, 0.0000000000000000000, 1.000000000000000000 ) ) ;
#251 = FACE_OUTER_BOUND ( 'NONE', #82, .T. ) ;
#252 = EDGE_CURVE ( 'NONE', #116, #29, #180, .T. ) ;
#253 = CARTESIAN_POINT ( 'NONE',  ( 0.0000000000000000000, 0.0000000000000000000, 0.0000000000000000000 ) ) ;
ENDSEC;
END-ISO-10303-21;
