ISO-10303-21;
HEADER;
FILE_DESCRIPTION (( 'STEP AP203' ),
    '1' );
FILE_NAME ('11-0216-03_outokumpu.step',
    '2015-08-11T14:13:07',
    ( '' ),
    ( '' ),
    'SwSTEP 2.0',
    'SolidWorks 2008',
    '' );
FILE_SCHEMA (( 'CONFIG_CONTROL_DESIGN' ));
ENDSEC;

DATA;
#1 = ORIENTED_EDGE ( 'NONE', *, *, #3, .F. ) ;
#2 = ORIENTED_EDGE ( 'NONE', *, *, #9, .F. ) ;
#3 = EDGE_CURVE ( 'NONE', #6, #69, #330, .T. ) ;
#4 = ADVANCED_FACE ( 'NONE', ( #331 ), #318, .F. ) ;
#5 = VERTEX_POINT ( 'NONE', #319 ) ;
#6 = VERTEX_POINT ( 'NONE', #314 ) ;
#7 = VERTEX_POINT ( 'NONE', #313 ) ;
#8 = EDGE_LOOP ( 'NONE', ( #367, #19, #34, #25, #24, #357 ) ) ;
#9 = EDGE_CURVE ( 'NONE', #44, #6, #389, .T. ) ;
#10 = ORIENTED_EDGE ( 'NONE', *, *, #12, .T. ) ;
#11 = ADVANCED_FACE ( 'NONE', ( #385 ), #384, .F. ) ;
#12 = EDGE_CURVE ( 'NONE', #7, #5, #379, .T. ) ;
#13 = ORIENTED_EDGE ( 'NONE', *, *, #35, .F. ) ;
#14 = VERTEX_POINT ( 'NONE', #374 ) ;
#15 = ORIENTED_EDGE ( 'NONE', *, *, #42, .F. ) ;
#16 = EDGE_LOOP ( 'NONE', ( #358, #304 ) ) ;
#17 = ORIENTED_EDGE ( 'NONE', *, *, #30, .T. ) ;
#18 = ORIENTED_EDGE ( 'NONE', *, *, #52, .T. ) ;
#19 = ORIENTED_EDGE ( 'NONE', *, *, #62, .T. ) ;
#20 = MANIFOLD_SOLID_BREP ( 'NONE', #325 ) ;
#21 = EDGE_LOOP ( 'NONE', ( #10, #26, #15, #37, #68 ) ) ;
#22 = EDGE_CURVE ( 'NONE', #5, #14, #373, .T. ) ;
#23 = EDGE_LOOP ( 'NONE', ( #13, #18, #17, #33, #32, #27 ) ) ;
#24 = ORIENTED_EDGE ( 'NONE', *, *, #324, .F. ) ;
#25 = ORIENTED_EDGE ( 'NONE', *, *, #66, .F. ) ;
#26 = ORIENTED_EDGE ( 'NONE', *, *, #22, .T. ) ;
#27 = ORIENTED_EDGE ( 'NONE', *, *, #12, .F. ) ;
#28 = ADVANCED_FACE ( 'NONE', ( #369, #356 ), #355, .F. ) ;
#29 = VERTEX_POINT ( 'NONE', #350 ) ;
#30 = EDGE_CURVE ( 'NONE', #54, #368, #349, .T. ) ;
#31 = EDGE_CURVE ( 'NONE', #5, #29, #78, .T. ) ;
#32 = ORIENTED_EDGE ( 'NONE', *, *, #31, .F. ) ;
#33 = ORIENTED_EDGE ( 'NONE', *, *, #327, .T. ) ;
#34 = ORIENTED_EDGE ( 'NONE', *, *, #35, .T. ) ;
#35 = EDGE_CURVE ( 'NONE', #65, #7, #72, .T. ) ;
#36 = ADVANCED_FACE ( 'NONE', ( #76 ), #75, .F. ) ;
#37 = ORIENTED_EDGE ( 'NONE', *, *, #39, .F. ) ;
#38 = VERTEX_POINT ( 'NONE', #109 ) ;
#39 = EDGE_CURVE ( 'NONE', #38, #41, #148, .T. ) ;
#40 = ORIENTED_EDGE ( 'NONE', *, *, #61, .T. ) ;
#41 = VERTEX_POINT ( 'NONE', #104 ) ;
#42 = EDGE_CURVE ( 'NONE', #41, #14, #143, .T. ) ;
#43 = EDGE_LOOP ( 'NONE', ( #64, #40, #58, #57, #55 ) ) ;
#44 = VERTEX_POINT ( 'NONE', #144 ) ;
#45 = ORIENTED_EDGE ( 'NONE', *, *, #46, .T. ) ;
#46 = EDGE_CURVE ( 'NONE', #44, #48, #138, .T. ) ;
#47 = EDGE_CURVE ( 'NONE', #48, #69, #93, .T. ) ;
#48 = VERTEX_POINT ( 'NONE', #115 ) ;
#49 = ORIENTED_EDGE ( 'NONE', *, *, #47, .T. ) ;
#50 = EDGE_LOOP ( 'NONE', ( #45, #49, #1, #2 ) ) ;
#51 = ADVANCED_FACE ( 'NONE', ( #114 ), #113, .T. ) ;
#52 = EDGE_CURVE ( 'NONE', #65, #54, #132, .T. ) ;
#53 = EDGE_CURVE ( 'NONE', #54, #59, #127, .T. ) ;
#54 = VERTEX_POINT ( 'NONE', #123 ) ;
#55 = ORIENTED_EDGE ( 'NONE', *, *, #52, .F. ) ;
#56 = EDGE_CURVE ( 'NONE', #60, #59, #121, .T. ) ;
#57 = ORIENTED_EDGE ( 'NONE', *, *, #53, .F. ) ;
#58 = ORIENTED_EDGE ( 'NONE', *, *, #56, .T. ) ;
#59 = VERTEX_POINT ( 'NONE', #122 ) ;
#60 = VERTEX_POINT ( 'NONE', #89 ) ;
#61 = EDGE_CURVE ( 'NONE', #63, #60, #88, .T. ) ;
#62 = EDGE_CURVE ( 'NONE', #63, #65, #84, .T. ) ;
#63 = VERTEX_POINT ( 'NONE', #79 ) ;
#64 = ORIENTED_EDGE ( 'NONE', *, *, #62, .F. ) ;
#65 = VERTEX_POINT ( 'NONE', #173 ) ;
#66 = EDGE_CURVE ( 'NONE', #38, #7, #172, .T. ) ;
#67 = ADVANCED_FACE ( 'NONE', ( #167 ), #166, .F. ) ;
#68 = ORIENTED_EDGE ( 'NONE', *, *, #66, .T. ) ;
#69 = VERTEX_POINT ( 'NONE', #165 ) ;
#70 = DIRECTION ( 'NONE',  ( -0.0000000000000000000, 3.591911631868338900E-016, -1.000000000000000000 ) ) ;
#71 = CARTESIAN_POINT ( 'NONE',  ( 1.020219553369422700E-015, -8.331000000000001300, -10.00000000000003600 ) ) ;
#72 = LINE ( 'NONE', #71, #77 ) ;
#73 = DIRECTION ( 'NONE',  ( 1.000000000000000000, 0.0000000000000000000, 0.0000000000000000000 ) ) ;
#74 = AXIS2_PLACEMENT_3D ( 'NONE', #103, #116, #73 ) ;
#75 = CYLINDRICAL_SURFACE ( 'NONE', #108, 8.331000000000001300 ) ;
#76 = FACE_OUTER_BOUND ( 'NONE', #23, .T. ) ;
#77 = VECTOR ( 'NONE', #70, 1000.000000000000000 ) ;
#78 = CIRCLE ( 'NONE', #74, 8.330999999999997700 ) ;
#79 = CARTESIAN_POINT ( 'NONE',  ( -8.330999999999997700, 1.038032979296512700E-015, -0.2909249306356903600 ) ) ;
#80 = DIRECTION ( 'NONE',  ( 1.000000000000000000, 0.0000000000000000000, 0.0000000000000000000 ) ) ;
#81 = DIRECTION ( 'NONE',  ( -0.0000000000000000000, -0.0000000000000000000, 1.000000000000000000 ) ) ;
#82 = CARTESIAN_POINT ( 'NONE',  ( 0.0000000000000000000, 0.0000000000000000000, -0.2909249306356903600 ) ) ;
#83 = AXIS2_PLACEMENT_3D ( 'NONE', #82, #81, #80 ) ;
#84 = CIRCLE ( 'NONE', #83, 8.330999999999997700 ) ;
#85 = DIRECTION ( 'NONE',  ( -0.7071067811865507900, 8.659274570719396100E-017, 0.7071067811865441300 ) ) ;
#86 = VECTOR ( 'NONE', #85, 1000.000000000000000 ) ;
#87 = CARTESIAN_POINT ( 'NONE',  ( -8.330999999999997700, 1.020219553369422300E-015, -0.2909249306356903600 ) ) ;
#88 = LINE ( 'NONE', #87, #86 ) ;
#89 = CARTESIAN_POINT ( 'NONE',  ( -8.621924930635691100, 1.055846405223602700E-015, -3.304181524652116200E-019 ) ) ;
#90 = DIRECTION ( 'NONE',  ( -0.0000000000000000000, -0.0000000000000000000, 1.000000000000000000 ) ) ;
#91 = VECTOR ( 'NONE', #90, 1000.000000000000000 ) ;
#92 = CARTESIAN_POINT ( 'NONE',  ( -10.75000000000000000, 1.316451830359055400E-015, -4.336808689942017700E-016 ) ) ;
#93 = LINE ( 'NONE', #92, #91 ) ;
#94 = PLANE ( 'NONE',  #95 ) ;
#95 = AXIS2_PLACEMENT_3D ( 'NONE', #257, #209, #174 ) ;
#96 = FACE_BOUND ( 'NONE', #301, .T. ) ;
#97 = DIRECTION ( 'NONE',  ( 1.000000000000000000, 0.0000000000000000000, 0.0000000000000000000 ) ) ;
#98 = DIRECTION ( 'NONE',  ( -0.0000000000000000000, -0.0000000000000000000, 1.000000000000000000 ) ) ;
#99 = CARTESIAN_POINT ( 'NONE',  ( 0.0000000000000000000, 0.0000000000000000000, -4.336808689942017700E-016 ) ) ;
#100 = AXIS2_PLACEMENT_3D ( 'NONE', #99, #98, #97 ) ;
#101 = FACE_OUTER_BOUND ( 'NONE', #337, .T. ) ;
#102 = CYLINDRICAL_SURFACE ( 'NONE', #100, 10.75000000000000000 ) ;
#103 = CARTESIAN_POINT ( 'NONE',  ( 0.0000000000000000000, 0.0000000000000000000, -9.709075069364244500 ) ) ;
#104 = CARTESIAN_POINT ( 'NONE',  ( -8.621924930635758600, 0.0000000000000000000, -10.00000000000000400 ) ) ;
#105 = DIRECTION ( 'NONE',  ( 0.0000000000000000000, 1.000000000000000000, 4.164502403017181400E-016 ) ) ;
#106 = DIRECTION ( 'NONE',  ( -0.0000000000000000000, 3.591911631868338900E-016, -1.000000000000000000 ) ) ;
#107 = CARTESIAN_POINT ( 'NONE',  ( 0.0000000000000000000, 1.224646799147350500E-016, -10.00000000000003200 ) ) ;
#108 = AXIS2_PLACEMENT_3D ( 'NONE', #107, #106, #105 ) ;
#109 = CARTESIAN_POINT ( 'NONE',  ( -8.330999999999997700, 0.0000000000000000000, -9.709075069364244500 ) ) ;
#110 = DIRECTION ( 'NONE',  ( -0.0000000000000000000, -0.0000000000000000000, 1.000000000000000000 ) ) ;
#111 = CARTESIAN_POINT ( 'NONE',  ( 0.0000000000000000000, 0.0000000000000000000, -4.336808689942017700E-016 ) ) ;
#112 = AXIS2_PLACEMENT_3D ( 'NONE', #111, #110, #133 ) ;
#113 = CYLINDRICAL_SURFACE ( 'NONE', #112, 10.75000000000000000 ) ;
#114 = FACE_OUTER_BOUND ( 'NONE', #50, .T. ) ;
#115 = CARTESIAN_POINT ( 'NONE',  ( -10.75000000000000000, 1.316451830359055400E-015, -10.00000000000000400 ) ) ;
#116 = DIRECTION ( 'NONE',  ( -0.0000000000000000000, -0.0000000000000000000, 1.000000000000000000 ) ) ;
#117 = DIRECTION ( 'NONE',  ( 1.000000000000000000, 0.0000000000000000000, 0.0000000000000000000 ) ) ;
#118 = DIRECTION ( 'NONE',  ( -0.0000000000000000000, -0.0000000000000000000, 1.000000000000000000 ) ) ;
#119 = CARTESIAN_POINT ( 'NONE',  ( 0.0000000000000000000, 0.0000000000000000000, -3.304181524652116200E-019 ) ) ;
#120 = AXIS2_PLACEMENT_3D ( 'NONE', #119, #118, #117 ) ;
#121 = CIRCLE ( 'NONE', #120, 8.621924930635691100 ) ;
#122 = CARTESIAN_POINT ( 'NONE',  ( 8.621924930635691100, 0.0000000000000000000, -3.304181524652116200E-019 ) ) ;
#123 = CARTESIAN_POINT ( 'NONE',  ( 8.330999999999997700, 0.0000000000000000000, -0.2909249306356903600 ) ) ;
#124 = DIRECTION ( 'NONE',  ( 0.7071067811865507900, 0.0000000000000000000, 0.7071067811865441300 ) ) ;
#125 = VECTOR ( 'NONE', #124, 1000.000000000000000 ) ;
#126 = CARTESIAN_POINT ( 'NONE',  ( 8.330999999999997700, 0.0000000000000000000, -0.2909249306356903600 ) ) ;
#127 = LINE ( 'NONE', #126, #125 ) ;
#128 = DIRECTION ( 'NONE',  ( 1.000000000000000000, 0.0000000000000000000, 0.0000000000000000000 ) ) ;
#129 = DIRECTION ( 'NONE',  ( -0.0000000000000000000, -0.0000000000000000000, 1.000000000000000000 ) ) ;
#130 = CARTESIAN_POINT ( 'NONE',  ( 0.0000000000000000000, 0.0000000000000000000, -0.2909249306356903600 ) ) ;
#131 = AXIS2_PLACEMENT_3D ( 'NONE', #130, #129, #128 ) ;
#132 = CIRCLE ( 'NONE', #131, 8.330999999999997700 ) ;
#133 = DIRECTION ( 'NONE',  ( 1.000000000000000000, 0.0000000000000000000, 0.0000000000000000000 ) ) ;
#134 = DIRECTION ( 'NONE',  ( 1.000000000000000000, 0.0000000000000000000, 0.0000000000000000000 ) ) ;
#135 = DIRECTION ( 'NONE',  ( -0.0000000000000000000, -0.0000000000000000000, 1.000000000000000000 ) ) ;
#136 = CARTESIAN_POINT ( 'NONE',  ( 0.0000000000000000000, 0.0000000000000000000, -10.00000000000000400 ) ) ;
#137 = AXIS2_PLACEMENT_3D ( 'NONE', #136, #135, #134 ) ;
#138 = CIRCLE ( 'NONE', #137, 10.75000000000000000 ) ;
#139 = DIRECTION ( 'NONE',  ( 1.000000000000000000, 0.0000000000000000000, 0.0000000000000000000 ) ) ;
#140 = DIRECTION ( 'NONE',  ( -0.0000000000000000000, -0.0000000000000000000, 1.000000000000000000 ) ) ;
#141 = CARTESIAN_POINT ( 'NONE',  ( 0.0000000000000000000, 0.0000000000000000000, -10.00000000000000400 ) ) ;
#142 = AXIS2_PLACEMENT_3D ( 'NONE', #141, #140, #139 ) ;
#143 = CIRCLE ( 'NONE', #142, 8.621924930635758600 ) ;
#144 = CARTESIAN_POINT ( 'NONE',  ( 10.75000000000000000, 0.0000000000000000000, -10.00000000000000400 ) ) ;
#145 = DIRECTION ( 'NONE',  ( -0.7071067811865495700, 0.0000000000000000000, -0.7071067811865454600 ) ) ;
#146 = VECTOR ( 'NONE', #145, 1000.000000000000000 ) ;
#147 = CARTESIAN_POINT ( 'NONE',  ( -8.621924930635758600, 0.0000000000000000000, -10.00000000000000400 ) ) ;
#148 = LINE ( 'NONE', #147, #146 ) ;
#149 = DIRECTION ( 'NONE',  ( 1.000000000000000000, 0.0000000000000000000, 0.0000000000000000000 ) ) ;
#150 = DIRECTION ( 'NONE',  ( -0.0000000000000000000, -0.0000000000000000000, 1.000000000000000000 ) ) ;
#151 = CARTESIAN_POINT ( 'NONE',  ( 0.0000000000000000000, 0.0000000000000000000, 0.0000000000000000000 ) ) ;
#152 = AXIS2_PLACEMENT_3D ( 'NONE', #151, #150, #149 ) ;
#153 = CIRCLE ( 'NONE', #152, 10.75000000000000000 ) ;
#154 = FACE_OUTER_BOUND ( 'NONE', #308, .T. ) ;
#155 = DIRECTION ( 'NONE',  ( -1.000000000000000000, 0.0000000000000000000, 0.0000000000000000000 ) ) ;
#156 = DIRECTION ( 'NONE',  ( 0.0000000000000000000, 0.0000000000000000000, -1.000000000000000000 ) ) ;
#157 = AXIS2_PLACEMENT_3D ( 'NONE', #159, #156, #155 ) ;
#158 = CONICAL_SURFACE ( 'NONE', #157, 8.621924930635758600, 0.7853981633974511700 ) ;
#159 = CARTESIAN_POINT ( 'NONE',  ( 0.0000000000000000000, 0.0000000000000000000, -10.00000000000000400 ) ) ;
#160 = FACE_OUTER_BOUND ( 'NONE', #343, .T. ) ;
#161 = DIRECTION ( 'NONE',  ( 1.000000000000000000, 0.0000000000000000000, 0.0000000000000000000 ) ) ;
#162 = DIRECTION ( 'NONE',  ( -0.0000000000000000000, -0.0000000000000000000, 1.000000000000000000 ) ) ;
#163 = CARTESIAN_POINT ( 'NONE',  ( 0.0000000000000000000, 0.0000000000000000000, -0.2909249306356903600 ) ) ;
#164 = AXIS2_PLACEMENT_3D ( 'NONE', #163, #162, #161 ) ;
#165 = CARTESIAN_POINT ( 'NONE',  ( -10.75000000000000000, 1.316451830359055400E-015, 0.0000000000000000000 ) ) ;
#166 = CONICAL_SURFACE ( 'NONE', #164, 8.330999999999997700, 0.7853981633974530500 ) ;
#167 = FACE_OUTER_BOUND ( 'NONE', #43, .T. ) ;
#168 = DIRECTION ( 'NONE',  ( 1.000000000000000000, 0.0000000000000000000, 0.0000000000000000000 ) ) ;
#169 = DIRECTION ( 'NONE',  ( -0.0000000000000000000, -0.0000000000000000000, 1.000000000000000000 ) ) ;
#170 = CARTESIAN_POINT ( 'NONE',  ( 0.0000000000000000000, 0.0000000000000000000, -9.709075069364244500 ) ) ;
#171 = AXIS2_PLACEMENT_3D ( 'NONE', #170, #169, #168 ) ;
#172 = CIRCLE ( 'NONE', #171, 8.330999999999997700 ) ;
#173 = CARTESIAN_POINT ( 'NONE',  ( 1.020219553369422500E-015, -8.330999999999997700, -0.2909249306356903600 ) ) ;
#174 = DIRECTION ( 'NONE',  ( -1.000000000000000000, 0.0000000000000000000, -0.0000000000000000000 ) ) ;
#175 = CC_DESIGN_DATE_AND_TIME_ASSIGNMENT ( #177, #176, ( #184 ) ) ;
#176 = DATE_TIME_ROLE ( 'classification_date' ) ;
#177 = DATE_AND_TIME ( #178, #179 ) ;
#178 = CALENDAR_DATE ( 2015, 11, 8 ) ;
#179 = LOCAL_TIME ( 16, 13, 7.000000000000000000, #180 ) ;
#180 = COORDINATED_UNIVERSAL_TIME_OFFSET ( 1, 0, .AHEAD. ) ;
#181 = CC_DESIGN_PERSON_AND_ORGANIZATION_ASSIGNMENT ( #183, #182, ( #184 ) ) ;
#182 = PERSON_AND_ORGANIZATION_ROLE ( 'classification_officer' ) ;
#183 = PERSON_AND_ORGANIZATION ( #293, #292 ) ;
#184 = SECURITY_CLASSIFICATION ( '', '', #185 ) ;
#185 = SECURITY_CLASSIFICATION_LEVEL ( 'unclassified' ) ;
#186 = CC_DESIGN_PERSON_AND_ORGANIZATION_ASSIGNMENT ( #188, #187, ( #203 ) ) ;
#187 = PERSON_AND_ORGANIZATION_ROLE ( 'design_supplier' ) ;
#188 = PERSON_AND_ORGANIZATION ( #293, #292 ) ;
#189 = CC_DESIGN_PERSON_AND_ORGANIZATION_ASSIGNMENT ( #191, #190, ( #203 ) ) ;
#190 = PERSON_AND_ORGANIZATION_ROLE ( 'creator' ) ;
#191 = PERSON_AND_ORGANIZATION ( #293, #292 ) ;
#192 = CC_DESIGN_APPROVAL ( #200, ( #203 ) ) ;
#193 = APPROVAL_DATE_TIME ( #194, #200 ) ;
#194 = DATE_AND_TIME ( #195, #196 ) ;
#195 = CALENDAR_DATE ( 2015, 11, 8 ) ;
#196 = LOCAL_TIME ( 16, 13, 7.000000000000000000, #197 ) ;
#197 = COORDINATED_UNIVERSAL_TIME_OFFSET ( 1, 0, .AHEAD. ) ;
#198 = APPROVAL_PERSON_ORGANIZATION ( #202, #200, #199 ) ;
#199 = APPROVAL_ROLE ( '' ) ;
#200 = APPROVAL ( #201, 'UNSPECIFIED' ) ;
#201 = APPROVAL_STATUS ( 'not_yet_approved' ) ;
#202 = PERSON_AND_ORGANIZATION ( #293, #292 ) ;
#203 = PRODUCT_DEFINITION_FORMATION_WITH_SPECIFIED_SOURCE ( 'ANY', '', #294, .NOT_KNOWN. ) ;
#204 = CC_DESIGN_DATE_AND_TIME_ASSIGNMENT ( #206, #205, ( #250 ) ) ;
#205 = DATE_TIME_ROLE ( 'creation_date' ) ;
#206 = DATE_AND_TIME ( #233, #234 ) ;
#207 =( NAMED_UNIT ( * ) PLANE_ANGLE_UNIT ( ) SI_UNIT ( $, .RADIAN. ) );
#208 =( LENGTH_UNIT ( ) NAMED_UNIT ( * ) SI_UNIT ( .MILLI., .METRE. ) );
#209 = DIRECTION ( 'NONE',  ( 0.0000000000000000000, 0.0000000000000000000, -1.000000000000000000 ) ) ;
#210 = MECHANICAL_CONTEXT ( 'NONE', #291, 'mechanical' ) ;
#211 = APPLICATION_PROTOCOL_DEFINITION ( 'international standard', 'config_control_design', 1994, #291 ) ;
#212 = DIRECTION ( 'NONE',  ( -0.0000000000000000000, -0.0000000000000000000, 1.000000000000000000 ) ) ;
#213 = CARTESIAN_POINT ( 'NONE',  ( 0.0000000000000000000, 0.0000000000000000000, -10.00000000000000400 ) ) ;
#214 = AXIS2_PLACEMENT_3D ( 'NONE', #213, #212, #299 ) ;
#215 = CIRCLE ( 'NONE', #214, 10.75000000000000000 ) ;
#216 = CARTESIAN_POINT ( 'NONE',  ( 0.0000000000000000000, 0.0000000000000000000, -3.304181524652116200E-019 ) ) ;
#217 = CARTESIAN_POINT ( 'NONE',  ( 0.0000000000000000000, 0.0000000000000000000, 0.0000000000000000000 ) ) ;
#218 = AXIS2_PLACEMENT_3D ( 'NONE', #217, #220, #219 ) ;
#219 = DIRECTION ( 'NONE',  ( 1.000000000000000000, 0.0000000000000000000, 0.0000000000000000000 ) ) ;
#220 = DIRECTION ( 'NONE',  ( 0.0000000000000000000, 0.0000000000000000000, 1.000000000000000000 ) ) ;
#221 = ADVANCED_BREP_SHAPE_REPRESENTATION ( '11-0216-03_outokumpu', ( #20, #218 ), #222 ) ;
#222 =( GEOMETRIC_REPRESENTATION_CONTEXT ( 3 ) GLOBAL_UNCERTAINTY_ASSIGNED_CONTEXT ( ( #223 ) ) GLOBAL_UNIT_ASSIGNED_CONTEXT ( ( #208, #207, #224 ) ) REPRESENTATION_CONTEXT ( 'NONE', 'WORKASPACE' ) );
#223 = UNCERTAINTY_MEASURE_WITH_UNIT (LENGTH_MEASURE( 1.000000000000000100E-005 ), #208, 'distance_accuracy_value', 'NONE');
#224 =( NAMED_UNIT ( * ) SI_UNIT ( $, .STERADIAN. ) SOLID_ANGLE_UNIT ( ) );
#225 = DIRECTION ( 'NONE',  ( 1.000000000000000000, 0.0000000000000000000, 0.0000000000000000000 ) ) ;
#226 = DIRECTION ( 'NONE',  ( -0.0000000000000000000, -0.0000000000000000000, 1.000000000000000000 ) ) ;
#227 = AXIS2_PLACEMENT_3D ( 'NONE', #262, #226, #225 ) ;
#228 = CIRCLE ( 'NONE', #227, 8.330999999999997700 ) ;
#229 = DIRECTION ( 'NONE',  ( -0.0000000000000000000, -0.0000000000000000000, 1.000000000000000000 ) ) ;
#230 = CARTESIAN_POINT ( 'NONE',  ( 0.0000000000000000000, 0.0000000000000000000, -0.2909249306356903600 ) ) ;
#231 = AXIS2_PLACEMENT_3D ( 'NONE', #230, #229, #263 ) ;
#232 = CIRCLE ( 'NONE', #231, 8.330999999999997700 ) ;
#233 = CALENDAR_DATE ( 2015, 11, 8 ) ;
#234 = LOCAL_TIME ( 16, 13, 7.000000000000000000, #235 ) ;
#235 = COORDINATED_UNIVERSAL_TIME_OFFSET ( 1, 0, .AHEAD. ) ;
#236 = CC_DESIGN_PERSON_AND_ORGANIZATION_ASSIGNMENT ( #238, #237, ( #250 ) ) ;
#237 = PERSON_AND_ORGANIZATION_ROLE ( 'creator' ) ;
#238 = PERSON_AND_ORGANIZATION ( #293, #292 ) ;
#239 = CC_DESIGN_APPROVAL ( #247, ( #250 ) ) ;
#240 = APPROVAL_DATE_TIME ( #241, #247 ) ;
#241 = DATE_AND_TIME ( #242, #243 ) ;
#242 = CALENDAR_DATE ( 2015, 11, 8 ) ;
#243 = LOCAL_TIME ( 16, 13, 7.000000000000000000, #244 ) ;
#244 = COORDINATED_UNIVERSAL_TIME_OFFSET ( 1, 0, .AHEAD. ) ;
#245 = APPROVAL_PERSON_ORGANIZATION ( #249, #247, #246 ) ;
#246 = APPROVAL_ROLE ( '' ) ;
#247 = APPROVAL ( #248, 'UNSPECIFIED' ) ;
#248 = APPROVAL_STATUS ( 'not_yet_approved' ) ;
#249 = PERSON_AND_ORGANIZATION ( #293, #292 ) ;
#250 = PRODUCT_DEFINITION ( 'UNKNOWN', '', #203, #251 ) ;
#251 = DESIGN_CONTEXT ( 'detailed design', #253, 'design' ) ;
#252 = APPLICATION_PROTOCOL_DEFINITION ( 'international standard', 'config_control_design', 1994, #253 ) ;
#253 = APPLICATION_CONTEXT ( 'configuration controlled 3d designs of mechanical parts and assemblies' ) ;
#254 = CC_DESIGN_PERSON_AND_ORGANIZATION_ASSIGNMENT ( #256, #255, ( #294 ) ) ;
#255 = PERSON_AND_ORGANIZATION_ROLE ( 'design_owner' ) ;
#256 = PERSON_AND_ORGANIZATION ( #293, #292 ) ;
#257 = CARTESIAN_POINT ( 'NONE',  ( 0.0000000000000000000, 10.75000000000000000, -2.168404344971008900E-016 ) ) ;
#258 = DIRECTION ( 'NONE',  ( -0.0000000000000000000, -0.0000000000000000000, 1.000000000000000000 ) ) ;
#259 = CARTESIAN_POINT ( 'NONE',  ( 0.0000000000000000000, 0.0000000000000000000, -10.00000000000000400 ) ) ;
#260 = AXIS2_PLACEMENT_3D ( 'NONE', #259, #258, #268 ) ;
#261 = CIRCLE ( 'NONE', #260, 8.621924930635758600 ) ;
#262 = CARTESIAN_POINT ( 'NONE',  ( 0.0000000000000000000, 0.0000000000000000000, -9.709075069364244500 ) ) ;
#263 = DIRECTION ( 'NONE',  ( 1.000000000000000000, 0.0000000000000000000, 0.0000000000000000000 ) ) ;
#264 = DIRECTION ( 'NONE',  ( -0.0000000000000000000, 3.591911631868338900E-016, -1.000000000000000000 ) ) ;
#265 = VECTOR ( 'NONE', #264, 1000.000000000000000 ) ;
#266 = CARTESIAN_POINT ( 'NONE',  ( 0.0000000000000000000, 8.331000000000001300, -10.00000000000002800 ) ) ;
#267 = LINE ( 'NONE', #266, #265 ) ;
#268 = DIRECTION ( 'NONE',  ( 1.000000000000000000, 0.0000000000000000000, 0.0000000000000000000 ) ) ;
#269 = PRODUCT_DEFINITION_SHAPE ( 'NONE', 'NONE',  #250 ) ;
#270 = PRODUCT_RELATED_PRODUCT_CATEGORY ( 'detail', '', ( #294 ) ) ;
#271 = CC_DESIGN_SECURITY_CLASSIFICATION ( #184, ( #203 ) ) ;
#272 = CC_DESIGN_APPROVAL ( #280, ( #184 ) ) ;
#273 = APPROVAL_DATE_TIME ( #274, #280 ) ;
#274 = DATE_AND_TIME ( #275, #276 ) ;
#275 = CALENDAR_DATE ( 2015, 11, 8 ) ;
#276 = LOCAL_TIME ( 16, 13, 7.000000000000000000, #277 ) ;
#277 = COORDINATED_UNIVERSAL_TIME_OFFSET ( 1, 0, .AHEAD. ) ;
#278 = APPROVAL_PERSON_ORGANIZATION ( #282, #280, #279 ) ;
#279 = APPROVAL_ROLE ( '' ) ;
#280 = APPROVAL ( #281, 'UNSPECIFIED' ) ;
#281 = APPROVAL_STATUS ( 'not_yet_approved' ) ;
#282 = PERSON_AND_ORGANIZATION ( #293, #292 ) ;
#283 = DIRECTION ( 'NONE',  ( 1.000000000000000000, 0.0000000000000000000, 0.0000000000000000000 ) ) ;
#284 = DIRECTION ( 'NONE',  ( -0.0000000000000000000, -0.0000000000000000000, 1.000000000000000000 ) ) ;
#285 = CARTESIAN_POINT ( 'NONE',  ( 0.0000000000000000000, 0.0000000000000000000, -0.2909249306356903600 ) ) ;
#286 = AXIS2_PLACEMENT_3D ( 'NONE', #285, #284, #283 ) ;
#287 = CARTESIAN_POINT ( 'NONE',  ( 0.0000000000000000000, 8.330999999999997700, -0.2909249306356903600 ) ) ;
#288 = CONICAL_SURFACE ( 'NONE', #286, 8.330999999999997700, 0.7853981633974530500 ) ;
#289 = FACE_OUTER_BOUND ( 'NONE', #303, .T. ) ;
#290 = SHAPE_DEFINITION_REPRESENTATION ( #269, #221 ) ;
#291 = APPLICATION_CONTEXT ( 'configuration controlled 3d designs of mechanical parts and assemblies' ) ;
#292 = ORGANIZATION ( 'UNSPECIFIED', 'UNSPECIFIED', '' ) ;
#293 = PERSON ( 'UNSPECIFIED', 'UNSPECIFIED', 'UNSPECIFIED', ('UNSPECIFIED'), ('UNSPECIFIED'), ('UNSPECIFIED') ) ;
#294 = PRODUCT ( '11-0216-03_outokumpu', '11-0216-03_outokumpu', '', ( #210 ) ) ;
#295 = DIRECTION ( 'NONE',  ( 1.000000000000000000, 0.0000000000000000000, 0.0000000000000000000 ) ) ;
#296 = DIRECTION ( 'NONE',  ( -0.0000000000000000000, -0.0000000000000000000, 1.000000000000000000 ) ) ;
#297 = AXIS2_PLACEMENT_3D ( 'NONE', #216, #296, #295 ) ;
#298 = CIRCLE ( 'NONE', #297, 8.621924930635691100 ) ;
#299 = DIRECTION ( 'NONE',  ( 1.000000000000000000, 0.0000000000000000000, 0.0000000000000000000 ) ) ;
#300 = ORIENTED_EDGE ( 'NONE', *, *, #39, .T. ) ;
#301 = EDGE_LOOP ( 'NONE', ( #306, #339 ) ) ;
#302 = ADVANCED_FACE ( 'NONE', ( #160 ), #158, .F. ) ;
#303 = EDGE_LOOP ( 'NONE', ( #361, #362, #363, #364, #365 ) ) ;
#304 = ORIENTED_EDGE ( 'NONE', *, *, #336, .F. ) ;
#305 = EDGE_CURVE ( 'NONE', #69, #6, #153, .T. ) ;
#306 = ORIENTED_EDGE ( 'NONE', *, *, #338, .F. ) ;
#307 = ADVANCED_FACE ( 'NONE', ( #154 ), #102, .T. ) ;
#308 = EDGE_LOOP ( 'NONE', ( #334, #335, #332, #333 ) ) ;
#309 = ORIENTED_EDGE ( 'NONE', *, *, #31, .T. ) ;
#310 = EDGE_LOOP ( 'NONE', ( #340, #359 ) ) ;
#311 = ADVANCED_FACE ( 'NONE', ( #101, #96 ), #94, .F. ) ;
#312 = EDGE_CURVE ( 'NONE', #368, #63, #232, .T. ) ;
#313 = CARTESIAN_POINT ( 'NONE',  ( 1.020219553369422500E-015, -8.330999999999997700, -9.709075069364244500 ) ) ;
#314 = CARTESIAN_POINT ( 'NONE',  ( 10.75000000000000000, 0.0000000000000000000, 0.0000000000000000000 ) ) ;
#315 = DIRECTION ( 'NONE',  ( 0.0000000000000000000, 1.000000000000000000, 4.164502403017181400E-016 ) ) ;
#316 = DIRECTION ( 'NONE',  ( -0.0000000000000000000, 3.591911631868338900E-016, -1.000000000000000000 ) ) ;
#317 = AXIS2_PLACEMENT_3D ( 'NONE', #320, #316, #315 ) ;
#318 = CYLINDRICAL_SURFACE ( 'NONE', #317, 8.331000000000001300 ) ;
#319 = CARTESIAN_POINT ( 'NONE',  ( 8.330999999999997700, 1.038032979296516600E-015, -9.709075069364244500 ) ) ;
#320 = CARTESIAN_POINT ( 'NONE',  ( 0.0000000000000000000, 1.224646799147350500E-016, -10.00000000000003200 ) ) ;
#321 = DIRECTION ( 'NONE',  ( 1.000000000000000000, 0.0000000000000000000, 0.0000000000000000000 ) ) ;
#322 = DIRECTION ( 'NONE',  ( -0.0000000000000000000, -0.0000000000000000000, 1.000000000000000000 ) ) ;
#323 = ORIENTED_EDGE ( 'NONE', *, *, #324, .T. ) ;
#324 = EDGE_CURVE ( 'NONE', #29, #38, #228, .T. ) ;
#325 = CLOSED_SHELL ( 'NONE', ( #11, #67, #51, #4, #36, #28, #311, #307, #360, #302 ) ) ;
#326 = EDGE_CURVE ( 'NONE', #14, #41, #261, .T. ) ;
#327 = EDGE_CURVE ( 'NONE', #368, #29, #267, .T. ) ;
#328 = CARTESIAN_POINT ( 'NONE',  ( 0.0000000000000000000, 0.0000000000000000000, 0.0000000000000000000 ) ) ;
#329 = AXIS2_PLACEMENT_3D ( 'NONE', #328, #322, #321 ) ;
#330 = CIRCLE ( 'NONE', #329, 10.75000000000000000 ) ;
#331 = FACE_OUTER_BOUND ( 'NONE', #8, .T. ) ;
#332 = ORIENTED_EDGE ( 'NONE', *, *, #9, .T. ) ;
#333 = ORIENTED_EDGE ( 'NONE', *, *, #305, .F. ) ;
#334 = ORIENTED_EDGE ( 'NONE', *, *, #47, .F. ) ;
#335 = ORIENTED_EDGE ( 'NONE', *, *, #336, .T. ) ;
#336 = EDGE_CURVE ( 'NONE', #48, #44, #215, .T. ) ;
#337 = EDGE_LOOP ( 'NONE', ( #341, #342 ) ) ;
#338 = EDGE_CURVE ( 'NONE', #59, #60, #298, .T. ) ;
#339 = ORIENTED_EDGE ( 'NONE', *, *, #56, .F. ) ;
#340 = ORIENTED_EDGE ( 'NONE', *, *, #42, .T. ) ;
#341 = ORIENTED_EDGE ( 'NONE', *, *, #3, .T. ) ;
#342 = ORIENTED_EDGE ( 'NONE', *, *, #305, .T. ) ;
#343 = EDGE_LOOP ( 'NONE', ( #344, #309, #323, #300, #366 ) ) ;
#344 = ORIENTED_EDGE ( 'NONE', *, *, #22, .F. ) ;
#345 = DIRECTION ( 'NONE',  ( 1.000000000000000000, 0.0000000000000000000, 0.0000000000000000000 ) ) ;
#346 = DIRECTION ( 'NONE',  ( -0.0000000000000000000, -0.0000000000000000000, 1.000000000000000000 ) ) ;
#347 = CARTESIAN_POINT ( 'NONE',  ( 0.0000000000000000000, 0.0000000000000000000, -0.2909249306356903600 ) ) ;
#348 = AXIS2_PLACEMENT_3D ( 'NONE', #347, #346, #345 ) ;
#349 = CIRCLE ( 'NONE', #348, 8.330999999999997700 ) ;
#350 = CARTESIAN_POINT ( 'NONE',  ( 0.0000000000000000000, 8.330999999999997700, -9.709075069364244500 ) ) ;
#351 = DIRECTION ( 'NONE',  ( 1.000000000000000000, 0.0000000000000000000, 0.0000000000000000000 ) ) ;
#352 = DIRECTION ( 'NONE',  ( 0.0000000000000000000, -0.0000000000000000000, 1.000000000000000000 ) ) ;
#353 = AXIS2_PLACEMENT_3D ( 'NONE', #354, #352, #351 ) ;
#354 = CARTESIAN_POINT ( 'NONE',  ( 0.0000000000000000000, 10.75000000000000000, -10.00000000000000200 ) ) ;
#355 = PLANE ( 'NONE',  #353 ) ;
#356 = FACE_BOUND ( 'NONE', #310, .T. ) ;
#357 = ORIENTED_EDGE ( 'NONE', *, *, #327, .F. ) ;
#358 = ORIENTED_EDGE ( 'NONE', *, *, #46, .F. ) ;
#359 = ORIENTED_EDGE ( 'NONE', *, *, #326, .T. ) ;
#360 = ADVANCED_FACE ( 'NONE', ( #289 ), #288, .F. ) ;
#361 = ORIENTED_EDGE ( 'NONE', *, *, #61, .F. ) ;
#362 = ORIENTED_EDGE ( 'NONE', *, *, #312, .F. ) ;
#363 = ORIENTED_EDGE ( 'NONE', *, *, #30, .F. ) ;
#364 = ORIENTED_EDGE ( 'NONE', *, *, #53, .T. ) ;
#365 = ORIENTED_EDGE ( 'NONE', *, *, #338, .T. ) ;
#366 = ORIENTED_EDGE ( 'NONE', *, *, #326, .F. ) ;
#367 = ORIENTED_EDGE ( 'NONE', *, *, #312, .T. ) ;
#368 = VERTEX_POINT ( 'NONE', #287 ) ;
#369 = FACE_OUTER_BOUND ( 'NONE', #16, .T. ) ;
#370 = DIRECTION ( 'NONE',  ( 0.7071067811865495700, 8.659274570719380100E-017, -0.7071067811865454600 ) ) ;
#371 = VECTOR ( 'NONE', #370, 1000.000000000000000 ) ;
#372 = CARTESIAN_POINT ( 'NONE',  ( 8.621924930635758600, 1.055846405223611000E-015, -10.00000000000000400 ) ) ;
#373 = LINE ( 'NONE', #372, #371 ) ;
#374 = CARTESIAN_POINT ( 'NONE',  ( 8.621924930635758600, 1.055846405223611000E-015, -10.00000000000000400 ) ) ;
#375 = DIRECTION ( 'NONE',  ( 1.000000000000000000, 0.0000000000000000000, 0.0000000000000000000 ) ) ;
#376 = DIRECTION ( 'NONE',  ( -0.0000000000000000000, -0.0000000000000000000, 1.000000000000000000 ) ) ;
#377 = CARTESIAN_POINT ( 'NONE',  ( 0.0000000000000000000, 0.0000000000000000000, -9.709075069364244500 ) ) ;
#378 = AXIS2_PLACEMENT_3D ( 'NONE', #377, #376, #375 ) ;
#379 = CIRCLE ( 'NONE', #378, 8.330999999999997700 ) ;
#380 = DIRECTION ( 'NONE',  ( -1.000000000000000000, 0.0000000000000000000, 0.0000000000000000000 ) ) ;
#381 = DIRECTION ( 'NONE',  ( 0.0000000000000000000, 0.0000000000000000000, -1.000000000000000000 ) ) ;
#382 = CARTESIAN_POINT ( 'NONE',  ( 0.0000000000000000000, 0.0000000000000000000, -10.00000000000000400 ) ) ;
#383 = AXIS2_PLACEMENT_3D ( 'NONE', #382, #381, #380 ) ;
#384 = CONICAL_SURFACE ( 'NONE', #383, 8.621924930635758600, 0.7853981633974511700 ) ;
#385 = FACE_OUTER_BOUND ( 'NONE', #21, .T. ) ;
#386 = DIRECTION ( 'NONE',  ( -0.0000000000000000000, -0.0000000000000000000, 1.000000000000000000 ) ) ;
#387 = VECTOR ( 'NONE', #386, 1000.000000000000000 ) ;
#388 = CARTESIAN_POINT ( 'NONE',  ( 10.75000000000000000, 0.0000000000000000000, -4.336808689942017700E-016 ) ) ;
#389 = LINE ( 'NONE', #388, #387 ) ;
ENDSEC;
END-ISO-10303-21;
