ISO-10303-21;
HEADER;
/* Generated by software containing ST-Developer
 * from STEP Tools, Inc. (www.steptools.com) 
 */
/* OPTION: strings as raw bytes, not using required /X/ escapes */

FILE_DESCRIPTION(
/* description */ ('Unknown'),
/* implementation_level */ '2;1');

FILE_NAME(
/* name */ '11047',
/* time_stamp */ '2019-06-13T15:28:38+02:00',
/* author */ ('Unknown'),
/* organization */ ('Unknown'),
/* preprocessor_version */ 'ST-DEVELOPER v16.7',
/* originating_system */ 'DEX',
/* authorisation */ $);

FILE_SCHEMA (('AUTOMOTIVE_DESIGN {1 0 10303 214 3 1 1}'));
ENDSEC;

DATA;
#10=PROPERTY_DEFINITION_REPRESENTATION(#14,#12);
#11=PROPERTY_DEFINITION_REPRESENTATION(#15,#13);
#12=REPRESENTATION('',(#16),#665);
#13=REPRESENTATION('',(#17),#665);
#14=PROPERTY_DEFINITION('pmi validation property','',#670);
#15=PROPERTY_DEFINITION('pmi validation property','',#670);
#16=VALUE_REPRESENTATION_ITEM('number of annotations',COUNT_MEASURE(0.));
#17=VALUE_REPRESENTATION_ITEM('number of views',COUNT_MEASURE(0.));
#18=SHAPE_REPRESENTATION_RELATIONSHIP('','',#399,#19);
#19=ADVANCED_BREP_SHAPE_REPRESENTATION('',(#397),#665);
#20=CYLINDRICAL_SURFACE('',#427,4.);
#21=CYLINDRICAL_SURFACE('',#429,41.5);
#22=CYLINDRICAL_SURFACE('',#431,4.);
#23=CYLINDRICAL_SURFACE('',#432,7.);
#24=CYLINDRICAL_SURFACE('',#434,38.5);
#25=CYLINDRICAL_SURFACE('',#436,7.);
#26=CYLINDRICAL_SURFACE('',#437,6.);
#27=CYLINDRICAL_SURFACE('',#438,6.);
#28=CYLINDRICAL_SURFACE('',#439,30.);
#29=CYLINDRICAL_SURFACE('',#440,30.);
#30=CIRCLE('',#402,4.);
#31=CIRCLE('',#403,41.5);
#32=CIRCLE('',#404,4.);
#33=CIRCLE('',#405,7.);
#34=CIRCLE('',#406,38.5);
#35=CIRCLE('',#407,7.);
#36=CIRCLE('',#409,7.);
#37=CIRCLE('',#410,38.5);
#38=CIRCLE('',#411,7.);
#39=CIRCLE('',#412,4.);
#40=CIRCLE('',#413,41.5);
#41=CIRCLE('',#414,4.);
#42=CIRCLE('',#416,6.);
#43=CIRCLE('',#417,30.);
#44=CIRCLE('',#419,6.);
#45=CIRCLE('',#420,30.);
#46=CIRCLE('',#422,6.);
#47=CIRCLE('',#423,30.);
#48=CIRCLE('',#425,6.);
#49=CIRCLE('',#426,30.);
#50=ORIENTED_EDGE('',*,*,#154,.F.);
#51=ORIENTED_EDGE('',*,*,#155,.T.);
#52=ORIENTED_EDGE('',*,*,#156,.T.);
#53=ORIENTED_EDGE('',*,*,#157,.T.);
#54=ORIENTED_EDGE('',*,*,#158,.T.);
#55=ORIENTED_EDGE('',*,*,#159,.T.);
#56=ORIENTED_EDGE('',*,*,#160,.T.);
#57=ORIENTED_EDGE('',*,*,#161,.T.);
#58=ORIENTED_EDGE('',*,*,#162,.T.);
#59=ORIENTED_EDGE('',*,*,#163,.T.);
#60=ORIENTED_EDGE('',*,*,#164,.F.);
#61=ORIENTED_EDGE('',*,*,#165,.F.);
#62=ORIENTED_EDGE('',*,*,#166,.F.);
#63=ORIENTED_EDGE('',*,*,#167,.F.);
#64=ORIENTED_EDGE('',*,*,#168,.F.);
#65=ORIENTED_EDGE('',*,*,#169,.F.);
#66=ORIENTED_EDGE('',*,*,#170,.F.);
#67=ORIENTED_EDGE('',*,*,#171,.T.);
#68=ORIENTED_EDGE('',*,*,#172,.T.);
#69=ORIENTED_EDGE('',*,*,#173,.T.);
#70=ORIENTED_EDGE('',*,*,#174,.T.);
#71=ORIENTED_EDGE('',*,*,#175,.T.);
#72=ORIENTED_EDGE('',*,*,#176,.T.);
#73=ORIENTED_EDGE('',*,*,#177,.T.);
#74=ORIENTED_EDGE('',*,*,#178,.T.);
#75=ORIENTED_EDGE('',*,*,#179,.T.);
#76=ORIENTED_EDGE('',*,*,#180,.F.);
#77=ORIENTED_EDGE('',*,*,#181,.F.);
#78=ORIENTED_EDGE('',*,*,#182,.F.);
#79=ORIENTED_EDGE('',*,*,#183,.F.);
#80=ORIENTED_EDGE('',*,*,#184,.F.);
#81=ORIENTED_EDGE('',*,*,#185,.F.);
#82=ORIENTED_EDGE('',*,*,#186,.T.);
#83=ORIENTED_EDGE('',*,*,#187,.F.);
#84=ORIENTED_EDGE('',*,*,#170,.T.);
#85=ORIENTED_EDGE('',*,*,#188,.F.);
#86=ORIENTED_EDGE('',*,*,#156,.F.);
#87=ORIENTED_EDGE('',*,*,#189,.F.);
#88=ORIENTED_EDGE('',*,*,#172,.F.);
#89=ORIENTED_EDGE('',*,*,#190,.T.);
#90=ORIENTED_EDGE('',*,*,#154,.T.);
#91=ORIENTED_EDGE('',*,*,#191,.T.);
#92=ORIENTED_EDGE('',*,*,#192,.T.);
#93=ORIENTED_EDGE('',*,*,#180,.T.);
#94=ORIENTED_EDGE('',*,*,#193,.F.);
#95=ORIENTED_EDGE('',*,*,#162,.F.);
#96=ORIENTED_EDGE('',*,*,#194,.T.);
#97=ORIENTED_EDGE('',*,*,#195,.F.);
#98=ORIENTED_EDGE('',*,*,#196,.T.);
#99=ORIENTED_EDGE('',*,*,#178,.F.);
#100=ORIENTED_EDGE('',*,*,#197,.F.);
#101=ORIENTED_EDGE('',*,*,#164,.T.);
#102=ORIENTED_EDGE('',*,*,#185,.T.);
#103=ORIENTED_EDGE('',*,*,#198,.F.);
#104=ORIENTED_EDGE('',*,*,#157,.F.);
#105=ORIENTED_EDGE('',*,*,#188,.T.);
#106=ORIENTED_EDGE('',*,*,#184,.T.);
#107=ORIENTED_EDGE('',*,*,#199,.F.);
#108=ORIENTED_EDGE('',*,*,#158,.F.);
#109=ORIENTED_EDGE('',*,*,#198,.T.);
#110=ORIENTED_EDGE('',*,*,#183,.T.);
#111=ORIENTED_EDGE('',*,*,#200,.F.);
#112=ORIENTED_EDGE('',*,*,#159,.F.);
#113=ORIENTED_EDGE('',*,*,#199,.T.);
#114=ORIENTED_EDGE('',*,*,#182,.T.);
#115=ORIENTED_EDGE('',*,*,#201,.F.);
#116=ORIENTED_EDGE('',*,*,#160,.F.);
#117=ORIENTED_EDGE('',*,*,#200,.T.);
#118=ORIENTED_EDGE('',*,*,#181,.T.);
#119=ORIENTED_EDGE('',*,*,#194,.F.);
#120=ORIENTED_EDGE('',*,*,#161,.F.);
#121=ORIENTED_EDGE('',*,*,#201,.T.);
#122=ORIENTED_EDGE('',*,*,#173,.F.);
#123=ORIENTED_EDGE('',*,*,#191,.F.);
#124=ORIENTED_EDGE('',*,*,#169,.T.);
#125=ORIENTED_EDGE('',*,*,#202,.T.);
#126=ORIENTED_EDGE('',*,*,#174,.F.);
#127=ORIENTED_EDGE('',*,*,#202,.F.);
#128=ORIENTED_EDGE('',*,*,#168,.T.);
#129=ORIENTED_EDGE('',*,*,#203,.T.);
#130=ORIENTED_EDGE('',*,*,#175,.F.);
#131=ORIENTED_EDGE('',*,*,#203,.F.);
#132=ORIENTED_EDGE('',*,*,#167,.T.);
#133=ORIENTED_EDGE('',*,*,#204,.T.);
#134=ORIENTED_EDGE('',*,*,#176,.F.);
#135=ORIENTED_EDGE('',*,*,#204,.F.);
#136=ORIENTED_EDGE('',*,*,#166,.T.);
#137=ORIENTED_EDGE('',*,*,#205,.T.);
#138=ORIENTED_EDGE('',*,*,#177,.F.);
#139=ORIENTED_EDGE('',*,*,#205,.F.);
#140=ORIENTED_EDGE('',*,*,#165,.T.);
#141=ORIENTED_EDGE('',*,*,#197,.T.);
#142=ORIENTED_EDGE('',*,*,#195,.T.);
#143=ORIENTED_EDGE('',*,*,#192,.F.);
#144=ORIENTED_EDGE('',*,*,#189,.T.);
#145=ORIENTED_EDGE('',*,*,#186,.F.);
#146=ORIENTED_EDGE('',*,*,#193,.T.);
#147=ORIENTED_EDGE('',*,*,#179,.F.);
#148=ORIENTED_EDGE('',*,*,#196,.F.);
#149=ORIENTED_EDGE('',*,*,#163,.F.);
#150=ORIENTED_EDGE('',*,*,#190,.F.);
#151=ORIENTED_EDGE('',*,*,#171,.F.);
#152=ORIENTED_EDGE('',*,*,#187,.T.);
#153=ORIENTED_EDGE('',*,*,#155,.F.);
#154=EDGE_CURVE('',#206,#207,#242,.T.);
#155=EDGE_CURVE('',#206,#208,#243,.F.);
#156=EDGE_CURVE('',#208,#209,#244,.T.);
#157=EDGE_CURVE('',#209,#210,#30,.T.);
#158=EDGE_CURVE('',#210,#211,#245,.T.);
#159=EDGE_CURVE('',#211,#212,#31,.F.);
#160=EDGE_CURVE('',#212,#213,#246,.T.);
#161=EDGE_CURVE('',#213,#214,#32,.T.);
#162=EDGE_CURVE('',#214,#215,#247,.T.);
#163=EDGE_CURVE('',#215,#216,#248,.T.);
#164=EDGE_CURVE('',#217,#216,#249,.T.);
#165=EDGE_CURVE('',#218,#217,#33,.F.);
#166=EDGE_CURVE('',#219,#218,#250,.T.);
#167=EDGE_CURVE('',#220,#219,#34,.T.);
#168=EDGE_CURVE('',#221,#220,#251,.T.);
#169=EDGE_CURVE('',#207,#221,#35,.F.);
#170=EDGE_CURVE('',#222,#223,#252,.T.);
#171=EDGE_CURVE('',#222,#224,#253,.T.);
#172=EDGE_CURVE('',#224,#225,#254,.T.);
#173=EDGE_CURVE('',#225,#226,#36,.F.);
#174=EDGE_CURVE('',#226,#227,#255,.T.);
#175=EDGE_CURVE('',#227,#228,#37,.T.);
#176=EDGE_CURVE('',#228,#229,#256,.T.);
#177=EDGE_CURVE('',#229,#230,#38,.F.);
#178=EDGE_CURVE('',#230,#231,#257,.T.);
#179=EDGE_CURVE('',#231,#232,#258,.F.);
#180=EDGE_CURVE('',#233,#232,#259,.T.);
#181=EDGE_CURVE('',#234,#233,#39,.T.);
#182=EDGE_CURVE('',#235,#234,#260,.T.);
#183=EDGE_CURVE('',#236,#235,#40,.F.);
#184=EDGE_CURVE('',#237,#236,#261,.T.);
#185=EDGE_CURVE('',#223,#237,#41,.T.);
#186=EDGE_CURVE('',#238,#238,#42,.T.);
#187=EDGE_CURVE('',#222,#208,#43,.T.);
#188=EDGE_CURVE('',#209,#223,#262,.T.);
#189=EDGE_CURVE('',#239,#239,#44,.T.);
#190=EDGE_CURVE('',#224,#206,#45,.T.);
#191=EDGE_CURVE('',#207,#225,#263,.T.);
#192=EDGE_CURVE('',#240,#240,#46,.T.);
#193=EDGE_CURVE('',#215,#232,#47,.T.);
#194=EDGE_CURVE('',#214,#233,#264,.T.);
#195=EDGE_CURVE('',#241,#241,#48,.T.);
#196=EDGE_CURVE('',#216,#231,#49,.T.);
#197=EDGE_CURVE('',#217,#230,#265,.T.);
#198=EDGE_CURVE('',#210,#237,#266,.T.);
#199=EDGE_CURVE('',#211,#236,#267,.T.);
#200=EDGE_CURVE('',#212,#235,#268,.T.);
#201=EDGE_CURVE('',#213,#234,#269,.T.);
#202=EDGE_CURVE('',#221,#226,#270,.T.);
#203=EDGE_CURVE('',#220,#227,#271,.T.);
#204=EDGE_CURVE('',#219,#228,#272,.T.);
#205=EDGE_CURVE('',#218,#229,#273,.T.);
#206=VERTEX_POINT('',#558);
#207=VERTEX_POINT('',#559);
#208=VERTEX_POINT('',#561);
#209=VERTEX_POINT('',#563);
#210=VERTEX_POINT('',#565);
#211=VERTEX_POINT('',#567);
#212=VERTEX_POINT('',#569);
#213=VERTEX_POINT('',#571);
#214=VERTEX_POINT('',#573);
#215=VERTEX_POINT('',#575);
#216=VERTEX_POINT('',#577);
#217=VERTEX_POINT('',#579);
#218=VERTEX_POINT('',#581);
#219=VERTEX_POINT('',#583);
#220=VERTEX_POINT('',#585);
#221=VERTEX_POINT('',#587);
#222=VERTEX_POINT('',#591);
#223=VERTEX_POINT('',#592);
#224=VERTEX_POINT('',#594);
#225=VERTEX_POINT('',#596);
#226=VERTEX_POINT('',#598);
#227=VERTEX_POINT('',#600);
#228=VERTEX_POINT('',#602);
#229=VERTEX_POINT('',#604);
#230=VERTEX_POINT('',#606);
#231=VERTEX_POINT('',#608);
#232=VERTEX_POINT('',#610);
#233=VERTEX_POINT('',#612);
#234=VERTEX_POINT('',#614);
#235=VERTEX_POINT('',#616);
#236=VERTEX_POINT('',#618);
#237=VERTEX_POINT('',#620);
#238=VERTEX_POINT('',#624);
#239=VERTEX_POINT('',#629);
#240=VERTEX_POINT('',#634);
#241=VERTEX_POINT('',#639);
#242=LINE('',#557,#274);
#243=LINE('',#560,#275);
#244=LINE('',#562,#276);
#245=LINE('',#566,#277);
#246=LINE('',#570,#278);
#247=LINE('',#574,#279);
#248=LINE('',#576,#280);
#249=LINE('',#578,#281);
#250=LINE('',#582,#282);
#251=LINE('',#586,#283);
#252=LINE('',#590,#284);
#253=LINE('',#593,#285);
#254=LINE('',#595,#286);
#255=LINE('',#599,#287);
#256=LINE('',#603,#288);
#257=LINE('',#607,#289);
#258=LINE('',#609,#290);
#259=LINE('',#611,#291);
#260=LINE('',#615,#292);
#261=LINE('',#619,#293);
#262=LINE('',#626,#294);
#263=LINE('',#631,#295);
#264=LINE('',#636,#296);
#265=LINE('',#641,#297);
#266=LINE('',#643,#298);
#267=LINE('',#645,#299);
#268=LINE('',#647,#300);
#269=LINE('',#649,#301);
#270=LINE('',#652,#302);
#271=LINE('',#654,#303);
#272=LINE('',#656,#304);
#273=LINE('',#658,#305);
#274=VECTOR('',#445,1000.);
#275=VECTOR('',#446,1000.);
#276=VECTOR('',#447,1000.);
#277=VECTOR('',#450,1000.);
#278=VECTOR('',#453,1000.);
#279=VECTOR('',#456,1000.);
#280=VECTOR('',#457,1000.);
#281=VECTOR('',#458,1000.);
#282=VECTOR('',#461,1000.);
#283=VECTOR('',#464,1000.);
#284=VECTOR('',#469,1000.);
#285=VECTOR('',#470,1000.);
#286=VECTOR('',#471,1000.);
#287=VECTOR('',#474,1000.);
#288=VECTOR('',#477,1000.);
#289=VECTOR('',#480,1000.);
#290=VECTOR('',#481,1000.);
#291=VECTOR('',#482,1000.);
#292=VECTOR('',#485,1000.);
#293=VECTOR('',#488,1000.);
#294=VECTOR('',#497,1000.);
#295=VECTOR('',#504,1000.);
#296=VECTOR('',#511,1000.);
#297=VECTOR('',#518,1000.);
#298=VECTOR('',#521,1000.);
#299=VECTOR('',#524,1000.);
#300=VECTOR('',#527,1000.);
#301=VECTOR('',#530,1000.);
#302=VECTOR('',#535,1000.);
#303=VECTOR('',#538,1000.);
#304=VECTOR('',#541,1000.);
#305=VECTOR('',#544,1000.);
#306=EDGE_LOOP('',(#50,#51,#52,#53,#54,#55,#56,#57,#58,#59,#60,#61,#62,
#63,#64,#65));
#307=EDGE_LOOP('',(#66,#67,#68,#69,#70,#71,#72,#73,#74,#75,#76,#77,#78,
#79,#80,#81));
#308=EDGE_LOOP('',(#82));
#309=EDGE_LOOP('',(#83,#84,#85,#86));
#310=EDGE_LOOP('',(#87));
#311=EDGE_LOOP('',(#88,#89,#90,#91));
#312=EDGE_LOOP('',(#92));
#313=EDGE_LOOP('',(#93,#94,#95,#96));
#314=EDGE_LOOP('',(#97));
#315=EDGE_LOOP('',(#98,#99,#100,#101));
#316=EDGE_LOOP('',(#102,#103,#104,#105));
#317=EDGE_LOOP('',(#106,#107,#108,#109));
#318=EDGE_LOOP('',(#110,#111,#112,#113));
#319=EDGE_LOOP('',(#114,#115,#116,#117));
#320=EDGE_LOOP('',(#118,#119,#120,#121));
#321=EDGE_LOOP('',(#122,#123,#124,#125));
#322=EDGE_LOOP('',(#126,#127,#128,#129));
#323=EDGE_LOOP('',(#130,#131,#132,#133));
#324=EDGE_LOOP('',(#134,#135,#136,#137));
#325=EDGE_LOOP('',(#138,#139,#140,#141));
#326=EDGE_LOOP('',(#142));
#327=EDGE_LOOP('',(#143));
#328=EDGE_LOOP('',(#144));
#329=EDGE_LOOP('',(#145));
#330=EDGE_LOOP('',(#146,#147,#148,#149));
#331=EDGE_LOOP('',(#150,#151,#152,#153));
#332=FACE_BOUND('',#306,.T.);
#333=FACE_BOUND('',#307,.T.);
#334=FACE_BOUND('',#308,.T.);
#335=FACE_BOUND('',#309,.T.);
#336=FACE_BOUND('',#310,.T.);
#337=FACE_BOUND('',#311,.T.);
#338=FACE_BOUND('',#312,.T.);
#339=FACE_BOUND('',#313,.T.);
#340=FACE_BOUND('',#314,.T.);
#341=FACE_BOUND('',#315,.T.);
#342=FACE_BOUND('',#316,.T.);
#343=FACE_BOUND('',#317,.T.);
#344=FACE_BOUND('',#318,.T.);
#345=FACE_BOUND('',#319,.T.);
#346=FACE_BOUND('',#320,.T.);
#347=FACE_BOUND('',#321,.T.);
#348=FACE_BOUND('',#322,.T.);
#349=FACE_BOUND('',#323,.T.);
#350=FACE_BOUND('',#324,.T.);
#351=FACE_BOUND('',#325,.T.);
#352=FACE_BOUND('',#326,.T.);
#353=FACE_BOUND('',#327,.T.);
#354=FACE_BOUND('',#328,.T.);
#355=FACE_BOUND('',#329,.T.);
#356=FACE_BOUND('',#330,.T.);
#357=FACE_BOUND('',#331,.T.);
#358=PLANE('',#401);
#359=PLANE('',#408);
#360=PLANE('',#415);
#361=PLANE('',#418);
#362=PLANE('',#421);
#363=PLANE('',#424);
#364=PLANE('',#428);
#365=PLANE('',#430);
#366=PLANE('',#433);
#367=PLANE('',#435);
#368=ADVANCED_FACE('',(#332),#358,.T.);
#369=ADVANCED_FACE('',(#333),#359,.T.);
#370=ADVANCED_FACE('',(#334,#335),#360,.F.);
#371=ADVANCED_FACE('',(#336,#337),#361,.T.);
#372=ADVANCED_FACE('',(#338,#339),#362,.F.);
#373=ADVANCED_FACE('',(#340,#341),#363,.T.);
#374=ADVANCED_FACE('',(#342),#20,.F.);
#375=ADVANCED_FACE('',(#343),#364,.F.);
#376=ADVANCED_FACE('',(#344),#21,.T.);
#377=ADVANCED_FACE('',(#345),#365,.F.);
#378=ADVANCED_FACE('',(#346),#22,.F.);
#379=ADVANCED_FACE('',(#347),#23,.T.);
#380=ADVANCED_FACE('',(#348),#366,.T.);
#381=ADVANCED_FACE('',(#349),#24,.F.);
#382=ADVANCED_FACE('',(#350),#367,.T.);
#383=ADVANCED_FACE('',(#351),#25,.T.);
#384=ADVANCED_FACE('',(#352,#353),#26,.F.);
#385=ADVANCED_FACE('',(#354,#355),#27,.F.);
#386=ADVANCED_FACE('',(#356),#28,.T.);
#387=ADVANCED_FACE('',(#357),#29,.T.);
#388=CLOSED_SHELL('',(#368,#369,#370,#371,#372,#373,#374,#375,#376,#377,
#378,#379,#380,#381,#382,#383,#384,#385,#386,#387));
#389=STYLED_ITEM('',(#390),#397);
#390=PRESENTATION_STYLE_ASSIGNMENT((#391));
#391=SURFACE_STYLE_USAGE(.BOTH.,#392);
#392=SURFACE_SIDE_STYLE('',(#393));
#393=SURFACE_STYLE_FILL_AREA(#394);
#394=FILL_AREA_STYLE('',(#395));
#395=FILL_AREA_STYLE_COLOUR('',#396);
#396=COLOUR_RGB('',0.331739127635956,0.340869575738907,0.349999994039536);
#397=MANIFOLD_SOLID_BREP('',#388);
#398=SHAPE_DEFINITION_REPRESENTATION(#670,#399);
#399=SHAPE_REPRESENTATION('11047',(#400),#665);
#400=AXIS2_PLACEMENT_3D('',#555,#441,#442);
#401=AXIS2_PLACEMENT_3D('',#556,#443,#444);
#402=AXIS2_PLACEMENT_3D('',#564,#448,#449);
#403=AXIS2_PLACEMENT_3D('',#568,#451,#452);
#404=AXIS2_PLACEMENT_3D('',#572,#454,#455);
#405=AXIS2_PLACEMENT_3D('',#580,#459,#460);
#406=AXIS2_PLACEMENT_3D('',#584,#462,#463);
#407=AXIS2_PLACEMENT_3D('',#588,#465,#466);
#408=AXIS2_PLACEMENT_3D('',#589,#467,#468);
#409=AXIS2_PLACEMENT_3D('',#597,#472,#473);
#410=AXIS2_PLACEMENT_3D('',#601,#475,#476);
#411=AXIS2_PLACEMENT_3D('',#605,#478,#479);
#412=AXIS2_PLACEMENT_3D('',#613,#483,#484);
#413=AXIS2_PLACEMENT_3D('',#617,#486,#487);
#414=AXIS2_PLACEMENT_3D('',#621,#489,#490);
#415=AXIS2_PLACEMENT_3D('',#622,#491,#492);
#416=AXIS2_PLACEMENT_3D('',#623,#493,#494);
#417=AXIS2_PLACEMENT_3D('',#625,#495,#496);
#418=AXIS2_PLACEMENT_3D('',#627,#498,#499);
#419=AXIS2_PLACEMENT_3D('',#628,#500,#501);
#420=AXIS2_PLACEMENT_3D('',#630,#502,#503);
#421=AXIS2_PLACEMENT_3D('',#632,#505,#506);
#422=AXIS2_PLACEMENT_3D('',#633,#507,#508);
#423=AXIS2_PLACEMENT_3D('',#635,#509,#510);
#424=AXIS2_PLACEMENT_3D('',#637,#512,#513);
#425=AXIS2_PLACEMENT_3D('',#638,#514,#515);
#426=AXIS2_PLACEMENT_3D('',#640,#516,#517);
#427=AXIS2_PLACEMENT_3D('',#642,#519,#520);
#428=AXIS2_PLACEMENT_3D('',#644,#522,#523);
#429=AXIS2_PLACEMENT_3D('',#646,#525,#526);
#430=AXIS2_PLACEMENT_3D('',#648,#528,#529);
#431=AXIS2_PLACEMENT_3D('',#650,#531,#532);
#432=AXIS2_PLACEMENT_3D('',#651,#533,#534);
#433=AXIS2_PLACEMENT_3D('',#653,#536,#537);
#434=AXIS2_PLACEMENT_3D('',#655,#539,#540);
#435=AXIS2_PLACEMENT_3D('',#657,#542,#543);
#436=AXIS2_PLACEMENT_3D('',#659,#545,#546);
#437=AXIS2_PLACEMENT_3D('',#660,#547,#548);
#438=AXIS2_PLACEMENT_3D('',#661,#549,#550);
#439=AXIS2_PLACEMENT_3D('',#662,#551,#552);
#440=AXIS2_PLACEMENT_3D('',#663,#553,#554);
#441=DIRECTION('',(0.,0.,1.));
#442=DIRECTION('',(1.,0.,0.));
#443=DIRECTION('',(0.,-1.,0.));
#444=DIRECTION('',(-1.,0.,0.));
#445=DIRECTION('',(-1.,0.,0.));
#446=DIRECTION('',(0.,0.,-1.));
#447=DIRECTION('',(-1.,0.,0.));
#448=DIRECTION('',(0.,1.,0.));
#449=DIRECTION('',(0.,0.,1.));
#450=DIRECTION('',(-3.75075346157147E-16,0.,1.));
#451=DIRECTION('',(0.,1.,0.));
#452=DIRECTION('',(0.,0.,1.));
#453=DIRECTION('',(-3.75075346157147E-16,0.,-1.));
#454=DIRECTION('',(0.,1.,0.));
#455=DIRECTION('',(0.,0.,1.));
#456=DIRECTION('',(-1.,0.,0.));
#457=DIRECTION('',(0.,0.,-1.));
#458=DIRECTION('',(-1.,0.,0.));
#459=DIRECTION('',(0.,-1.,0.));
#460=DIRECTION('',(0.,0.,-1.));
#461=DIRECTION('',(-3.75075346157147E-16,0.,-1.));
#462=DIRECTION('',(0.,-1.,0.));
#463=DIRECTION('',(1.,0.,0.));
#464=DIRECTION('',(-3.75075346157147E-16,0.,1.));
#465=DIRECTION('',(0.,-1.,0.));
#466=DIRECTION('',(0.,0.,-1.));
#467=DIRECTION('',(0.,1.,0.));
#468=DIRECTION('',(0.,0.,1.));
#469=DIRECTION('',(-1.,0.,0.));
#470=DIRECTION('',(0.,0.,-1.));
#471=DIRECTION('',(-1.,0.,0.));
#472=DIRECTION('',(0.,-1.,0.));
#473=DIRECTION('',(0.,0.,-1.));
#474=DIRECTION('',(-3.75075346157147E-16,0.,1.));
#475=DIRECTION('',(0.,-1.,0.));
#476=DIRECTION('',(1.,0.,0.));
#477=DIRECTION('',(-3.75075346157147E-16,0.,-1.));
#478=DIRECTION('',(0.,-1.,0.));
#479=DIRECTION('',(0.,0.,-1.));
#480=DIRECTION('',(-1.,0.,0.));
#481=DIRECTION('',(0.,0.,-1.));
#482=DIRECTION('',(-1.,0.,0.));
#483=DIRECTION('',(0.,1.,0.));
#484=DIRECTION('',(0.,0.,1.));
#485=DIRECTION('',(-3.75075346157147E-16,0.,-1.));
#486=DIRECTION('',(0.,1.,0.));
#487=DIRECTION('',(0.,0.,1.));
#488=DIRECTION('',(-3.75075346157147E-16,0.,1.));
#489=DIRECTION('',(0.,1.,0.));
#490=DIRECTION('',(0.,0.,1.));
#491=DIRECTION('',(0.,0.,-1.));
#492=DIRECTION('',(-1.,0.,0.));
#493=DIRECTION('',(0.,0.,-1.));
#494=DIRECTION('',(0.,-1.,0.));
#495=DIRECTION('',(0.,0.,-1.));
#496=DIRECTION('',(-1.,0.,0.));
#497=DIRECTION('',(0.,1.,0.));
#498=DIRECTION('',(0.,0.,-1.));
#499=DIRECTION('',(-1.,0.,0.));
#500=DIRECTION('',(0.,0.,-1.));
#501=DIRECTION('',(-1.,0.,0.));
#502=DIRECTION('',(0.,0.,-1.));
#503=DIRECTION('',(-1.,0.,0.));
#504=DIRECTION('',(0.,1.,0.));
#505=DIRECTION('',(0.,0.,-1.));
#506=DIRECTION('',(-1.,0.,0.));
#507=DIRECTION('',(0.,0.,-1.));
#508=DIRECTION('',(0.,-1.,0.));
#509=DIRECTION('',(0.,0.,-1.));
#510=DIRECTION('',(-1.,0.,0.));
#511=DIRECTION('',(0.,1.,0.));
#512=DIRECTION('',(0.,0.,-1.));
#513=DIRECTION('',(-1.,0.,0.));
#514=DIRECTION('',(0.,0.,-1.));
#515=DIRECTION('',(-1.,0.,0.));
#516=DIRECTION('',(0.,0.,-1.));
#517=DIRECTION('',(-1.,0.,0.));
#518=DIRECTION('',(0.,1.,0.));
#519=DIRECTION('',(0.,1.,0.));
#520=DIRECTION('',(0.,0.,1.));
#521=DIRECTION('',(0.,1.,0.));
#522=DIRECTION('',(-1.,0.,-3.75075346157147E-16));
#523=DIRECTION('',(-3.75075346157147E-16,0.,1.));
#524=DIRECTION('',(0.,1.,0.));
#525=DIRECTION('',(0.,1.,0.));
#526=DIRECTION('',(0.,0.,1.));
#527=DIRECTION('',(0.,1.,0.));
#528=DIRECTION('',(1.,0.,-3.75075346157147E-16));
#529=DIRECTION('',(-3.75075346157147E-16,0.,-1.));
#530=DIRECTION('',(0.,1.,0.));
#531=DIRECTION('',(0.,1.,0.));
#532=DIRECTION('',(0.,0.,1.));
#533=DIRECTION('',(0.,1.,0.));
#534=DIRECTION('',(0.,0.,1.));
#535=DIRECTION('',(0.,1.,0.));
#536=DIRECTION('',(-1.,0.,-3.75075346157147E-16));
#537=DIRECTION('',(-3.75075346157147E-16,0.,1.));
#538=DIRECTION('',(0.,1.,0.));
#539=DIRECTION('',(0.,1.,0.));
#540=DIRECTION('',(0.,0.,1.));
#541=DIRECTION('',(0.,1.,0.));
#542=DIRECTION('',(1.,0.,-3.75075346157147E-16));
#543=DIRECTION('',(-3.75075346157147E-16,0.,-1.));
#544=DIRECTION('',(0.,1.,0.));
#545=DIRECTION('',(0.,1.,0.));
#546=DIRECTION('',(0.,0.,1.));
#547=DIRECTION('',(0.,0.,-1.));
#548=DIRECTION('',(0.,-1.,0.));
#549=DIRECTION('',(0.,0.,-1.));
#550=DIRECTION('',(0.,-1.,0.));
#551=DIRECTION('',(0.,0.,-1.));
#552=DIRECTION('',(-1.,0.,0.));
#553=DIRECTION('',(0.,0.,-1.));
#554=DIRECTION('',(-1.,0.,0.));
#555=CARTESIAN_POINT('',(0.,0.,0.));
#556=CARTESIAN_POINT('',(38.5,0.,-37.));
#557=CARTESIAN_POINT('',(38.5,0.,-37.));
#558=CARTESIAN_POINT('',(68.4807621135332,0.,-37.));
#559=CARTESIAN_POINT('',(45.5,0.,-37.));
#560=CARTESIAN_POINT('',(68.4807621135332,0.,327.4));
#561=CARTESIAN_POINT('',(68.4807621135332,0.,-34.));
#562=CARTESIAN_POINT('',(38.5,0.,-34.));
#563=CARTESIAN_POINT('',(45.5,0.,-34.));
#564=CARTESIAN_POINT('',(45.5,0.,-30.));
#565=CARTESIAN_POINT('',(41.5,0.,-30.));
#566=CARTESIAN_POINT('',(41.5,0.,1.20654120140786E-15));
#567=CARTESIAN_POINT('',(41.5,0.,2.54114210823076E-15));
#568=CARTESIAN_POINT('',(0.,0.,0.));
#569=CARTESIAN_POINT('',(-41.5,0.,5.84011621518875E-15));
#570=CARTESIAN_POINT('',(-41.5,0.,1.12522603847144E-15));
#571=CARTESIAN_POINT('',(-41.5,0.,-30.));
#572=CARTESIAN_POINT('',(-45.5,0.,-30.));
#573=CARTESIAN_POINT('',(-45.5,0.,-34.));
#574=CARTESIAN_POINT('',(-38.5,0.,-34.));
#575=CARTESIAN_POINT('',(-68.4807621135332,0.,-34.));
#576=CARTESIAN_POINT('',(-68.4807621135332,0.,327.4));
#577=CARTESIAN_POINT('',(-68.4807621135332,0.,-37.));
#578=CARTESIAN_POINT('',(-38.5,0.,-37.));
#579=CARTESIAN_POINT('',(-45.5,0.,-37.));
#580=CARTESIAN_POINT('',(-45.5,0.,-30.));
#581=CARTESIAN_POINT('',(-38.5,0.,-30.));
#582=CARTESIAN_POINT('',(-38.5,0.,0.));
#583=CARTESIAN_POINT('',(-38.5,0.,4.71489017671731E-15));
#584=CARTESIAN_POINT('',(0.,0.,0.));
#585=CARTESIAN_POINT('',(38.5,0.,8.13151629364128E-17));
#586=CARTESIAN_POINT('',(38.5,0.,8.13151629364128E-17));
#587=CARTESIAN_POINT('',(38.5,0.,-30.));
#588=CARTESIAN_POINT('',(45.5,0.,-30.));
#589=CARTESIAN_POINT('',(45.5,30.,-30.));
#590=CARTESIAN_POINT('',(38.5,30.,-34.));
#591=CARTESIAN_POINT('',(68.4807621135332,30.,-34.));
#592=CARTESIAN_POINT('',(45.5,30.,-34.));
#593=CARTESIAN_POINT('',(68.4807621135332,30.,327.4));
#594=CARTESIAN_POINT('',(68.4807621135332,30.,-37.));
#595=CARTESIAN_POINT('',(38.5,30.,-37.));
#596=CARTESIAN_POINT('',(45.5,30.,-37.));
#597=CARTESIAN_POINT('',(45.5,30.,-30.));
#598=CARTESIAN_POINT('',(38.5,30.,-30.));
#599=CARTESIAN_POINT('',(38.5,30.,8.13151629364128E-17));
#600=CARTESIAN_POINT('',(38.5,30.,8.13151629364128E-17));
#601=CARTESIAN_POINT('',(0.,30.,0.));
#602=CARTESIAN_POINT('',(-38.5,30.,4.71489017671731E-15));
#603=CARTESIAN_POINT('',(-38.5,30.,0.));
#604=CARTESIAN_POINT('',(-38.5,30.,-30.));
#605=CARTESIAN_POINT('',(-45.5,30.,-30.));
#606=CARTESIAN_POINT('',(-45.5,30.,-37.));
#607=CARTESIAN_POINT('',(-38.5,30.,-37.));
#608=CARTESIAN_POINT('',(-68.4807621135332,30.,-37.));
#609=CARTESIAN_POINT('',(-68.4807621135332,30.,327.4));
#610=CARTESIAN_POINT('',(-68.4807621135332,30.,-34.));
#611=CARTESIAN_POINT('',(-38.5,30.,-34.));
#612=CARTESIAN_POINT('',(-45.5,30.,-34.));
#613=CARTESIAN_POINT('',(-45.5,30.,-30.));
#614=CARTESIAN_POINT('',(-41.5,30.,-30.));
#615=CARTESIAN_POINT('',(-41.5,30.,1.12522603847144E-15));
#616=CARTESIAN_POINT('',(-41.5,30.,-7.62342632469227E-15));
#617=CARTESIAN_POINT('',(0.,30.,0.));
#618=CARTESIAN_POINT('',(41.5,30.,1.20654120140786E-15));
#619=CARTESIAN_POINT('',(41.5,30.,1.20654120140786E-15));
#620=CARTESIAN_POINT('',(41.5,30.,-30.));
#621=CARTESIAN_POINT('',(45.5,30.,-30.));
#622=CARTESIAN_POINT('',(38.5,0.,-34.));
#623=CARTESIAN_POINT('',(57.5,15.,-34.));
#624=CARTESIAN_POINT('',(57.5,9.,-34.));
#625=CARTESIAN_POINT('',(42.5,15.,-34.));
#626=CARTESIAN_POINT('',(45.5,0.,-34.));
#627=CARTESIAN_POINT('',(38.5,0.,-37.));
#628=CARTESIAN_POINT('',(57.5,15.,-37.));
#629=CARTESIAN_POINT('',(51.5,15.,-37.));
#630=CARTESIAN_POINT('',(42.5,15.,-37.));
#631=CARTESIAN_POINT('',(45.5,0.,-37.));
#632=CARTESIAN_POINT('',(-38.5,0.,-34.));
#633=CARTESIAN_POINT('',(-57.5,15.,-34.));
#634=CARTESIAN_POINT('',(-57.5,9.,-34.));
#635=CARTESIAN_POINT('',(-42.5,15.,-34.));
#636=CARTESIAN_POINT('',(-45.5,0.,-34.));
#637=CARTESIAN_POINT('',(-38.5,0.,-37.));
#638=CARTESIAN_POINT('',(-57.5,15.,-37.));
#639=CARTESIAN_POINT('',(-63.5,15.,-37.));
#640=CARTESIAN_POINT('',(-42.5,15.,-37.));
#641=CARTESIAN_POINT('',(-45.5,0.,-37.));
#642=CARTESIAN_POINT('',(45.5,0.,-30.));
#643=CARTESIAN_POINT('',(41.5,0.,-30.));
#644=CARTESIAN_POINT('',(41.5,0.,1.20654120140786E-15));
#645=CARTESIAN_POINT('',(41.5,0.,2.54114210823076E-15));
#646=CARTESIAN_POINT('',(0.,0.,0.));
#647=CARTESIAN_POINT('',(-41.5,0.,5.84011621518875E-15));
#648=CARTESIAN_POINT('',(-41.5,0.,1.12522603847144E-15));
#649=CARTESIAN_POINT('',(-41.5,0.,-30.));
#650=CARTESIAN_POINT('',(-45.5,0.,-30.));
#651=CARTESIAN_POINT('',(45.5,0.,-30.));
#652=CARTESIAN_POINT('',(38.5,0.,-30.));
#653=CARTESIAN_POINT('',(38.5,0.,8.13151629364128E-17));
#654=CARTESIAN_POINT('',(38.5,0.,8.13151629364128E-17));
#655=CARTESIAN_POINT('',(0.,0.,0.));
#656=CARTESIAN_POINT('',(-38.5,0.,4.71489017671731E-15));
#657=CARTESIAN_POINT('',(-38.5,0.,0.));
#658=CARTESIAN_POINT('',(-38.5,0.,-30.));
#659=CARTESIAN_POINT('',(-45.5,0.,-30.));
#660=CARTESIAN_POINT('',(-57.5,15.,-34.));
#661=CARTESIAN_POINT('',(57.5,15.,-34.));
#662=CARTESIAN_POINT('',(-42.5,15.,327.4));
#663=CARTESIAN_POINT('',(42.5,15.,327.4));
#664=MECHANICAL_DESIGN_GEOMETRIC_PRESENTATION_REPRESENTATION('',(#389),
#665);
#665=(
GEOMETRIC_REPRESENTATION_CONTEXT(3)
GLOBAL_UNCERTAINTY_ASSIGNED_CONTEXT((#666))
GLOBAL_UNIT_ASSIGNED_CONTEXT((#669,#668,#667))
REPRESENTATION_CONTEXT('11047','TOP_LEVEL_ASSEMBLY_PART')
);
#666=UNCERTAINTY_MEASURE_WITH_UNIT(LENGTH_MEASURE(0.005),#669,
'DISTANCE_ACCURACY_VALUE','Maximum Tolerance applied to model');
#667=(
NAMED_UNIT(*)
SI_UNIT($,.STERADIAN.)
SOLID_ANGLE_UNIT()
);
#668=(
NAMED_UNIT(*)
PLANE_ANGLE_UNIT()
SI_UNIT($,.RADIAN.)
);
#669=(
LENGTH_UNIT()
NAMED_UNIT(*)
SI_UNIT(.MILLI.,.METRE.)
);
#670=PRODUCT_DEFINITION_SHAPE('','',#671);
#671=PRODUCT_DEFINITION('','',#673,#672);
#672=PRODUCT_DEFINITION_CONTEXT('',#679,'design');
#673=PRODUCT_DEFINITION_FORMATION_WITH_SPECIFIED_SOURCE('','',#675,
 .NOT_KNOWN.);
#674=PRODUCT_RELATED_PRODUCT_CATEGORY('','',(#675));
#675=PRODUCT('11047','11047','11047',(#677));
#676=PRODUCT_CATEGORY('','');
#677=PRODUCT_CONTEXT('',#679,'mechanical');
#678=APPLICATION_PROTOCOL_DEFINITION('international standard',
'automotive_design',2010,#679);
#679=APPLICATION_CONTEXT(
'core data for automotive mechanical design processes');
ENDSEC;
END-ISO-10303-21;
