ISO-10303-21;
HEADER;
FILE_DESCRIPTION (( 'STEP AP203' ),
    '1' );
FILE_NAME ('19-0402-07_outokumpu.step',
    '2015-08-11T09:33:28',
    ( '' ),
    ( '' ),
    'SwSTEP 2.0',
    'SolidWorks 2008',
    '' );
FILE_SCHEMA (( 'CONFIG_CONTROL_DESIGN' ));
ENDSEC;

DATA;
#1 = ORIENTED_EDGE ( 'NONE', *, *, #2, .T. ) ;
#2 = EDGE_CURVE ( 'NONE', #3, #78, #99, .T. ) ;
#3 = VERTEX_POINT ( 'NONE', #94 ) ;
#4 = ORIENTED_EDGE ( 'NONE', *, *, #77, .T. ) ;
#5 = ORIENTED_EDGE ( 'NONE', *, *, #6, .T. ) ;
#6 = EDGE_CURVE ( 'NONE', #119, #12, #93, .T. ) ;
#7 = MANIFOLD_SOLID_BREP ( 'NONE', #56 ) ;
#8 = ADVANCED_FACE ( 'NONE', ( #89 ), #88, .F. ) ;
#9 = EDGE_LOOP ( 'NONE', ( #10, #63, #66, #69, #72 ) ) ;
#10 = ORIENTED_EDGE ( 'NONE', *, *, #11, .T. ) ;
#11 = EDGE_CURVE ( 'NONE', #12, #13, #336, .T. ) ;
#12 = VERTEX_POINT ( 'NONE', #242 ) ;
#13 = VERTEX_POINT ( 'NONE', #241 ) ;
#14 = EDGE_CURVE ( 'NONE', #15, #125, #324, .T. ) ;
#15 = VERTEX_POINT ( 'NONE', #248 ) ;
#16 = ORIENTED_EDGE ( 'NONE', *, *, #17, .T. ) ;
#17 = EDGE_CURVE ( 'NONE', #136, #139, #246, .T. ) ;
#18 = EDGE_LOOP ( 'NONE', ( #62, #49 ) ) ;
#19 = ORIENTED_EDGE ( 'NONE', *, *, #138, .T. ) ;
#20 = EDGE_CURVE ( 'NONE', #65, #68, #317, .T. ) ;
#21 = ORIENTED_EDGE ( 'NONE', *, *, #20, .T. ) ;
#22 = EDGE_LOOP ( 'NONE', ( #19, #16 ) ) ;
#23 = ORIENTED_EDGE ( 'NONE', *, *, #67, .T. ) ;
#24 = ADVANCED_FACE ( 'NONE', ( #313, #203 ), #202, .F. ) ;
#25 = EDGE_LOOP ( 'NONE', ( #23, #21 ) ) ;
#26 = ORIENTED_EDGE ( 'NONE', *, *, #27, .F. ) ;
#27 = EDGE_CURVE ( 'NONE', #117, #116, #196, .T. ) ;
#28 = ORIENTED_EDGE ( 'NONE', *, *, #11, .F. ) ;
#29 = ORIENTED_EDGE ( 'NONE', *, *, #115, .F. ) ;
#30 = ADVANCED_FACE ( 'NONE', ( #192, #191 ), #190, .F. ) ;
#31 = ORIENTED_EDGE ( 'NONE', *, *, #128, .T. ) ;
#32 = ORIENTED_EDGE ( 'NONE', *, *, #33, .F. ) ;
#33 = EDGE_CURVE ( 'NONE', #13, #82, #188, .T. ) ;
#34 = APPROVAL_PERSON_ORGANIZATION ( #38, #36, #35 ) ;
#35 = APPROVAL_ROLE ( '' ) ;
#36 = APPROVAL ( #37, 'UNSPECIFIED' ) ;
#37 = APPROVAL_STATUS ( 'not_yet_approved' ) ;
#38 = PERSON_AND_ORGANIZATION ( #237, #236 ) ;
#39 = PRODUCT_DEFINITION ( 'UNKNOWN', '', #386, #40 ) ;
#40 = DESIGN_CONTEXT ( 'detailed design', #83, 'design' ) ;
#41 = APPLICATION_PROTOCOL_DEFINITION ( 'international standard', 'config_control_design', 1994, #83 ) ;
#42 = EDGE_LOOP ( 'NONE', ( #29, #26 ) ) ;
#43 = ADVANCED_FACE ( 'NONE', ( #180 ), #179, .F. ) ;
#44 = EDGE_LOOP ( 'NONE', ( #45, #52, #53, #54, #55 ) ) ;
#45 = ORIENTED_EDGE ( 'NONE', *, *, #64, .F. ) ;
#46 = ORIENTED_EDGE ( 'NONE', *, *, #27, .T. ) ;
#47 = ORIENTED_EDGE ( 'NONE', *, *, #141, .T. ) ;
#48 = ORIENTED_EDGE ( 'NONE', *, *, #135, .F. ) ;
#49 = ORIENTED_EDGE ( 'NONE', *, *, #124, .F. ) ;
#50 = ADVANCED_FACE ( 'NONE', ( #178 ), #173, .T. ) ;
#51 = EDGE_LOOP ( 'NONE', ( #48, #46, #47, #58 ) ) ;
#52 = ORIENTED_EDGE ( 'NONE', *, *, #33, .T. ) ;
#53 = ORIENTED_EDGE ( 'NONE', *, *, #81, .T. ) ;
#54 = ORIENTED_EDGE ( 'NONE', *, *, #70, .T. ) ;
#55 = ORIENTED_EDGE ( 'NONE', *, *, #20, .F. ) ;
#56 = CLOSED_SHELL ( 'NONE', ( #8, #74, #112, #142, #129, #30, #24, #50, #59, #43 ) ) ;
#57 = EDGE_CURVE ( 'NONE', #125, #122, #310, .T. ) ;
#58 = ORIENTED_EDGE ( 'NONE', *, *, #17, .F. ) ;
#59 = ADVANCED_FACE ( 'NONE', ( #303 ), #302, .F. ) ;
#60 = EDGE_LOOP ( 'NONE', ( #61, #106, #107, #108, #109 ) ) ;
#61 = ORIENTED_EDGE ( 'NONE', *, *, #121, .F. ) ;
#62 = ORIENTED_EDGE ( 'NONE', *, *, #57, .F. ) ;
#63 = ORIENTED_EDGE ( 'NONE', *, *, #64, .T. ) ;
#64 = EDGE_CURVE ( 'NONE', #13, #65, #297, .T. ) ;
#65 = VERTEX_POINT ( 'NONE', #293 ) ;
#66 = ORIENTED_EDGE ( 'NONE', *, *, #67, .F. ) ;
#67 = EDGE_CURVE ( 'NONE', #68, #65, #292, .T. ) ;
#68 = VERTEX_POINT ( 'NONE', #287 ) ;
#69 = ORIENTED_EDGE ( 'NONE', *, *, #70, .F. ) ;
#70 = EDGE_CURVE ( 'NONE', #71, #68, #286, .T. ) ;
#71 = VERTEX_POINT ( 'NONE', #281 ) ;
#72 = ORIENTED_EDGE ( 'NONE', *, *, #73, .T. ) ;
#73 = EDGE_CURVE ( 'NONE', #71, #12, #282, .T. ) ;
#74 = ADVANCED_FACE ( 'NONE', ( #276 ), #275, .F. ) ;
#75 = EDGE_LOOP ( 'NONE', ( #76, #120, #123, #126, #110 ) ) ;
#76 = ORIENTED_EDGE ( 'NONE', *, *, #77, .F. ) ;
#77 = EDGE_CURVE ( 'NONE', #78, #119, #274, .T. ) ;
#78 = VERTEX_POINT ( 'NONE', #265 ) ;
#79 = ORIENTED_EDGE ( 'NONE', *, *, #73, .F. ) ;
#80 = ORIENTED_EDGE ( 'NONE', *, *, #81, .F. ) ;
#81 = EDGE_CURVE ( 'NONE', #82, #71, #264, .T. ) ;
#82 = VERTEX_POINT ( 'NONE', #259 ) ;
#83 = APPLICATION_CONTEXT ( 'configuration controlled 3d designs of mechanical parts and assemblies' ) ;
#84 = DIRECTION ( 'NONE',  ( -1.000000000000000000, 0.0000000000000000000, 0.0000000000000000000 ) ) ;
#85 = DIRECTION ( 'NONE',  ( 0.0000000000000000000, 0.0000000000000000000, -1.000000000000000000 ) ) ;
#86 = CARTESIAN_POINT ( 'NONE',  ( 0.0000000000000000000, 0.0000000000000000000, -96.00000000000000000 ) ) ;
#87 = AXIS2_PLACEMENT_3D ( 'NONE', #86, #85, #84 ) ;
#88 = CONICAL_SURFACE ( 'NONE', #87, 21.68676472469961800, 0.7853981633974624900 ) ;
#89 = FACE_OUTER_BOUND ( 'NONE', #9, .T. ) ;
#90 = DIRECTION ( 'NONE',  ( -0.0000000000000000000, 1.152318448611169300E-016, -1.000000000000000000 ) ) ;
#91 = VECTOR ( 'NONE', #90, 1000.000000000000000 ) ;
#92 = CARTESIAN_POINT ( 'NONE',  ( 2.566162614434792000E-015, -20.95499999999999500, -96.00000000000008500 ) ) ;
#93 = LINE ( 'NONE', #92, #91 ) ;
#94 = CARTESIAN_POINT ( 'NONE',  ( 0.0000000000000000000, 20.95499999999999500, -0.7317647246994228900 ) ) ;
#95 = DIRECTION ( 'NONE',  ( 1.000000000000000000, 0.0000000000000000000, 0.0000000000000000000 ) ) ;
#96 = DIRECTION ( 'NONE',  ( -0.0000000000000000000, -0.0000000000000000000, 1.000000000000000000 ) ) ;
#97 = CARTESIAN_POINT ( 'NONE',  ( 0.0000000000000000000, 0.0000000000000000000, -0.7317647246994228900 ) ) ;
#98 = AXIS2_PLACEMENT_3D ( 'NONE', #97, #96, #95 ) ;
#99 = CIRCLE ( 'NONE', #98, 20.95499999999999500 ) ;
#100 = CC_DESIGN_APPROVAL ( #36, ( #39 ) ) ;
#101 = APPROVAL_DATE_TIME ( #102, #36 ) ;
#102 = DATE_AND_TIME ( #103, #104 ) ;
#103 = CALENDAR_DATE ( 2015, 11, 8 ) ;
#104 = LOCAL_TIME ( 11, 33, 28.00000000000000000, #105 ) ;
#105 = COORDINATED_UNIVERSAL_TIME_OFFSET ( 1, 0, .AHEAD. ) ;
#106 = ORIENTED_EDGE ( 'NONE', *, *, #2, .F. ) ;
#107 = ORIENTED_EDGE ( 'NONE', *, *, #134, .F. ) ;
#108 = ORIENTED_EDGE ( 'NONE', *, *, #14, .T. ) ;
#109 = ORIENTED_EDGE ( 'NONE', *, *, #57, .T. ) ;
#110 = ORIENTED_EDGE ( 'NONE', *, *, #111, .F. ) ;
#111 = EDGE_CURVE ( 'NONE', #119, #15, #257, .T. ) ;
#112 = ADVANCED_FACE ( 'NONE', ( #258 ), #250, .T. ) ;
#113 = EDGE_LOOP ( 'NONE', ( #114, #118, #137, #140 ) ) ;
#114 = ORIENTED_EDGE ( 'NONE', *, *, #115, .T. ) ;
#115 = EDGE_CURVE ( 'NONE', #116, #117, #251, .T. ) ;
#116 = VERTEX_POINT ( 'NONE', #329 ) ;
#117 = VERTEX_POINT ( 'NONE', #328 ) ;
#118 = ORIENTED_EDGE ( 'NONE', *, *, #135, .T. ) ;
#119 = VERTEX_POINT ( 'NONE', #327 ) ;
#120 = ORIENTED_EDGE ( 'NONE', *, *, #121, .T. ) ;
#121 = EDGE_CURVE ( 'NONE', #78, #122, #326, .T. ) ;
#122 = VERTEX_POINT ( 'NONE', #230 ) ;
#123 = ORIENTED_EDGE ( 'NONE', *, *, #124, .T. ) ;
#124 = EDGE_CURVE ( 'NONE', #122, #125, #229, .T. ) ;
#125 = VERTEX_POINT ( 'NONE', #224 ) ;
#126 = ORIENTED_EDGE ( 'NONE', *, *, #14, .F. ) ;
#127 = ORIENTED_EDGE ( 'NONE', *, *, #128, .F. ) ;
#128 = EDGE_CURVE ( 'NONE', #3, #82, #223, .T. ) ;
#129 = ADVANCED_FACE ( 'NONE', ( #219 ), #217, .F. ) ;
#130 = EDGE_LOOP ( 'NONE', ( #131, #132, #133, #31, #32, #28 ) ) ;
#131 = ORIENTED_EDGE ( 'NONE', *, *, #6, .F. ) ;
#132 = ORIENTED_EDGE ( 'NONE', *, *, #111, .T. ) ;
#133 = ORIENTED_EDGE ( 'NONE', *, *, #134, .T. ) ;
#134 = EDGE_CURVE ( 'NONE', #15, #3, #218, .T. ) ;
#135 = EDGE_CURVE ( 'NONE', #117, #136, #208, .T. ) ;
#136 = VERTEX_POINT ( 'NONE', #204 ) ;
#137 = ORIENTED_EDGE ( 'NONE', *, *, #138, .F. ) ;
#138 = EDGE_CURVE ( 'NONE', #139, #136, #167, .T. ) ;
#139 = VERTEX_POINT ( 'NONE', #162 ) ;
#140 = ORIENTED_EDGE ( 'NONE', *, *, #141, .F. ) ;
#141 = EDGE_CURVE ( 'NONE', #116, #139, #161, .T. ) ;
#142 = ADVANCED_FACE ( 'NONE', ( #157 ), #155, .F. ) ;
#143 = EDGE_LOOP ( 'NONE', ( #1, #4, #5, #79, #80, #127 ) ) ;
#144 = APPLICATION_CONTEXT ( 'configuration controlled 3d designs of mechanical parts and assemblies' ) ;
#145 = ADVANCED_BREP_SHAPE_REPRESENTATION ( '19-0402-07_outokumpu', ( #7, #156 ), #146 ) ;
#146 =( GEOMETRIC_REPRESENTATION_CONTEXT ( 3 ) GLOBAL_UNCERTAINTY_ASSIGNED_CONTEXT ( ( #147 ) ) GLOBAL_UNIT_ASSIGNED_CONTEXT ( ( #150, #149, #148 ) ) REPRESENTATION_CONTEXT ( 'NONE', 'WORKASPACE' ) );
#147 = UNCERTAINTY_MEASURE_WITH_UNIT (LENGTH_MEASURE( 1.000000000000000100E-005 ), #150, 'distance_accuracy_value', 'NONE');
#148 =( NAMED_UNIT ( * ) SI_UNIT ( $, .STERADIAN. ) SOLID_ANGLE_UNIT ( ) );
#149 =( NAMED_UNIT ( * ) PLANE_ANGLE_UNIT ( ) SI_UNIT ( $, .RADIAN. ) );
#150 =( LENGTH_UNIT ( ) NAMED_UNIT ( * ) SI_UNIT ( .MILLI., .METRE. ) );
#151 = DIRECTION ( 'NONE',  ( 0.0000000000000000000, 1.000000000000000000, 0.0000000000000000000 ) ) ;
#152 = DIRECTION ( 'NONE',  ( -0.0000000000000000000, 1.152318448611169300E-016, -1.000000000000000000 ) ) ;
#153 = CARTESIAN_POINT ( 'NONE',  ( 0.0000000000000000000, 7.592810154713621800E-015, -96.00000000000008500 ) ) ;
#154 = AXIS2_PLACEMENT_3D ( 'NONE', #153, #152, #151 ) ;
#155 = CYLINDRICAL_SURFACE ( 'NONE', #154, 20.95500000000000200 ) ;
#156 = AXIS2_PLACEMENT_3D ( 'NONE', #170, #169, #168 ) ;
#157 = FACE_OUTER_BOUND ( 'NONE', #143, .T. ) ;
#158 = DIRECTION ( 'NONE',  ( -0.0000000000000000000, -0.0000000000000000000, 1.000000000000000000 ) ) ;
#159 = VECTOR ( 'NONE', #158, 1000.000000000000000 ) ;
#160 = CARTESIAN_POINT ( 'NONE',  ( 24.14999999999999900, 0.0000000000000000000, -4.336808689942017700E-016 ) ) ;
#161 = LINE ( 'NONE', #160, #159 ) ;
#162 = CARTESIAN_POINT ( 'NONE',  ( 24.14999999999999900, 0.0000000000000000000, 0.0000000000000000000 ) ) ;
#163 = DIRECTION ( 'NONE',  ( 1.000000000000000000, 0.0000000000000000000, 0.0000000000000000000 ) ) ;
#164 = DIRECTION ( 'NONE',  ( -0.0000000000000000000, -0.0000000000000000000, 1.000000000000000000 ) ) ;
#165 = CARTESIAN_POINT ( 'NONE',  ( 0.0000000000000000000, 0.0000000000000000000, 0.0000000000000000000 ) ) ;
#166 = AXIS2_PLACEMENT_3D ( 'NONE', #165, #164, #163 ) ;
#167 = CIRCLE ( 'NONE', #166, 24.14999999999999900 ) ;
#168 = DIRECTION ( 'NONE',  ( 1.000000000000000000, 0.0000000000000000000, 0.0000000000000000000 ) ) ;
#169 = DIRECTION ( 'NONE',  ( 0.0000000000000000000, 0.0000000000000000000, 1.000000000000000000 ) ) ;
#170 = CARTESIAN_POINT ( 'NONE',  ( 0.0000000000000000000, 0.0000000000000000000, 0.0000000000000000000 ) ) ;
#171 = CARTESIAN_POINT ( 'NONE',  ( 0.0000000000000000000, 0.0000000000000000000, -4.336808689942017700E-016 ) ) ;
#172 = AXIS2_PLACEMENT_3D ( 'NONE', #171, #309, #308 ) ;
#173 = CYLINDRICAL_SURFACE ( 'NONE', #172, 24.14999999999999900 ) ;
#174 = DIRECTION ( 'NONE',  ( -1.000000000000000000, 0.0000000000000000000, 0.0000000000000000000 ) ) ;
#175 = DIRECTION ( 'NONE',  ( 0.0000000000000000000, 0.0000000000000000000, -1.000000000000000000 ) ) ;
#176 = CARTESIAN_POINT ( 'NONE',  ( 0.0000000000000000000, 0.0000000000000000000, -96.00000000000000000 ) ) ;
#177 = AXIS2_PLACEMENT_3D ( 'NONE', #176, #175, #174 ) ;
#178 = FACE_OUTER_BOUND ( 'NONE', #51, .T. ) ;
#179 = CONICAL_SURFACE ( 'NONE', #177, 21.68676472469961800, 0.7853981633974624900 ) ;
#180 = FACE_OUTER_BOUND ( 'NONE', #44, .T. ) ;
#181 = DIRECTION ( 'NONE',  ( 1.000000000000000000, 0.0000000000000000000, 0.0000000000000000000 ) ) ;
#182 = DIRECTION ( 'NONE',  ( -0.0000000000000000000, -0.0000000000000000000, 1.000000000000000000 ) ) ;
#183 = CARTESIAN_POINT ( 'NONE',  ( 0.0000000000000000000, 0.0000000000000000000, -95.26823527530039800 ) ) ;
#184 = AXIS2_PLACEMENT_3D ( 'NONE', #183, #182, #181 ) ;
#185 = DIRECTION ( 'NONE',  ( 1.000000000000000000, 0.0000000000000000000, 0.0000000000000000000 ) ) ;
#186 = DIRECTION ( 'NONE',  ( 0.0000000000000000000, -0.0000000000000000000, 1.000000000000000000 ) ) ;
#187 = AXIS2_PLACEMENT_3D ( 'NONE', #189, #186, #185 ) ;
#188 = CIRCLE ( 'NONE', #184, 20.95499999999999500 ) ;
#189 = CARTESIAN_POINT ( 'NONE',  ( 0.0000000000000000000, 24.14999999999999900, -96.00000000000000000 ) ) ;
#190 = PLANE ( 'NONE',  #187 ) ;
#191 = FACE_BOUND ( 'NONE', #25, .T. ) ;
#192 = FACE_OUTER_BOUND ( 'NONE', #42, .T. ) ;
#193 = DIRECTION ( 'NONE',  ( 1.000000000000000000, 0.0000000000000000000, 0.0000000000000000000 ) ) ;
#194 = DIRECTION ( 'NONE',  ( -0.0000000000000000000, -0.0000000000000000000, 1.000000000000000000 ) ) ;
#195 = AXIS2_PLACEMENT_3D ( 'NONE', #200, #194, #193 ) ;
#196 = CIRCLE ( 'NONE', #195, 24.14999999999999900 ) ;
#197 = DIRECTION ( 'NONE',  ( -1.000000000000000000, 0.0000000000000000000, -0.0000000000000000000 ) ) ;
#198 = DIRECTION ( 'NONE',  ( 0.0000000000000000000, 0.0000000000000000000, -1.000000000000000000 ) ) ;
#199 = AXIS2_PLACEMENT_3D ( 'NONE', #201, #198, #197 ) ;
#200 = CARTESIAN_POINT ( 'NONE',  ( 0.0000000000000000000, 0.0000000000000000000, -96.00000000000000000 ) ) ;
#201 = CARTESIAN_POINT ( 'NONE',  ( 0.0000000000000000000, 24.14999999999999900, -2.168404344971008900E-016 ) ) ;
#202 = PLANE ( 'NONE',  #199 ) ;
#203 = FACE_BOUND ( 'NONE', #18, .T. ) ;
#204 = CARTESIAN_POINT ( 'NONE',  ( -24.14999999999999900, 2.957424344481040600E-015, 0.0000000000000000000 ) ) ;
#205 = DIRECTION ( 'NONE',  ( -0.0000000000000000000, -0.0000000000000000000, 1.000000000000000000 ) ) ;
#206 = VECTOR ( 'NONE', #205, 1000.000000000000000 ) ;
#207 = CARTESIAN_POINT ( 'NONE',  ( -24.14999999999999900, 2.957424344481040600E-015, -4.336808689942017700E-016 ) ) ;
#208 = LINE ( 'NONE', #207, #206 ) ;
#209 = DIRECTION ( 'NONE',  ( 1.000000000000000000, 0.0000000000000000000, 0.0000000000000000000 ) ) ;
#210 = DIRECTION ( 'NONE',  ( -0.0000000000000000000, -0.0000000000000000000, 1.000000000000000000 ) ) ;
#211 = CARTESIAN_POINT ( 'NONE',  ( 0.0000000000000000000, 0.0000000000000000000, -0.7317647246994228900 ) ) ;
#212 = AXIS2_PLACEMENT_3D ( 'NONE', #211, #210, #209 ) ;
#213 = DIRECTION ( 'NONE',  ( 0.0000000000000000000, 1.000000000000000000, 0.0000000000000000000 ) ) ;
#214 = DIRECTION ( 'NONE',  ( -0.0000000000000000000, 1.152318448611169300E-016, -1.000000000000000000 ) ) ;
#215 = CARTESIAN_POINT ( 'NONE',  ( 0.0000000000000000000, 7.592810154713621800E-015, -96.00000000000008500 ) ) ;
#216 = AXIS2_PLACEMENT_3D ( 'NONE', #215, #214, #213 ) ;
#217 = CYLINDRICAL_SURFACE ( 'NONE', #216, 20.95500000000000200 ) ;
#218 = CIRCLE ( 'NONE', #212, 20.95499999999999500 ) ;
#219 = FACE_OUTER_BOUND ( 'NONE', #130, .T. ) ;
#220 = DIRECTION ( 'NONE',  ( -0.0000000000000000000, 1.152318448611169300E-016, -1.000000000000000000 ) ) ;
#221 = VECTOR ( 'NONE', #220, 1000.000000000000000 ) ;
#222 = CARTESIAN_POINT ( 'NONE',  ( 0.0000000000000000000, 20.95500000000000900, -96.00000000000008500 ) ) ;
#223 = LINE ( 'NONE', #222, #221 ) ;
#224 = CARTESIAN_POINT ( 'NONE',  ( 21.68676472469942600, 0.0000000000000000000, -3.304181524667523600E-019 ) ) ;
#225 = DIRECTION ( 'NONE',  ( 1.000000000000000000, 0.0000000000000000000, 0.0000000000000000000 ) ) ;
#226 = DIRECTION ( 'NONE',  ( -0.0000000000000000000, -0.0000000000000000000, 1.000000000000000000 ) ) ;
#227 = CARTESIAN_POINT ( 'NONE',  ( 0.0000000000000000000, 0.0000000000000000000, -3.304181524667523600E-019 ) ) ;
#228 = AXIS2_PLACEMENT_3D ( 'NONE', #227, #226, #225 ) ;
#229 = CIRCLE ( 'NONE', #228, 21.68676472469942600 ) ;
#230 = CARTESIAN_POINT ( 'NONE',  ( -21.68676472469942600, 2.655774987571791500E-015, -3.304181524667523600E-019 ) ) ;
#231 = DIRECTION ( 'NONE',  ( -0.7071067811865517900, 8.659274570719408400E-017, 0.7071067811865432400 ) ) ;
#232 = VECTOR ( 'NONE', #231, 1000.000000000000000 ) ;
#233 = CC_DESIGN_PERSON_AND_ORGANIZATION_ASSIGNMENT ( #235, #234, ( #238 ) ) ;
#234 = PERSON_AND_ORGANIZATION_ROLE ( 'design_owner' ) ;
#235 = PERSON_AND_ORGANIZATION ( #237, #236 ) ;
#236 = ORGANIZATION ( 'UNSPECIFIED', 'UNSPECIFIED', '' ) ;
#237 = PERSON ( 'UNSPECIFIED', 'UNSPECIFIED', 'UNSPECIFIED', ('UNSPECIFIED'), ('UNSPECIFIED'), ('UNSPECIFIED') ) ;
#238 = PRODUCT ( '19-0402-07_outokumpu', '19-0402-07_outokumpu', '', ( #239 ) ) ;
#239 = MECHANICAL_CONTEXT ( 'NONE', #144, 'mechanical' ) ;
#240 = APPLICATION_PROTOCOL_DEFINITION ( 'international standard', 'config_control_design', 1994, #144 ) ;
#241 = CARTESIAN_POINT ( 'NONE',  ( 20.95499999999999500, 2.610968801003303000E-015, -95.26823527530039800 ) ) ;
#242 = CARTESIAN_POINT ( 'NONE',  ( 2.566162614434792000E-015, -20.95499999999999500, -95.26823527530039800 ) ) ;
#243 = DIRECTION ( 'NONE',  ( 1.000000000000000000, 0.0000000000000000000, 0.0000000000000000000 ) ) ;
#244 = DIRECTION ( 'NONE',  ( -0.0000000000000000000, -0.0000000000000000000, 1.000000000000000000 ) ) ;
#245 = AXIS2_PLACEMENT_3D ( 'NONE', #320, #319, #318 ) ;
#246 = CIRCLE ( 'NONE', #245, 24.14999999999999900 ) ;
#247 = CARTESIAN_POINT ( 'NONE',  ( 0.0000000000000000000, 0.0000000000000000000, -96.00000000000000000 ) ) ;
#248 = CARTESIAN_POINT ( 'NONE',  ( 20.95499999999999500, 0.0000000000000000000, -0.7317647246994228900 ) ) ;
#249 = AXIS2_PLACEMENT_3D ( 'NONE', #252, #335, #334 ) ;
#250 = CYLINDRICAL_SURFACE ( 'NONE', #249, 24.14999999999999900 ) ;
#251 = CIRCLE ( 'NONE', #333, 24.14999999999999900 ) ;
#252 = CARTESIAN_POINT ( 'NONE',  ( 0.0000000000000000000, 0.0000000000000000000, -4.336808689942017700E-016 ) ) ;
#253 = DIRECTION ( 'NONE',  ( 1.000000000000000000, 0.0000000000000000000, 0.0000000000000000000 ) ) ;
#254 = DIRECTION ( 'NONE',  ( -0.0000000000000000000, -0.0000000000000000000, 1.000000000000000000 ) ) ;
#255 = CARTESIAN_POINT ( 'NONE',  ( 0.0000000000000000000, 0.0000000000000000000, -0.7317647246994228900 ) ) ;
#256 = AXIS2_PLACEMENT_3D ( 'NONE', #255, #254, #253 ) ;
#257 = CIRCLE ( 'NONE', #256, 20.95499999999999500 ) ;
#258 = FACE_OUTER_BOUND ( 'NONE', #113, .T. ) ;
#259 = CARTESIAN_POINT ( 'NONE',  ( 0.0000000000000000000, 20.95499999999999500, -95.26823527530039800 ) ) ;
#260 = DIRECTION ( 'NONE',  ( 1.000000000000000000, 0.0000000000000000000, 0.0000000000000000000 ) ) ;
#261 = DIRECTION ( 'NONE',  ( -0.0000000000000000000, -0.0000000000000000000, 1.000000000000000000 ) ) ;
#262 = CARTESIAN_POINT ( 'NONE',  ( 0.0000000000000000000, 0.0000000000000000000, -95.26823527530039800 ) ) ;
#263 = AXIS2_PLACEMENT_3D ( 'NONE', #262, #261, #260 ) ;
#264 = CIRCLE ( 'NONE', #263, 20.95499999999999500 ) ;
#265 = CARTESIAN_POINT ( 'NONE',  ( -20.95499999999999500, 2.610968801003291200E-015, -0.7317647246994228900 ) ) ;
#266 = DIRECTION ( 'NONE',  ( 1.000000000000000000, 0.0000000000000000000, 0.0000000000000000000 ) ) ;
#267 = DIRECTION ( 'NONE',  ( -0.0000000000000000000, -0.0000000000000000000, 1.000000000000000000 ) ) ;
#268 = CARTESIAN_POINT ( 'NONE',  ( 0.0000000000000000000, 0.0000000000000000000, -0.7317647246994228900 ) ) ;
#269 = AXIS2_PLACEMENT_3D ( 'NONE', #268, #267, #266 ) ;
#270 = DIRECTION ( 'NONE',  ( 1.000000000000000000, 0.0000000000000000000, 0.0000000000000000000 ) ) ;
#271 = DIRECTION ( 'NONE',  ( -0.0000000000000000000, -0.0000000000000000000, 1.000000000000000000 ) ) ;
#272 = CARTESIAN_POINT ( 'NONE',  ( 0.0000000000000000000, 0.0000000000000000000, -0.7317647246994228900 ) ) ;
#273 = AXIS2_PLACEMENT_3D ( 'NONE', #272, #271, #270 ) ;
#274 = CIRCLE ( 'NONE', #269, 20.95499999999999500 ) ;
#275 = CONICAL_SURFACE ( 'NONE', #273, 20.95499999999999500, 0.7853981633974543900 ) ;
#276 = FACE_OUTER_BOUND ( 'NONE', #75, .T. ) ;
#277 = DIRECTION ( 'NONE',  ( 1.000000000000000000, 0.0000000000000000000, 0.0000000000000000000 ) ) ;
#278 = DIRECTION ( 'NONE',  ( -0.0000000000000000000, -0.0000000000000000000, 1.000000000000000000 ) ) ;
#279 = CARTESIAN_POINT ( 'NONE',  ( 0.0000000000000000000, 0.0000000000000000000, -95.26823527530039800 ) ) ;
#280 = AXIS2_PLACEMENT_3D ( 'NONE', #279, #278, #277 ) ;
#281 = CARTESIAN_POINT ( 'NONE',  ( -20.95499999999999500, 0.0000000000000000000, -95.26823527530039800 ) ) ;
#282 = CIRCLE ( 'NONE', #280, 20.95499999999999500 ) ;
#283 = DIRECTION ( 'NONE',  ( -0.7071067811865575600, 0.0000000000000000000, -0.7071067811865374700 ) ) ;
#284 = VECTOR ( 'NONE', #283, 1000.000000000000000 ) ;
#285 = CARTESIAN_POINT ( 'NONE',  ( -21.68676472469961800, 0.0000000000000000000, -96.00000000000000000 ) ) ;
#286 = LINE ( 'NONE', #285, #284 ) ;
#287 = CARTESIAN_POINT ( 'NONE',  ( -21.68676472469961800, 0.0000000000000000000, -96.00000000000000000 ) ) ;
#288 = DIRECTION ( 'NONE',  ( 1.000000000000000000, 0.0000000000000000000, 0.0000000000000000000 ) ) ;
#289 = DIRECTION ( 'NONE',  ( -0.0000000000000000000, -0.0000000000000000000, 1.000000000000000000 ) ) ;
#290 = CARTESIAN_POINT ( 'NONE',  ( 0.0000000000000000000, 0.0000000000000000000, -96.00000000000000000 ) ) ;
#291 = AXIS2_PLACEMENT_3D ( 'NONE', #290, #289, #288 ) ;
#292 = CIRCLE ( 'NONE', #291, 21.68676472469961800 ) ;
#293 = CARTESIAN_POINT ( 'NONE',  ( 21.68676472469961800, 2.655774987571815200E-015, -96.00000000000000000 ) ) ;
#294 = DIRECTION ( 'NONE',  ( 0.7071067811865575600, 8.659274570719478700E-017, -0.7071067811865374700 ) ) ;
#295 = VECTOR ( 'NONE', #294, 1000.000000000000000 ) ;
#296 = CARTESIAN_POINT ( 'NONE',  ( 21.68676472469961800, 2.655774987571815200E-015, -96.00000000000000000 ) ) ;
#297 = LINE ( 'NONE', #296, #295 ) ;
#298 = DIRECTION ( 'NONE',  ( 1.000000000000000000, 0.0000000000000000000, 0.0000000000000000000 ) ) ;
#299 = DIRECTION ( 'NONE',  ( -0.0000000000000000000, -0.0000000000000000000, 1.000000000000000000 ) ) ;
#300 = CARTESIAN_POINT ( 'NONE',  ( 0.0000000000000000000, 0.0000000000000000000, -0.7317647246994228900 ) ) ;
#301 = AXIS2_PLACEMENT_3D ( 'NONE', #300, #299, #298 ) ;
#302 = CONICAL_SURFACE ( 'NONE', #301, 20.95499999999999500, 0.7853981633974543900 ) ;
#303 = FACE_OUTER_BOUND ( 'NONE', #60, .T. ) ;
#304 = DIRECTION ( 'NONE',  ( 1.000000000000000000, 0.0000000000000000000, 0.0000000000000000000 ) ) ;
#305 = DIRECTION ( 'NONE',  ( -0.0000000000000000000, -0.0000000000000000000, 1.000000000000000000 ) ) ;
#306 = CARTESIAN_POINT ( 'NONE',  ( 0.0000000000000000000, 0.0000000000000000000, -3.304181524667523600E-019 ) ) ;
#307 = AXIS2_PLACEMENT_3D ( 'NONE', #306, #305, #304 ) ;
#308 = DIRECTION ( 'NONE',  ( 1.000000000000000000, 0.0000000000000000000, 0.0000000000000000000 ) ) ;
#309 = DIRECTION ( 'NONE',  ( -0.0000000000000000000, -0.0000000000000000000, 1.000000000000000000 ) ) ;
#310 = CIRCLE ( 'NONE', #307, 21.68676472469942600 ) ;
#311 = CARTESIAN_POINT ( 'NONE',  ( 0.0000000000000000000, 0.0000000000000000000, -95.26823527530039800 ) ) ;
#312 = AXIS2_PLACEMENT_3D ( 'NONE', #311, #244, #243 ) ;
#313 = FACE_OUTER_BOUND ( 'NONE', #22, .T. ) ;
#314 = DIRECTION ( 'NONE',  ( 1.000000000000000000, 0.0000000000000000000, 0.0000000000000000000 ) ) ;
#315 = DIRECTION ( 'NONE',  ( -0.0000000000000000000, -0.0000000000000000000, 1.000000000000000000 ) ) ;
#316 = AXIS2_PLACEMENT_3D ( 'NONE', #247, #315, #314 ) ;
#317 = CIRCLE ( 'NONE', #316, 21.68676472469961800 ) ;
#318 = DIRECTION ( 'NONE',  ( 1.000000000000000000, 0.0000000000000000000, 0.0000000000000000000 ) ) ;
#319 = DIRECTION ( 'NONE',  ( -0.0000000000000000000, -0.0000000000000000000, 1.000000000000000000 ) ) ;
#320 = CARTESIAN_POINT ( 'NONE',  ( 0.0000000000000000000, 0.0000000000000000000, 0.0000000000000000000 ) ) ;
#321 = DIRECTION ( 'NONE',  ( 0.7071067811865517900, 0.0000000000000000000, 0.7071067811865432400 ) ) ;
#322 = VECTOR ( 'NONE', #321, 1000.000000000000000 ) ;
#323 = CARTESIAN_POINT ( 'NONE',  ( 20.95499999999999500, 0.0000000000000000000, -0.7317647246994228900 ) ) ;
#324 = LINE ( 'NONE', #323, #322 ) ;
#325 = CARTESIAN_POINT ( 'NONE',  ( -20.95499999999999500, 2.566162614434790800E-015, -0.7317647246994228900 ) ) ;
#326 = LINE ( 'NONE', #325, #232 ) ;
#327 = CARTESIAN_POINT ( 'NONE',  ( 2.566162614434792000E-015, -20.95499999999999500, -0.7317647246994228900 ) ) ;
#328 = CARTESIAN_POINT ( 'NONE',  ( -24.14999999999999900, 2.957424344481040600E-015, -96.00000000000000000 ) ) ;
#329 = CARTESIAN_POINT ( 'NONE',  ( 24.14999999999999900, 0.0000000000000000000, -96.00000000000000000 ) ) ;
#330 = DIRECTION ( 'NONE',  ( 1.000000000000000000, 0.0000000000000000000, 0.0000000000000000000 ) ) ;
#331 = DIRECTION ( 'NONE',  ( -0.0000000000000000000, -0.0000000000000000000, 1.000000000000000000 ) ) ;
#332 = CARTESIAN_POINT ( 'NONE',  ( 0.0000000000000000000, 0.0000000000000000000, -96.00000000000000000 ) ) ;
#333 = AXIS2_PLACEMENT_3D ( 'NONE', #332, #331, #330 ) ;
#334 = DIRECTION ( 'NONE',  ( 1.000000000000000000, 0.0000000000000000000, 0.0000000000000000000 ) ) ;
#335 = DIRECTION ( 'NONE',  ( -0.0000000000000000000, -0.0000000000000000000, 1.000000000000000000 ) ) ;
#336 = CIRCLE ( 'NONE', #312, 20.95499999999999500 ) ;
#337 = SHAPE_DEFINITION_REPRESENTATION ( #338, #145 ) ;
#338 = PRODUCT_DEFINITION_SHAPE ( 'NONE', 'NONE',  #39 ) ;
#339 = PRODUCT_RELATED_PRODUCT_CATEGORY ( 'detail', '', ( #238 ) ) ;
#340 = CC_DESIGN_SECURITY_CLASSIFICATION ( #361, ( #386 ) ) ;
#341 = CC_DESIGN_APPROVAL ( #349, ( #361 ) ) ;
#342 = APPROVAL_DATE_TIME ( #343, #349 ) ;
#343 = DATE_AND_TIME ( #344, #345 ) ;
#344 = CALENDAR_DATE ( 2015, 11, 8 ) ;
#345 = LOCAL_TIME ( 11, 33, 28.00000000000000000, #346 ) ;
#346 = COORDINATED_UNIVERSAL_TIME_OFFSET ( 1, 0, .AHEAD. ) ;
#347 = APPROVAL_PERSON_ORGANIZATION ( #351, #349, #348 ) ;
#348 = APPROVAL_ROLE ( '' ) ;
#349 = APPROVAL ( #350, 'UNSPECIFIED' ) ;
#350 = APPROVAL_STATUS ( 'not_yet_approved' ) ;
#351 = PERSON_AND_ORGANIZATION ( #237, #236 ) ;
#352 = CC_DESIGN_DATE_AND_TIME_ASSIGNMENT ( #354, #353, ( #361 ) ) ;
#353 = DATE_TIME_ROLE ( 'classification_date' ) ;
#354 = DATE_AND_TIME ( #355, #356 ) ;
#355 = CALENDAR_DATE ( 2015, 11, 8 ) ;
#356 = LOCAL_TIME ( 11, 33, 28.00000000000000000, #357 ) ;
#357 = COORDINATED_UNIVERSAL_TIME_OFFSET ( 1, 0, .AHEAD. ) ;
#358 = CC_DESIGN_PERSON_AND_ORGANIZATION_ASSIGNMENT ( #360, #359, ( #361 ) ) ;
#359 = PERSON_AND_ORGANIZATION_ROLE ( 'classification_officer' ) ;
#360 = PERSON_AND_ORGANIZATION ( #237, #236 ) ;
#361 = SECURITY_CLASSIFICATION ( '', '', #362 ) ;
#362 = SECURITY_CLASSIFICATION_LEVEL ( 'unclassified' ) ;
#363 = CC_DESIGN_PERSON_AND_ORGANIZATION_ASSIGNMENT ( #376, #364, ( #386 ) ) ;
#364 = PERSON_AND_ORGANIZATION_ROLE ( 'design_supplier' ) ;
#365 = CC_DESIGN_APPROVAL ( #373, ( #386 ) ) ;
#366 = APPROVAL_DATE_TIME ( #367, #373 ) ;
#367 = DATE_AND_TIME ( #368, #369 ) ;
#368 = CALENDAR_DATE ( 2015, 11, 8 ) ;
#369 = LOCAL_TIME ( 11, 33, 28.00000000000000000, #370 ) ;
#370 = COORDINATED_UNIVERSAL_TIME_OFFSET ( 1, 0, .AHEAD. ) ;
#371 = APPROVAL_PERSON_ORGANIZATION ( #385, #373, #372 ) ;
#372 = APPROVAL_ROLE ( '' ) ;
#373 = APPROVAL ( #384, 'UNSPECIFIED' ) ;
#374 = PERSON_AND_ORGANIZATION_ROLE ( 'creator' ) ;
#375 = CC_DESIGN_PERSON_AND_ORGANIZATION_ASSIGNMENT ( #388, #374, ( #39 ) ) ;
#376 = PERSON_AND_ORGANIZATION ( #237, #236 ) ;
#377 = CC_DESIGN_PERSON_AND_ORGANIZATION_ASSIGNMENT ( #379, #378, ( #386 ) ) ;
#378 = PERSON_AND_ORGANIZATION_ROLE ( 'creator' ) ;
#379 = PERSON_AND_ORGANIZATION ( #237, #236 ) ;
#380 = DATE_TIME_ROLE ( 'creation_date' ) ;
#381 = DATE_AND_TIME ( #382, #383 ) ;
#382 = CALENDAR_DATE ( 2015, 11, 8 ) ;
#383 = LOCAL_TIME ( 11, 33, 28.00000000000000000, #389 ) ;
#384 = APPROVAL_STATUS ( 'not_yet_approved' ) ;
#385 = PERSON_AND_ORGANIZATION ( #237, #236 ) ;
#386 = PRODUCT_DEFINITION_FORMATION_WITH_SPECIFIED_SOURCE ( 'ANY', '', #238, .NOT_KNOWN. ) ;
#387 = CC_DESIGN_DATE_AND_TIME_ASSIGNMENT ( #381, #380, ( #39 ) ) ;
#388 = PERSON_AND_ORGANIZATION ( #237, #236 ) ;
#389 = COORDINATED_UNIVERSAL_TIME_OFFSET ( 1, 0, .AHEAD. ) ;
ENDSEC;
END-ISO-10303-21;
