ISO-10303-21;
HEADER;
FILE_DESCRIPTION (( 'STEP AP203' ),
    '1' );
FILE_NAME ('3D_GR1392_DN18x1.5_18380070.STEP',
    '2024-09-21T10:11:20',
    ( '' ),
    ( '' ),
    'SwSTEP 2.0',
    'SolidWorks 2024',
    '' );
FILE_SCHEMA (( 'CONFIG_CONTROL_DESIGN' ));
ENDSEC;

DATA;
#1 = PRODUCT ( '3D_GR1392_DN18x1.5_18380070', '3D_GR1392_DN18x1.5_18380070', '', ( #161 ) ) ;
#2 = DATE_AND_TIME ( #32, #23 ) ;
#3 = DIRECTION ( 'NONE',  ( 0.000000000000000000, 0.000000000000000000, 1.000000000000000000 ) ) ;
#4 = ADVANCED_FACE ( 'NONE', ( #297 ), #178, .T. ) ;
#5 = CYLINDRICAL_SURFACE ( 'NONE', #26, 9.000000000000017764 ) ;
#6 = AXIS2_PLACEMENT_3D ( 'NONE', #94, #12, #205 ) ;
#7 = APPROVAL_PERSON_ORGANIZATION ( #29, #20, #118 ) ;
#8 = VERTEX_POINT ( 'NONE', #267 ) ;
#9 = CARTESIAN_POINT ( 'NONE',  ( 9.999999999999950262, 0.000000000000000000, 0.000000000000000000 ) ) ;
#10 = ORIENTED_EDGE ( 'NONE', *, *, #104, .T. ) ;
#11 = CARTESIAN_POINT ( 'NONE',  ( -154.8395502972293230, 0.000000000000000000, 0.000000000000000000 ) ) ;
#12 = DIRECTION ( 'NONE',  ( -1.000000000000000000, -0.000000000000000000, -0.000000000000000000 ) ) ;
#13 = EDGE_CURVE ( 'NONE', #185, #67, #31, .T. ) ;
#14 = ORIENTED_EDGE ( 'NONE', *, *, #13, .F. ) ;
#15 = DIRECTION ( 'NONE',  ( -1.000000000000000000, -0.000000000000000000, -0.000000000000000000 ) ) ;
#16 = CIRCLE ( 'NONE', #212, 6.500000000000018652 ) ;
#17 = CARTESIAN_POINT ( 'NONE',  ( -2.775557561562891351E-14, 0.000000000000000000, 0.000000000000000000 ) ) ;
#18 = CARTESIAN_POINT ( 'NONE',  ( -2.775557561562891351E-14, 0.000000000000000000, 7.500000000000017764 ) ) ;
#19 = DIRECTION ( 'NONE',  ( 0.000000000000000000, 0.000000000000000000, 1.000000000000000000 ) ) ;
#20 = APPROVAL ( #63, 'UNSPECIFIED' ) ;
#21 = ORIENTED_EDGE ( 'NONE', *, *, #289, .F. ) ;
#22 = AXIS2_PLACEMENT_3D ( 'NONE', #301, #149, #113 ) ;
#23 = LOCAL_TIME ( 12, 11, 20.00000000000000000, #142 ) ;
#24 = ORIENTED_EDGE ( 'NONE', *, *, #159, .T. ) ;
#25 = AXIS2_PLACEMENT_3D ( 'NONE', #316, #15, #126 ) ;
#26 = AXIS2_PLACEMENT_3D ( 'NONE', #11, #204, #309 ) ;
#27 = PLANE ( 'NONE',  #155 ) ;
#28 = CYLINDRICAL_SURFACE ( 'NONE', #77, 7.500000000000018652 ) ;
#29 = PERSON_AND_ORGANIZATION ( #117, #183 ) ;
#30 = EDGE_CURVE ( 'NONE', #302, #236, #187, .T. ) ;
#31 = LINE ( 'NONE', #274, #202 ) ;
#32 = CALENDAR_DATE ( 2024, 21, 9 ) ;
#33 = SPHERICAL_SURFACE ( 'NONE', #108, 14.99999999999997158 ) ;
#34 = APPROVAL ( #166, 'UNSPECIFIED' ) ;
#35 = CALENDAR_DATE ( 2024, 21, 9 ) ;
#36 = DIRECTION ( 'NONE',  ( 0.000000000000000000, 0.000000000000000000, 1.000000000000000000 ) ) ;
#37 = VERTEX_POINT ( 'NONE', #86 ) ;
#38 = SECURITY_CLASSIFICATION_LEVEL ( 'unclassified' ) ;
#39 = CARTESIAN_POINT ( 'NONE',  ( 7.000000000000588862, 0.000000000000000000, 0.000000000000000000 ) ) ;
#40 = ORIENTED_EDGE ( 'NONE', *, *, #96, .T. ) ;
#41 = CARTESIAN_POINT ( 'NONE',  ( 9.999999999999950262, 0.000000000000000000, 0.000000000000000000 ) ) ;
#42 = EDGE_LOOP ( 'NONE', ( #177, #150, #340, #179 ) ) ;
#43 = CARTESIAN_POINT ( 'NONE',  ( 7.000000000000588862, 0.000000000000000000, 6.500000000000018652 ) ) ;
#44 = ADVANCED_FACE ( 'NONE', ( #171 ), #140, .T. ) ;
#45 = CIRCLE ( 'NONE', #88, 7.500000000000017764 ) ;
#46 = CARTESIAN_POINT ( 'NONE',  ( 9.999999999999950262, 0.000000000000000000, 0.000000000000000000 ) ) ;
#47 = ADVANCED_FACE ( 'NONE', ( #351 ), #33, .T. ) ;
#48 = DIRECTION ( 'NONE',  ( -1.000000000000000000, -0.000000000000000000, -0.000000000000000000 ) ) ;
#49 = EDGE_LOOP ( 'NONE', ( #14, #175, #82, #64, #344 ) ) ;
#50 = ORIENTED_EDGE ( 'NONE', *, *, #283, .T. ) ;
#51 = EDGE_CURVE ( 'NONE', #133, #185, #146, .T. ) ;
#52 = DIRECTION ( 'NONE',  ( 1.000000000000000000, 0.000000000000000000, 0.000000000000000000 ) ) ;
#53 = APPLICATION_PROTOCOL_DEFINITION ( 'international standard', 'config_control_design', 1994, #151 ) ;
#54 = AXIS2_PLACEMENT_3D ( 'NONE', #281, #336, #75 ) ;
#55 = AXIS2_PLACEMENT_3D ( 'NONE', #337, #252, #95 ) ;
#56 = ADVANCED_FACE ( 'NONE', ( #306 ), #279, .T. ) ;
#57 = CALENDAR_DATE ( 2024, 21, 9 ) ;
#58 = CALENDAR_DATE ( 2024, 21, 9 ) ;
#59 = CIRCLE ( 'NONE', #321, 9.000000000000019540 ) ;
#60 = DATE_AND_TIME ( #58, #284 ) ;
#61 = LOCAL_TIME ( 12, 11, 20.00000000000000000, #226 ) ;
#62 = EDGE_CURVE ( 'NONE', #133, #302, #173, .T. ) ;
#63 = APPROVAL_STATUS ( 'not_yet_approved' ) ;
#64 = ORIENTED_EDGE ( 'NONE', *, *, #104, .F. ) ;
#65 = APPROVAL_DATE_TIME ( #303, #323 ) ;
#66 = EDGE_LOOP ( 'NONE', ( #90, #272 ) ) ;
#67 = VERTEX_POINT ( 'NONE', #223 ) ;
#68 = CIRCLE ( 'NONE', #299, 14.99999999999997158 ) ;
#69 = EDGE_LOOP ( 'NONE', ( #21, #307, #251, #276 ) ) ;
#70 = EDGE_CURVE ( 'NONE', #103, #317, #239, .T. ) ;
#71 = LINE ( 'NONE', #339, #168 ) ;
#72 = DIRECTION ( 'NONE',  ( -1.000000000000000000, -0.000000000000000000, -0.000000000000000000 ) ) ;
#73 = DIRECTION ( 'NONE',  ( -1.000000000000000000, -0.000000000000000000, -0.000000000000000000 ) ) ;
#74 = DIRECTION ( 'NONE',  ( -1.000000000000000000, -0.000000000000000000, -0.000000000000000000 ) ) ;
#75 = DIRECTION ( 'NONE',  ( -0.000000000000000000, 0.000000000000000000, 1.000000000000000000 ) ) ;
#76 = FACE_OUTER_BOUND ( 'NONE', #128, .T. ) ;
#77 = AXIS2_PLACEMENT_3D ( 'NONE', #319, #211, #261 ) ;
#78 = ADVANCED_FACE ( 'NONE', ( #144 ), #5, .T. ) ;
#79 = FACE_OUTER_BOUND ( 'NONE', #259, .T. ) ;
#80 = CARTESIAN_POINT ( 'NONE',  ( -5.000000000000022204, 9.184850993605132167E-16, 0.000000000000000000 ) ) ;
#81 = ORIENTED_EDGE ( 'NONE', *, *, #229, .T. ) ;
#82 = ORIENTED_EDGE ( 'NONE', *, *, #62, .T. ) ;
#83 = CC_DESIGN_APPROVAL ( #323, ( #169 ) ) ;
#84 = PERSON_AND_ORGANIZATION ( #117, #183 ) ;
#85 = EDGE_CURVE ( 'NONE', #37, #317, #71, .T. ) ;
#86 = CARTESIAN_POINT ( 'NONE',  ( 6.000000000000587974, 0.000000000000000000, 7.500000000000018652 ) ) ;
#87 = PERSON_AND_ORGANIZATION_ROLE ( 'design_supplier' ) ;
#88 = AXIS2_PLACEMENT_3D ( 'NONE', #17, #231, #275 ) ;
#89 = DIRECTION ( 'NONE',  ( -1.000000000000000000, -0.000000000000000000, -0.000000000000000000 ) ) ;
#90 = ORIENTED_EDGE ( 'NONE', *, *, #51, .F. ) ;
#91 = DIRECTION ( 'NONE',  ( -1.000000000000000000, -0.000000000000000000, -0.000000000000000000 ) ) ;
#92 = EDGE_CURVE ( 'NONE', #236, #67, #217, .T. ) ;
#93 = CARTESIAN_POINT ( 'NONE',  ( -2.000000000000001776, 0.000000000000000000, 0.000000000000000000 ) ) ;
#94 = CARTESIAN_POINT ( 'NONE',  ( 0.000000000000000000, 0.000000000000000000, 0.000000000000000000 ) ) ;
#95 = DIRECTION ( 'NONE',  ( 0.000000000000000000, 0.000000000000000000, 1.000000000000000000 ) ) ;
#96 = EDGE_CURVE ( 'NONE', #287, #119, #16, .T. ) ;
#97 = CYLINDRICAL_SURFACE ( 'NONE', #55, 9.000000000000017764 ) ;
#98 = CARTESIAN_POINT ( 'NONE',  ( -2.000000000000001776, 0.000000000000000000, 0.000000000000000000 ) ) ;
#99 = AXIS2_PLACEMENT_3D ( 'NONE', #330, #89, #199 ) ;
#100 = ORIENTED_EDGE ( 'NONE', *, *, #219, .T. ) ;
#101 = VECTOR ( 'NONE', #72, 1000.000000000000000 ) ;
#102 = DIRECTION ( 'NONE',  ( -1.000000000000000000, -0.000000000000000000, -0.000000000000000000 ) ) ;
#103 = VERTEX_POINT ( 'NONE', #257 ) ;
#104 = EDGE_CURVE ( 'NONE', #8, #302, #59, .T. ) ;
#105 = APPROVAL_PERSON_ORGANIZATION ( #269, #34, #266 ) ;
#106 = FACE_OUTER_BOUND ( 'NONE', #66, .T. ) ;
#107 = DIRECTION ( 'NONE',  ( -0.000000000000000000, 0.000000000000000000, 1.000000000000000000 ) ) ;
#108 = AXIS2_PLACEMENT_3D ( 'NONE', #9, #201, #220 ) ;
#109 = SECURITY_CLASSIFICATION ( '', '', #38 ) ;
#110 = COORDINATED_UNIVERSAL_TIME_OFFSET ( 1, 0, .AHEAD. ) ;
#111 = CC_DESIGN_PERSON_AND_ORGANIZATION_ASSIGNMENT ( #329, #87, ( #169 ) ) ;
#112 = DATE_AND_TIME ( #348, #61 ) ;
#113 = DIRECTION ( 'NONE',  ( 0.000000000000000000, 0.000000000000000000, 1.000000000000000000 ) ) ;
#114 = DATE_TIME_ROLE ( 'classification_date' ) ;
#115 = DIRECTION ( 'NONE',  ( -1.000000000000000000, -0.000000000000000000, -0.000000000000000000 ) ) ;
#116 = CIRCLE ( 'NONE', #253, 6.500000000000018652 ) ;
#117 = PERSON ( 'UNSPECIFIED', 'UNSPECIFIED', 'UNSPECIFIED', ('UNSPECIFIED'), ('UNSPECIFIED'), ('UNSPECIFIED') ) ;
#118 = APPROVAL_ROLE ( '' ) ;
#119 = VERTEX_POINT ( 'NONE', #285 ) ;
#120 = ORIENTED_EDGE ( 'NONE', *, *, #30, .F. ) ;
#121 = FACE_OUTER_BOUND ( 'NONE', #210, .T. ) ;
#122 = AXIS2_PLACEMENT_3D ( 'NONE', #39, #91, #3 ) ;
#123 = CIRCLE ( 'NONE', #254, 9.000000000000019540 ) ;
#124 = LINE ( 'NONE', #235, #101 ) ;
#125 = EDGE_CURVE ( 'NONE', #119, #287, #116, .T. ) ;
#126 = DIRECTION ( 'NONE',  ( 0.000000000000000000, 0.000000000000000000, 1.000000000000000000 ) ) ;
#127 = DIRECTION ( 'NONE',  ( -0.7071067811865479058, 8.659560562354930393E-17, -0.7071067811865472397 ) ) ;
#128 = EDGE_LOOP ( 'NONE', ( #148, #200, #135, #213 ) ) ;
#129 = CARTESIAN_POINT ( 'NONE',  ( 7.000000000000588862, 0.000000000000000000, 0.000000000000000000 ) ) ;
#130 = CARTESIAN_POINT ( 'NONE',  ( 7.000000000000588862, 0.000000000000000000, 6.500000000000018652 ) ) ;
#131 = ORIENTED_EDGE ( 'NONE', *, *, #345, .T. ) ;
#132 =( NAMED_UNIT ( * ) PLANE_ANGLE_UNIT ( ) SI_UNIT ( $, .RADIAN. ) );
#133 = VERTEX_POINT ( 'NONE', #208 ) ;
#134 = DESIGN_CONTEXT ( 'detailed design', #151, 'design' ) ;
#135 = ORIENTED_EDGE ( 'NONE', *, *, #219, .F. ) ;
#136 = CC_DESIGN_SECURITY_CLASSIFICATION ( #109, ( #169 ) ) ;
#137 = ADVANCED_FACE ( 'NONE', ( #79 ), #206, .T. ) ;
#138 = DIRECTION ( 'NONE',  ( 0.000000000000000000, 0.000000000000000000, 1.000000000000000000 ) ) ;
#139 = DATE_TIME_ROLE ( 'creation_date' ) ;
#140 = CONICAL_SURFACE ( 'NONE', #122, 6.500000000000018652, 0.7853981633974479459 ) ;
#141 = LOCAL_TIME ( 12, 11, 20.00000000000000000, #296 ) ;
#142 = COORDINATED_UNIVERSAL_TIME_OFFSET ( 1, 0, .AHEAD. ) ;
#143 = PERSON_AND_ORGANIZATION ( #117, #183 ) ;
#144 = FACE_OUTER_BOUND ( 'NONE', #145, .T. ) ;
#145 = EDGE_LOOP ( 'NONE', ( #304, #346, #186, #120, #207 ) ) ;
#146 = CIRCLE ( 'NONE', #334, 9.000000000000017764 ) ;
#147 = ADVANCED_FACE ( 'NONE', ( #121 ), #230, .F. ) ;
#148 = ORIENTED_EDGE ( 'NONE', *, *, #305, .T. ) ;
#149 = DIRECTION ( 'NONE',  ( -1.000000000000000000, -0.000000000000000000, -0.000000000000000000 ) ) ;
#150 = ORIENTED_EDGE ( 'NONE', *, *, #125, .T. ) ;
#151 = APPLICATION_CONTEXT ( 'configuration controlled 3d designs of mechanical parts and assemblies' ) ;
#152 = FACE_OUTER_BOUND ( 'NONE', #49, .T. ) ;
#153 = DIRECTION ( 'NONE',  ( -0.000000000000000000, 0.000000000000000000, 1.000000000000000000 ) ) ;
#154 = VECTOR ( 'NONE', #115, 1000.000000000000000 ) ;
#155 = AXIS2_PLACEMENT_3D ( 'NONE', #215, #320, #107 ) ;
#156 = DIRECTION ( 'NONE',  ( -1.000000000000000000, -0.000000000000000000, -0.000000000000000000 ) ) ;
#157 = CARTESIAN_POINT ( 'NONE',  ( 0.000000000000000000, 1.102182119232620080E-15, -9.000000000000017764 ) ) ;
#158 = ORIENTED_EDGE ( 'NONE', *, *, #92, .T. ) ;
#159 = EDGE_CURVE ( 'NONE', #236, #240, #68, .T. ) ;
#160 = ORIENTED_EDGE ( 'NONE', *, *, #30, .T. ) ;
#161 = MECHANICAL_CONTEXT ( 'NONE', #246, 'mechanical' ) ;
#162 = CARTESIAN_POINT ( 'NONE',  ( -2.000000000000001776, 0.000000000000000000, 0.000000000000000000 ) ) ;
#163 = AXIS2_PLACEMENT_3D ( 'NONE', #98, #73, #332 ) ;
#164 = APPROVAL_STATUS ( 'not_yet_approved' ) ;
#165 = ADVANCED_BREP_SHAPE_REPRESENTATION ( '3D_GR1392_DN18x1.5_18380070', ( #347, #224 ), #294 ) ;
#166 = APPROVAL_STATUS ( 'not_yet_approved' ) ;
#167 = DIRECTION ( 'NONE',  ( -0.000000000000000000, 0.000000000000000000, -1.000000000000000000 ) ) ;
#168 = VECTOR ( 'NONE', #228, 1000.000000000000000 ) ;
#169 = PRODUCT_DEFINITION_FORMATION_WITH_SPECIFIED_SOURCE ( 'ANY', '', #1, .NOT_KNOWN. ) ;
#170 = COORDINATED_UNIVERSAL_TIME_OFFSET ( 1, 0, .AHEAD. ) ;
#171 = FACE_OUTER_BOUND ( 'NONE', #42, .T. ) ;
#172 = PERSON_AND_ORGANIZATION ( #117, #183 ) ;
#173 = LINE ( 'NONE', #271, #154 ) ;
#174 = PRODUCT_DEFINITION_SHAPE ( 'NONE', 'NONE',  #181 ) ;
#175 = ORIENTED_EDGE ( 'NONE', *, *, #221, .T. ) ;
#176 = APPROVAL_ROLE ( '' ) ;
#177 = ORIENTED_EDGE ( 'NONE', *, *, #229, .F. ) ;
#178 = SPHERICAL_SURFACE ( 'NONE', #311, 14.99999999999997158 ) ;
#179 = ORIENTED_EDGE ( 'NONE', *, *, #245, .F. ) ;
#180 = DIRECTION ( 'NONE',  ( -1.000000000000000000, -0.000000000000000000, -0.000000000000000000 ) ) ;
#181 = PRODUCT_DEFINITION ( 'UNKNOWN', '', #169, #134 ) ;
#182 = DIRECTION ( 'NONE',  ( 0.000000000000000000, 0.000000000000000000, 1.000000000000000000 ) ) ;
#183 = ORGANIZATION ( 'UNSPECIFIED', 'UNSPECIFIED', '' ) ;
#184 = CARTESIAN_POINT ( 'NONE',  ( 6.000000000000587974, 0.000000000000000000, 0.000000000000000000 ) ) ;
#185 = VERTEX_POINT ( 'NONE', #157 ) ;
#186 = ORIENTED_EDGE ( 'NONE', *, *, #92, .F. ) ;
#187 = CIRCLE ( 'NONE', #99, 9.000000000000019540 ) ;
#188 =( NAMED_UNIT ( * ) SI_UNIT ( $, .STERADIAN. ) SOLID_ANGLE_UNIT ( ) );
#189 =( LENGTH_UNIT ( ) NAMED_UNIT ( * ) SI_UNIT ( .MILLI., .METRE. ) );
#190 = CIRCLE ( 'NONE', #191, 7.500000000000018652 ) ;
#191 = AXIS2_PLACEMENT_3D ( 'NONE', #184, #156, #308 ) ;
#192 = APPROVAL_DATE_TIME ( #112, #20 ) ;
#193 = DIRECTION ( 'NONE',  ( -1.000000000000000000, -0.000000000000000000, -0.000000000000000000 ) ) ;
#194 = AXIS2_PLACEMENT_3D ( 'NONE', #326, #349, #196 ) ;
#195 = LOCAL_TIME ( 12, 11, 20.00000000000000000, #170 ) ;
#196 = DIRECTION ( 'NONE',  ( 0.000000000000000000, 0.000000000000000000, 1.000000000000000000 ) ) ;
#197 = ORIENTED_EDGE ( 'NONE', *, *, #70, .T. ) ;
#198 = PERSON_AND_ORGANIZATION_ROLE ( 'creator' ) ;
#199 = DIRECTION ( 'NONE',  ( 0.000000000000000000, 0.000000000000000000, 1.000000000000000000 ) ) ;
#200 = ORIENTED_EDGE ( 'NONE', *, *, #289, .T. ) ;
#201 = DIRECTION ( 'NONE',  ( -0.000000000000000000, 0.000000000000000000, -1.000000000000000000 ) ) ;
#202 = VECTOR ( 'NONE', #327, 1000.000000000000000 ) ;
#203 = CIRCLE ( 'NONE', #300, 7.500000000000018652 ) ;
#204 = DIRECTION ( 'NONE',  ( -1.000000000000000000, -0.000000000000000000, -0.000000000000000000 ) ) ;
#205 = DIRECTION ( 'NONE',  ( 0.000000000000000000, 0.000000000000000000, 1.000000000000000000 ) ) ;
#206 = CONICAL_SURFACE ( 'NONE', #25, 6.500000000000018652, 0.7853981633974479459 ) ;
#207 = ORIENTED_EDGE ( 'NONE', *, *, #62, .F. ) ;
#208 = CARTESIAN_POINT ( 'NONE',  ( 0.000000000000000000, 0.000000000000000000, 9.000000000000017764 ) ) ;
#209 = CARTESIAN_POINT ( 'NONE',  ( 6.000000000000587974, 0.000000000000000000, 0.000000000000000000 ) ) ;
#210 = EDGE_LOOP ( 'NONE', ( #315, #232 ) ) ;
#211 = DIRECTION ( 'NONE',  ( -1.000000000000000000, -0.000000000000000000, -0.000000000000000000 ) ) ;
#212 = AXIS2_PLACEMENT_3D ( 'NONE', #129, #48, #342 ) ;
#213 = ORIENTED_EDGE ( 'NONE', *, *, #85, .F. ) ;
#214 = DIRECTION ( 'NONE',  ( 0.000000000000000000, 0.000000000000000000, 1.000000000000000000 ) ) ;
#215 = CARTESIAN_POINT ( 'NONE',  ( -8.927241364235123658E-15, 7.500000000000017764, 0.000000000000000000 ) ) ;
#216 = DIRECTION ( 'NONE',  ( -1.000000000000000000, -0.000000000000000000, -0.000000000000000000 ) ) ;
#217 = CIRCLE ( 'NONE', #163, 9.000000000000019540 ) ;
#218 = AXIS2_PLACEMENT_3D ( 'NONE', #343, #258, #338 ) ;
#219 = EDGE_CURVE ( 'NONE', #317, #103, #45, .T. ) ;
#220 = DIRECTION ( 'NONE',  ( 0.000000000000000000, 1.000000000000000000, 0.000000000000000000 ) ) ;
#221 = EDGE_CURVE ( 'NONE', #185, #133, #260, .T. ) ;
#222 = APPROVAL_DATE_TIME ( #2, #34 ) ;
#223 = CARTESIAN_POINT ( 'NONE',  ( -2.000000000000001776, 1.102182119232620278E-15, -9.000000000000019540 ) ) ;
#224 = AXIS2_PLACEMENT_3D ( 'NONE', #291, #138, #52 ) ;
#225 = EDGE_LOOP ( 'NONE', ( #158, #131, #50, #288 ) ) ;
#226 = COORDINATED_UNIVERSAL_TIME_OFFSET ( 1, 0, .AHEAD. ) ;
#227 = ORIENTED_EDGE ( 'NONE', *, *, #305, .F. ) ;
#228 = DIRECTION ( 'NONE',  ( -1.000000000000000000, -0.000000000000000000, -0.000000000000000000 ) ) ;
#229 = EDGE_CURVE ( 'NONE', #119, #331, #314, .T. ) ;
#230 = PLANE ( 'NONE',  #54 ) ;
#231 = DIRECTION ( 'NONE',  ( -1.000000000000000000, -0.000000000000000000, -0.000000000000000000 ) ) ;
#232 = ORIENTED_EDGE ( 'NONE', *, *, #125, .F. ) ;
#233 = CARTESIAN_POINT ( 'NONE',  ( 7.000000000000588862, 0.000000000000000000, 0.000000000000000000 ) ) ;
#234 = CC_DESIGN_APPROVAL ( #34, ( #109 ) ) ;
#235 = CARTESIAN_POINT ( 'NONE',  ( -154.8395502972293230, 9.184850993605173582E-16, -7.500000000000018652 ) ) ;
#236 = VERTEX_POINT ( 'NONE', #280 ) ;
#237 = ORIENTED_EDGE ( 'NONE', *, *, #264, .F. ) ;
#238 = CC_DESIGN_PERSON_AND_ORGANIZATION_ASSIGNMENT ( #143, #273, ( #169 ) ) ;
#239 = CIRCLE ( 'NONE', #194, 7.500000000000017764 ) ;
#240 = VERTEX_POINT ( 'NONE', #80 ) ;
#241 = APPLICATION_PROTOCOL_DEFINITION ( 'international standard', 'config_control_design', 1994, #246 ) ;
#242 = CC_DESIGN_PERSON_AND_ORGANIZATION_ASSIGNMENT ( #172, #198, ( #181 ) ) ;
#243 = PERSON_AND_ORGANIZATION ( #117, #183 ) ;
#244 = DIRECTION ( 'NONE',  ( 0.000000000000000000, 1.000000000000000000, 0.000000000000000000 ) ) ;
#245 = EDGE_CURVE ( 'NONE', #331, #37, #190, .T. ) ;
#246 = APPLICATION_CONTEXT ( 'configuration controlled 3d designs of mechanical parts and assemblies' ) ;
#247 = PERSON_AND_ORGANIZATION_ROLE ( 'classification_officer' ) ;
#248 = VECTOR ( 'NONE', #127, 999.9999999999998863 ) ;
#249 = CIRCLE ( 'NONE', #218, 14.99999999999997158 ) ;
#250 = EDGE_LOOP ( 'NONE', ( #262, #10, #160, #24 ) ) ;
#251 = ORIENTED_EDGE ( 'NONE', *, *, #85, .T. ) ;
#252 = DIRECTION ( 'NONE',  ( -1.000000000000000000, -0.000000000000000000, -0.000000000000000000 ) ) ;
#253 = AXIS2_PLACEMENT_3D ( 'NONE', #233, #102, #313 ) ;
#254 = AXIS2_PLACEMENT_3D ( 'NONE', #162, #216, #214 ) ;
#255 = DIRECTION ( 'NONE',  ( 1.000000000000000000, 0.000000000000000000, 0.000000000000000000 ) ) ;
#256 = CC_DESIGN_PERSON_AND_ORGANIZATION_ASSIGNMENT ( #84, #292, ( #1 ) ) ;
#257 = CARTESIAN_POINT ( 'NONE',  ( -2.775557561562891351E-14, 9.184850993605171610E-16, -7.500000000000017764 ) ) ;
#258 = DIRECTION ( 'NONE',  ( 0.000000000000000000, 1.224646799147353207E-16, -1.000000000000000000 ) ) ;
#259 = EDGE_LOOP ( 'NONE', ( #40, #81, #227, #237 ) ) ;
#260 = CIRCLE ( 'NONE', #6, 9.000000000000017764 ) ;
#261 = DIRECTION ( 'NONE',  ( 0.000000000000000000, 0.000000000000000000, 1.000000000000000000 ) ) ;
#262 = ORIENTED_EDGE ( 'NONE', *, *, #283, .F. ) ;
#263 = UNCERTAINTY_MEASURE_WITH_UNIT (LENGTH_MEASURE( 1.000000000000000082E-05 ), #189, 'distance_accuracy_value', 'NONE');
#264 = EDGE_CURVE ( 'NONE', #287, #37, #282, .T. ) ;
#265 = FACE_BOUND ( 'NONE', #328, .T. ) ;
#266 = APPROVAL_ROLE ( '' ) ;
#267 = CARTESIAN_POINT ( 'NONE',  ( -2.000000000000001776, -9.000000000000017764, -1.102182119232620080E-15 ) ) ;
#268 = CC_DESIGN_DATE_AND_TIME_ASSIGNMENT ( #60, #114, ( #109 ) ) ;
#269 = PERSON_AND_ORGANIZATION ( #117, #183 ) ;
#270 = PERSON_AND_ORGANIZATION ( #117, #183 ) ;
#271 = CARTESIAN_POINT ( 'NONE',  ( -154.8395502972293230, 0.000000000000000000, 9.000000000000017764 ) ) ;
#272 = ORIENTED_EDGE ( 'NONE', *, *, #221, .F. ) ;
#273 = PERSON_AND_ORGANIZATION_ROLE ( 'creator' ) ;
#274 = CARTESIAN_POINT ( 'NONE',  ( -154.8395502972293230, 1.102182119232620080E-15, -9.000000000000017764 ) ) ;
#275 = DIRECTION ( 'NONE',  ( 0.000000000000000000, 0.000000000000000000, 1.000000000000000000 ) ) ;
#276 = ORIENTED_EDGE ( 'NONE', *, *, #70, .F. ) ;
#277 = VECTOR ( 'NONE', #286, 999.9999999999998863 ) ;
#278 = CC_DESIGN_DATE_AND_TIME_ASSIGNMENT ( #324, #139, ( #181 ) ) ;
#279 = CYLINDRICAL_SURFACE ( 'NONE', #22, 7.500000000000018652 ) ;
#280 = CARTESIAN_POINT ( 'NONE',  ( -2.000000000000001776, 9.000000000000017764, 0.000000000000000000 ) ) ;
#281 = CARTESIAN_POINT ( 'NONE',  ( 7.000000000000301092, 0.000000000000000000, 0.000000000000000000 ) ) ;
#282 = LINE ( 'NONE', #43, #277 ) ;
#283 = EDGE_CURVE ( 'NONE', #8, #240, #249, .T. ) ;
#284 = LOCAL_TIME ( 12, 11, 20.00000000000000000, #110 ) ;
#285 = CARTESIAN_POINT ( 'NONE',  ( 7.000000000000588862, 8.572527594031495870E-16, -6.500000000000018652 ) ) ;
#286 = DIRECTION ( 'NONE',  ( -0.7071067811865479058, 0.000000000000000000, 0.7071067811865472397 ) ) ;
#287 = VERTEX_POINT ( 'NONE', #130 ) ;
#288 = ORIENTED_EDGE ( 'NONE', *, *, #159, .F. ) ;
#289 = EDGE_CURVE ( 'NONE', #331, #103, #124, .T. ) ;
#290 = CARTESIAN_POINT ( 'NONE',  ( 6.000000000000587974, 9.184850993605173582E-16, -7.500000000000018652 ) ) ;
#291 = CARTESIAN_POINT ( 'NONE',  ( 0.000000000000000000, 0.000000000000000000, 0.000000000000000000 ) ) ;
#292 = PERSON_AND_ORGANIZATION_ROLE ( 'design_owner' ) ;
#293 = CLOSED_SHELL ( 'NONE', ( #137, #318, #78, #47, #4, #295, #350, #56, #44, #147 ) ) ;
#294 =( GEOMETRIC_REPRESENTATION_CONTEXT ( 3 ) GLOBAL_UNCERTAINTY_ASSIGNED_CONTEXT ( ( #263 ) ) GLOBAL_UNIT_ASSIGNED_CONTEXT ( ( #189, #132, #188 ) ) REPRESENTATION_CONTEXT ( 'NONE', 'WORKASPACE' ) );
#295 = ADVANCED_FACE ( 'NONE', ( #152 ), #97, .T. ) ;
#296 = COORDINATED_UNIVERSAL_TIME_OFFSET ( 1, 0, .AHEAD. ) ;
#297 = FACE_OUTER_BOUND ( 'NONE', #250, .T. ) ;
#298 = PRODUCT_RELATED_PRODUCT_CATEGORY ( 'detail', '', ( #1 ) ) ;
#299 = AXIS2_PLACEMENT_3D ( 'NONE', #46, #153, #255 ) ;
#300 = AXIS2_PLACEMENT_3D ( 'NONE', #209, #74, #182 ) ;
#301 = CARTESIAN_POINT ( 'NONE',  ( -154.8395502972293230, 0.000000000000000000, 0.000000000000000000 ) ) ;
#302 = VERTEX_POINT ( 'NONE', #310 ) ;
#303 = DATE_AND_TIME ( #35, #195 ) ;
#304 = ORIENTED_EDGE ( 'NONE', *, *, #51, .T. ) ;
#305 = EDGE_CURVE ( 'NONE', #37, #331, #203, .T. ) ;
#306 = FACE_OUTER_BOUND ( 'NONE', #69, .T. ) ;
#307 = ORIENTED_EDGE ( 'NONE', *, *, #245, .T. ) ;
#308 = DIRECTION ( 'NONE',  ( 0.000000000000000000, 0.000000000000000000, 1.000000000000000000 ) ) ;
#309 = DIRECTION ( 'NONE',  ( 0.000000000000000000, 0.000000000000000000, 1.000000000000000000 ) ) ;
#310 = CARTESIAN_POINT ( 'NONE',  ( -2.000000000000001776, 0.000000000000000000, 9.000000000000019540 ) ) ;
#311 = AXIS2_PLACEMENT_3D ( 'NONE', #41, #167, #244 ) ;
#312 = APPROVAL_PERSON_ORGANIZATION ( #270, #323, #176 ) ;
#313 = DIRECTION ( 'NONE',  ( 0.000000000000000000, 0.000000000000000000, 1.000000000000000000 ) ) ;
#314 = LINE ( 'NONE', #333, #248 ) ;
#315 = ORIENTED_EDGE ( 'NONE', *, *, #96, .F. ) ;
#316 = CARTESIAN_POINT ( 'NONE',  ( 7.000000000000588862, 0.000000000000000000, 0.000000000000000000 ) ) ;
#317 = VERTEX_POINT ( 'NONE', #18 ) ;
#318 = ADVANCED_FACE ( 'NONE', ( #76 ), #28, .T. ) ;
#319 = CARTESIAN_POINT ( 'NONE',  ( -154.8395502972293230, 0.000000000000000000, 0.000000000000000000 ) ) ;
#320 = DIRECTION ( 'NONE',  ( -1.000000000000000000, 0.000000000000000000, -0.000000000000000000 ) ) ;
#321 = AXIS2_PLACEMENT_3D ( 'NONE', #93, #180, #19 ) ;
#322 = CARTESIAN_POINT ( 'NONE',  ( 0.000000000000000000, 0.000000000000000000, 0.000000000000000000 ) ) ;
#323 = APPROVAL ( #164, 'UNSPECIFIED' ) ;
#324 = DATE_AND_TIME ( #57, #141 ) ;
#325 = SHAPE_DEFINITION_REPRESENTATION ( #174, #165 ) ;
#326 = CARTESIAN_POINT ( 'NONE',  ( -2.775557561562891351E-14, 0.000000000000000000, 0.000000000000000000 ) ) ;
#327 = DIRECTION ( 'NONE',  ( -1.000000000000000000, -0.000000000000000000, -0.000000000000000000 ) ) ;
#328 = EDGE_LOOP ( 'NONE', ( #100, #197 ) ) ;
#329 = PERSON_AND_ORGANIZATION ( #117, #183 ) ;
#330 = CARTESIAN_POINT ( 'NONE',  ( -2.000000000000001776, 0.000000000000000000, 0.000000000000000000 ) ) ;
#331 = VERTEX_POINT ( 'NONE', #290 ) ;
#332 = DIRECTION ( 'NONE',  ( 0.000000000000000000, 0.000000000000000000, 1.000000000000000000 ) ) ;
#333 = CARTESIAN_POINT ( 'NONE',  ( 7.000000000000588862, 7.960204194457819143E-16, -6.500000000000018652 ) ) ;
#334 = AXIS2_PLACEMENT_3D ( 'NONE', #322, #193, #36 ) ;
#335 = CC_DESIGN_PERSON_AND_ORGANIZATION_ASSIGNMENT ( #243, #247, ( #109 ) ) ;
#336 = DIRECTION ( 'NONE',  ( -1.000000000000000000, 0.000000000000000000, -0.000000000000000000 ) ) ;
#337 = CARTESIAN_POINT ( 'NONE',  ( -154.8395502972293230, 0.000000000000000000, 0.000000000000000000 ) ) ;
#338 = DIRECTION ( 'NONE',  ( 0.000000000000000000, 1.000000000000000000, 1.224646799147353207E-16 ) ) ;
#339 = CARTESIAN_POINT ( 'NONE',  ( -154.8395502972293230, 0.000000000000000000, 7.500000000000018652 ) ) ;
#340 = ORIENTED_EDGE ( 'NONE', *, *, #264, .T. ) ;
#341 = CC_DESIGN_APPROVAL ( #20, ( #181 ) ) ;
#342 = DIRECTION ( 'NONE',  ( 0.000000000000000000, 0.000000000000000000, 1.000000000000000000 ) ) ;
#343 = CARTESIAN_POINT ( 'NONE',  ( 9.999999999999950262, 0.000000000000000000, 0.000000000000000000 ) ) ;
#344 = ORIENTED_EDGE ( 'NONE', *, *, #345, .F. ) ;
#345 = EDGE_CURVE ( 'NONE', #67, #8, #123, .T. ) ;
#346 = ORIENTED_EDGE ( 'NONE', *, *, #13, .T. ) ;
#347 = MANIFOLD_SOLID_BREP ( 'Rotation1', #293 ) ;
#348 = CALENDAR_DATE ( 2024, 21, 9 ) ;
#349 = DIRECTION ( 'NONE',  ( -1.000000000000000000, -0.000000000000000000, -0.000000000000000000 ) ) ;
#350 = ADVANCED_FACE ( 'NONE', ( #106, #265 ), #27, .F. ) ;
#351 = FACE_OUTER_BOUND ( 'NONE', #225, .T. ) ;
ENDSEC;
END-ISO-10303-21;
