ISO-10303-21;
HEADER;
FILE_DESCRIPTION (( 'STEP AP203' ),
    '1' );
FILE_NAME ('3D_R152_DN65_17305220.STEP',
    '2024-08-13T07:43:11',
    ( '' ),
    ( '' ),
    'SwSTEP 2.0',
    'SolidWorks 2024',
    '' );
FILE_SCHEMA (( 'CONFIG_CONTROL_DESIGN' ));
ENDSEC;

DATA;
#1 = SECURITY_CLASSIFICATION_LEVEL ( 'unclassified' ) ;
#2 = ORGANIZATION ( 'UNSPECIFIED', 'UNSPECIFIED', '' ) ;
#3 = PRODUCT_RELATED_PRODUCT_CATEGORY ( 'detail', '', ( #6 ) ) ;
#4 = ORIENTED_EDGE ( 'NONE', *, *, #20, .F. ) ;
#5 = EDGE_CURVE ( 'NONE', #121, #48, #38, .T. ) ;
#6 = PRODUCT ( '3D_R152_DN65_17305220', '3D_R152_DN65_17305220', '', ( #206 ) ) ;
#7 = ORIENTED_EDGE ( 'NONE', *, *, #88, .T. ) ;
#8 = DIRECTION ( 'NONE',  ( 0.000000000000000000, 0.000000000000000000, -1.000000000000000000 ) ) ;
#9 = DIRECTION ( 'NONE',  ( 0.000000000000000000, -0.000000000000000000, 1.000000000000000000 ) ) ;
#10 = DIRECTION ( 'NONE',  ( 0.000000000000000000, 1.000000000000000000, 0.000000000000000000 ) ) ;
#11 = DIRECTION ( 'NONE',  ( 0.000000000000000000, 0.000000000000000000, 1.000000000000000000 ) ) ;
#12 = LINE ( 'NONE', #235, #218 ) ;
#13 = EDGE_CURVE ( 'NONE', #192, #74, #101, .T. ) ;
#14 = CYLINDRICAL_SURFACE ( 'NONE', #21, 61.00000000000000000 ) ;
#15 = DIRECTION ( 'NONE',  ( 0.000000000000000000, 0.000000000000000000, 1.000000000000000000 ) ) ;
#16 = CALENDAR_DATE ( 2024, 13, 8 ) ;
#17 = APPROVAL_ROLE ( '' ) ;
#18 = CC_DESIGN_PERSON_AND_ORGANIZATION_ASSIGNMENT ( #168, #61, ( #46 ) ) ;
#19 = EDGE_LOOP ( 'NONE', ( #80, #95, #62, #41 ) ) ;
#20 = EDGE_CURVE ( 'NONE', #193, #211, #176, .T. ) ;
#21 = AXIS2_PLACEMENT_3D ( 'NONE', #222, #248, #33 ) ;
#22 = ORIENTED_EDGE ( 'NONE', *, *, #26, .T. ) ;
#23 = PLANE ( 'NONE',  #243 ) ;
#24 = DIRECTION ( 'NONE',  ( -0.000000000000000000, -1.000000000000000000, -0.000000000000000000 ) ) ;
#25 = PRODUCT_DEFINITION_SHAPE ( 'NONE', 'NONE',  #72 ) ;
#26 = EDGE_CURVE ( 'NONE', #121, #74, #174, .T. ) ;
#27 = DIRECTION ( 'NONE',  ( -0.000000000000000000, -1.000000000000000000, -0.000000000000000000 ) ) ;
#28 = FACE_OUTER_BOUND ( 'NONE', #209, .T. ) ;
#29 = CARTESIAN_POINT ( 'NONE',  ( 0.000000000000000000, 0.000000000000000000, 0.000000000000000000 ) ) ;
#30 = APPROVAL_PERSON_ORGANIZATION ( #145, #142, #54 ) ;
#31 = DIRECTION ( 'NONE',  ( 0.000000000000000000, 0.000000000000000000, -1.000000000000000000 ) ) ;
#32 = DIRECTION ( 'NONE',  ( 0.000000000000000000, 1.000000000000000000, 0.000000000000000000 ) ) ;
#33 = DIRECTION ( 'NONE',  ( 0.000000000000000000, 0.000000000000000000, -1.000000000000000000 ) ) ;
#34 =( LENGTH_UNIT ( ) NAMED_UNIT ( * ) SI_UNIT ( .MILLI., .METRE. ) );
#35 = CARTESIAN_POINT ( 'NONE',  ( 0.000000000000000000, 8.000000000000000000, -131.0000000000000284 ) ) ;
#36 = PERSON_AND_ORGANIZATION_ROLE ( 'design_supplier' ) ;
#37 = ORIENTED_EDGE ( 'NONE', *, *, #139, .T. ) ;
#38 = CIRCLE ( 'NONE', #76, 61.00000000000000000 ) ;
#39 = ORIENTED_EDGE ( 'NONE', *, *, #234, .T. ) ;
#40 = DATE_AND_TIME ( #210, #182 ) ;
#41 = ORIENTED_EDGE ( 'NONE', *, *, #139, .F. ) ;
#42 = AXIS2_PLACEMENT_3D ( 'NONE', #219, #83, #31 ) ;
#43 = EDGE_LOOP ( 'NONE', ( #157, #7, #99, #49 ) ) ;
#44 = ORIENTED_EDGE ( 'NONE', *, *, #184, .T. ) ;
#45 = APPROVAL ( #227, 'UNSPECIFIED' ) ;
#46 = PRODUCT_DEFINITION_FORMATION_WITH_SPECIFIED_SOURCE ( 'ANY', '', #6, .NOT_KNOWN. ) ;
#47 = CYLINDRICAL_SURFACE ( 'NONE', #107, 61.00000000000000000 ) ;
#48 = VERTEX_POINT ( 'NONE', #69 ) ;
#49 = ORIENTED_EDGE ( 'NONE', *, *, #184, .F. ) ;
#50 = CC_DESIGN_PERSON_AND_ORGANIZATION_ASSIGNMENT ( #190, #212, ( #189 ) ) ;
#51 =( NAMED_UNIT ( * ) SI_UNIT ( $, .STERADIAN. ) SOLID_ANGLE_UNIT ( ) );
#52 = DATE_AND_TIME ( #16, #90 ) ;
#53 = MANIFOLD_SOLID_BREP ( 'Aufsatz-Linear austragen1', #200 ) ;
#54 = APPROVAL_ROLE ( '' ) ;
#55 = CARTESIAN_POINT ( 'NONE',  ( 0.000000000000000000, 8.000000000000000000, 0.000000000000000000 ) ) ;
#56 = AXIS2_PLACEMENT_3D ( 'NONE', #202, #163, #15 ) ;
#57 = APPROVAL_ROLE ( '' ) ;
#58 = EDGE_CURVE ( 'NONE', #117, #97, #135, .T. ) ;
#59 = CALENDAR_DATE ( 2024, 13, 8 ) ;
#60 = CC_DESIGN_APPROVAL ( #45, ( #189 ) ) ;
#61 = PERSON_AND_ORGANIZATION_ROLE ( 'creator' ) ;
#62 = ORIENTED_EDGE ( 'NONE', *, *, #229, .T. ) ;
#63 = PERSON ( 'UNSPECIFIED', 'UNSPECIFIED', 'UNSPECIFIED', ('UNSPECIFIED'), ('UNSPECIFIED'), ('UNSPECIFIED') ) ;
#64 = DIRECTION ( 'NONE',  ( -0.000000000000000000, -1.000000000000000000, -0.000000000000000000 ) ) ;
#65 = VECTOR ( 'NONE', #183, 1000.000000000000000 ) ;
#66 = PLANE ( 'NONE',  #114 ) ;
#67 = CC_DESIGN_PERSON_AND_ORGANIZATION_ASSIGNMENT ( #185, #244, ( #6 ) ) ;
#68 = CARTESIAN_POINT ( 'NONE',  ( 0.000000000000000000, 0.000000000000000000, 0.000000000000000000 ) ) ;
#69 = CARTESIAN_POINT ( 'NONE',  ( 0.000000000000000000, 8.000000000000000000, -61.00000000000000000 ) ) ;
#70 = CARTESIAN_POINT ( 'NONE',  ( 7.470345474798855081E-15, 8.000000000000000000, 61.00000000000000000 ) ) ;
#71 = APPLICATION_PROTOCOL_DEFINITION ( 'international standard', 'config_control_design', 1994, #170 ) ;
#72 = PRODUCT_DEFINITION ( 'UNKNOWN', '', #46, #249 ) ;
#73 = ADVANCED_FACE ( 'NONE', ( #172 ), #47, .F. ) ;
#74 = VERTEX_POINT ( 'NONE', #241 ) ;
#75 = PERSON_AND_ORGANIZATION ( #63, #2 ) ;
#76 = AXIS2_PLACEMENT_3D ( 'NONE', #116, #198, #103 ) ;
#77 = APPROVAL_PERSON_ORGANIZATION ( #231, #91, #57 ) ;
#78 = CARTESIAN_POINT ( 'NONE',  ( 7.470345474798855081E-15, 8.000000000000000000, 61.00000000000000000 ) ) ;
#79 = FACE_BOUND ( 'NONE', #217, .T. ) ;
#80 = ORIENTED_EDGE ( 'NONE', *, *, #26, .F. ) ;
#81 = DIRECTION ( 'NONE',  ( 0.000000000000000000, 0.000000000000000000, -1.000000000000000000 ) ) ;
#82 = CARTESIAN_POINT ( 'NONE',  ( 0.000000000000000000, 8.000000000000000000, -61.00000000000000000 ) ) ;
#83 = DIRECTION ( 'NONE',  ( -0.000000000000000000, -1.000000000000000000, -0.000000000000000000 ) ) ;
#84 = DIRECTION ( 'NONE',  ( -0.000000000000000000, -1.000000000000000000, -0.000000000000000000 ) ) ;
#85 = CC_DESIGN_DATE_AND_TIME_ASSIGNMENT ( #152, #131, ( #189 ) ) ;
#86 = CARTESIAN_POINT ( 'NONE',  ( 0.000000000000000000, 0.000000000000000000, -61.00000000000000000 ) ) ;
#87 = CARTESIAN_POINT ( 'NONE',  ( 0.000000000000000000, 0.000000000000000000, 0.000000000000000000 ) ) ;
#88 = EDGE_CURVE ( 'NONE', #211, #117, #12, .T. ) ;
#89 = APPROVAL_DATE_TIME ( #110, #91 ) ;
#90 = LOCAL_TIME ( 9, 43, 11.00000000000000000, #143 ) ;
#91 = APPROVAL ( #149, 'UNSPECIFIED' ) ;
#92 = PERSON_AND_ORGANIZATION ( #63, #2 ) ;
#93 = ORIENTED_EDGE ( 'NONE', *, *, #5, .F. ) ;
#94 = CIRCLE ( 'NONE', #240, 131.0000000000000284 ) ;
#95 = ORIENTED_EDGE ( 'NONE', *, *, #5, .T. ) ;
#96 = CC_DESIGN_DATE_AND_TIME_ASSIGNMENT ( #113, #207, ( #72 ) ) ;
#97 = VERTEX_POINT ( 'NONE', #141 ) ;
#98 = CC_DESIGN_SECURITY_CLASSIFICATION ( #189, ( #46 ) ) ;
#99 = ORIENTED_EDGE ( 'NONE', *, *, #58, .T. ) ;
#100 = EDGE_LOOP ( 'NONE', ( #194, #93 ) ) ;
#101 = CIRCLE ( 'NONE', #187, 61.00000000000000000 ) ;
#102 = DIRECTION ( 'NONE',  ( 0.000000000000000000, 1.000000000000000000, 0.000000000000000000 ) ) ;
#103 = DIRECTION ( 'NONE',  ( 0.000000000000000000, 0.000000000000000000, 1.000000000000000000 ) ) ;
#104 = ADVANCED_FACE ( 'NONE', ( #136 ), #119, .T. ) ;
#105 = DIRECTION ( 'NONE',  ( 0.000000000000000000, 0.000000000000000000, 1.000000000000000000 ) ) ;
#106 = APPROVAL_STATUS ( 'not_yet_approved' ) ;
#107 = AXIS2_PLACEMENT_3D ( 'NONE', #199, #64, #8 ) ;
#108 = COORDINATED_UNIVERSAL_TIME_OFFSET ( 1, 0, .AHEAD. ) ;
#109 = CC_DESIGN_APPROVAL ( #91, ( #46 ) ) ;
#110 = DATE_AND_TIME ( #59, #161 ) ;
#111 = ORIENTED_EDGE ( 'NONE', *, *, #196, .T. ) ;
#112 = PERSON_AND_ORGANIZATION_ROLE ( 'creator' ) ;
#113 = DATE_AND_TIME ( #148, #245 ) ;
#114 = AXIS2_PLACEMENT_3D ( 'NONE', #138, #137, #214 ) ;
#115 = ADVANCED_FACE ( 'NONE', ( #28, #79 ), #23, .F. ) ;
#116 = CARTESIAN_POINT ( 'NONE',  ( 0.000000000000000000, 8.000000000000000000, 0.000000000000000000 ) ) ;
#117 = VERTEX_POINT ( 'NONE', #238 ) ;
#118 = CARTESIAN_POINT ( 'NONE',  ( 0.000000000000000000, 8.000000000000000000, 0.000000000000000000 ) ) ;
#119 = CYLINDRICAL_SURFACE ( 'NONE', #130, 131.0000000000000284 ) ;
#120 = AXIS2_PLACEMENT_3D ( 'NONE', #29, #102, #11 ) ;
#121 = VERTEX_POINT ( 'NONE', #78 ) ;
#122 = ADVANCED_FACE ( 'NONE', ( #156, #237 ), #66, .T. ) ;
#123 = APPROVAL_DATE_TIME ( #52, #142 ) ;
#124 = CYLINDRICAL_SURFACE ( 'NONE', #42, 131.0000000000000284 ) ;
#125 = FACE_OUTER_BOUND ( 'NONE', #43, .T. ) ;
#126 = CIRCLE ( 'NONE', #56, 61.00000000000000000 ) ;
#127 = ADVANCED_BREP_SHAPE_REPRESENTATION ( '3D_R152_DN65_17305220', ( #53, #226 ), #203 ) ;
#128 = APPLICATION_PROTOCOL_DEFINITION ( 'international standard', 'config_control_design', 1994, #151 ) ;
#129 = COORDINATED_UNIVERSAL_TIME_OFFSET ( 1, 0, .AHEAD. ) ;
#130 = AXIS2_PLACEMENT_3D ( 'NONE', #118, #195, #81 ) ;
#131 = DATE_TIME_ROLE ( 'classification_date' ) ;
#132 = ORIENTED_EDGE ( 'NONE', *, *, #229, .F. ) ;
#133 = EDGE_CURVE ( 'NONE', #97, #117, #94, .T. ) ;
#134 = COORDINATED_UNIVERSAL_TIME_OFFSET ( 1, 0, .AHEAD. ) ;
#135 = CIRCLE ( 'NONE', #120, 131.0000000000000284 ) ;
#136 = FACE_OUTER_BOUND ( 'NONE', #169, .T. ) ;
#137 = DIRECTION ( 'NONE',  ( 0.000000000000000000, 1.000000000000000000, 0.000000000000000000 ) ) ;
#138 = CARTESIAN_POINT ( 'NONE',  ( 0.000000000000000000, 8.000000000000000000, 0.000000000000000000 ) ) ;
#139 = EDGE_CURVE ( 'NONE', #74, #192, #126, .T. ) ;
#140 = ORIENTED_EDGE ( 'NONE', *, *, #58, .F. ) ;
#141 = CARTESIAN_POINT ( 'NONE',  ( 0.000000000000000000, 0.000000000000000000, -131.0000000000000284 ) ) ;
#142 = APPROVAL ( #106, 'UNSPECIFIED' ) ;
#143 = COORDINATED_UNIVERSAL_TIME_OFFSET ( 1, 0, .AHEAD. ) ;
#144 = DIRECTION ( 'NONE',  ( 0.000000000000000000, 0.000000000000000000, 1.000000000000000000 ) ) ;
#145 = PERSON_AND_ORGANIZATION ( #63, #2 ) ;
#146 = DIRECTION ( 'NONE',  ( 0.000000000000000000, 0.000000000000000000, 1.000000000000000000 ) ) ;
#147 = AXIS2_PLACEMENT_3D ( 'NONE', #225, #246, #144 ) ;
#148 = CALENDAR_DATE ( 2024, 13, 8 ) ;
#149 = APPROVAL_STATUS ( 'not_yet_approved' ) ;
#150 = ADVANCED_FACE ( 'NONE', ( #125 ), #124, .T. ) ;
#151 = APPLICATION_CONTEXT ( 'configuration controlled 3d designs of mechanical parts and assemblies' ) ;
#152 = DATE_AND_TIME ( #191, #220 ) ;
#153 = CC_DESIGN_APPROVAL ( #142, ( #72 ) ) ;
#154 = EDGE_LOOP ( 'NONE', ( #111, #22, #239, #132 ) ) ;
#155 = CARTESIAN_POINT ( 'NONE',  ( 0.000000000000000000, 0.000000000000000000, 0.000000000000000000 ) ) ;
#156 = FACE_OUTER_BOUND ( 'NONE', #213, .T. ) ;
#157 = ORIENTED_EDGE ( 'NONE', *, *, #234, .F. ) ;
#158 = ORIENTED_EDGE ( 'NONE', *, *, #88, .F. ) ;
#159 = VECTOR ( 'NONE', #84, 1000.000000000000000 ) ;
#160 = DIRECTION ( 'NONE',  ( 1.000000000000000000, 0.000000000000000000, 0.000000000000000000 ) ) ;
#161 = LOCAL_TIME ( 9, 43, 11.00000000000000000, #108 ) ;
#162 = DIRECTION ( 'NONE',  ( 0.000000000000000000, 0.000000000000000000, 1.000000000000000000 ) ) ;
#163 = DIRECTION ( 'NONE',  ( 0.000000000000000000, 1.000000000000000000, 0.000000000000000000 ) ) ;
#164 = CIRCLE ( 'NONE', #179, 61.00000000000000000 ) ;
#165 = CC_DESIGN_PERSON_AND_ORGANIZATION_ASSIGNMENT ( #204, #112, ( #72 ) ) ;
#166 = ORIENTED_EDGE ( 'NONE', *, *, #13, .T. ) ;
#167 = APPROVAL_DATE_TIME ( #40, #45 ) ;
#168 = PERSON_AND_ORGANIZATION ( #63, #2 ) ;
#169 = EDGE_LOOP ( 'NONE', ( #158, #4, #44, #233 ) ) ;
#170 = APPLICATION_CONTEXT ( 'configuration controlled 3d designs of mechanical parts and assemblies' ) ;
#171 = ORIENTED_EDGE ( 'NONE', *, *, #133, .F. ) ;
#172 = FACE_OUTER_BOUND ( 'NONE', #154, .T. ) ;
#173 = CC_DESIGN_PERSON_AND_ORGANIZATION_ASSIGNMENT ( #75, #36, ( #46 ) ) ;
#174 = LINE ( 'NONE', #70, #232 ) ;
#175 = DIRECTION ( 'NONE',  ( 0.000000000000000000, 1.000000000000000000, 0.000000000000000000 ) ) ;
#176 = CIRCLE ( 'NONE', #247, 131.0000000000000284 ) ;
#177 = DIRECTION ( 'NONE',  ( 0.000000000000000000, 0.000000000000000000, 1.000000000000000000 ) ) ;
#178 = DIRECTION ( 'NONE',  ( 0.000000000000000000, 0.000000000000000000, 1.000000000000000000 ) ) ;
#179 = AXIS2_PLACEMENT_3D ( 'NONE', #55, #188, #105 ) ;
#180 = CARTESIAN_POINT ( 'NONE',  ( 1.604287306883033281E-14, 8.000000000000000000, 131.0000000000000284 ) ) ;
#181 = FACE_OUTER_BOUND ( 'NONE', #19, .T. ) ;
#182 = LOCAL_TIME ( 9, 43, 11.00000000000000000, #129 ) ;
#183 = DIRECTION ( 'NONE',  ( -0.000000000000000000, -1.000000000000000000, -0.000000000000000000 ) ) ;
#184 = EDGE_CURVE ( 'NONE', #193, #97, #242, .T. ) ;
#185 = PERSON_AND_ORGANIZATION ( #63, #2 ) ;
#186 = UNCERTAINTY_MEASURE_WITH_UNIT (LENGTH_MEASURE( 1.000000000000000082E-05 ), #34, 'distance_accuracy_value', 'NONE');
#187 = AXIS2_PLACEMENT_3D ( 'NONE', #216, #10, #177 ) ;
#188 = DIRECTION ( 'NONE',  ( 0.000000000000000000, 1.000000000000000000, 0.000000000000000000 ) ) ;
#189 = SECURITY_CLASSIFICATION ( '', '', #1 ) ;
#190 = PERSON_AND_ORGANIZATION ( #63, #2 ) ;
#191 = CALENDAR_DATE ( 2024, 13, 8 ) ;
#192 = VERTEX_POINT ( 'NONE', #86 ) ;
#193 = VERTEX_POINT ( 'NONE', #205 ) ;
#194 = ORIENTED_EDGE ( 'NONE', *, *, #196, .F. ) ;
#195 = DIRECTION ( 'NONE',  ( -0.000000000000000000, -1.000000000000000000, -0.000000000000000000 ) ) ;
#196 = EDGE_CURVE ( 'NONE', #48, #121, #164, .T. ) ;
#197 = CARTESIAN_POINT ( 'NONE',  ( 0.000000000000000000, 8.000000000000000000, 0.000000000000000000 ) ) ;
#198 = DIRECTION ( 'NONE',  ( 0.000000000000000000, 1.000000000000000000, 0.000000000000000000 ) ) ;
#199 = CARTESIAN_POINT ( 'NONE',  ( 0.000000000000000000, 8.000000000000000000, 0.000000000000000000 ) ) ;
#200 = CLOSED_SHELL ( 'NONE', ( #73, #150, #122, #115, #104, #224 ) ) ;
#201 = DIRECTION ( 'NONE',  ( 0.000000000000000000, 1.000000000000000000, 0.000000000000000000 ) ) ;
#202 = CARTESIAN_POINT ( 'NONE',  ( 0.000000000000000000, 0.000000000000000000, 0.000000000000000000 ) ) ;
#203 =( GEOMETRIC_REPRESENTATION_CONTEXT ( 3 ) GLOBAL_UNCERTAINTY_ASSIGNED_CONTEXT ( ( #186 ) ) GLOBAL_UNIT_ASSIGNED_CONTEXT ( ( #34, #223, #51 ) ) REPRESENTATION_CONTEXT ( 'NONE', 'WORKASPACE' ) );
#204 = PERSON_AND_ORGANIZATION ( #63, #2 ) ;
#205 = CARTESIAN_POINT ( 'NONE',  ( 0.000000000000000000, 8.000000000000000000, -131.0000000000000284 ) ) ;
#206 = MECHANICAL_CONTEXT ( 'NONE', #151, 'mechanical' ) ;
#207 = DATE_TIME_ROLE ( 'creation_date' ) ;
#208 = APPROVAL_PERSON_ORGANIZATION ( #92, #45, #17 ) ;
#209 = EDGE_LOOP ( 'NONE', ( #171, #140 ) ) ;
#210 = CALENDAR_DATE ( 2024, 13, 8 ) ;
#211 = VERTEX_POINT ( 'NONE', #180 ) ;
#212 = PERSON_AND_ORGANIZATION_ROLE ( 'classification_officer' ) ;
#213 = EDGE_LOOP ( 'NONE', ( #215, #39 ) ) ;
#214 = DIRECTION ( 'NONE',  ( 0.000000000000000000, -0.000000000000000000, 1.000000000000000000 ) ) ;
#215 = ORIENTED_EDGE ( 'NONE', *, *, #20, .T. ) ;
#216 = CARTESIAN_POINT ( 'NONE',  ( 0.000000000000000000, 0.000000000000000000, 0.000000000000000000 ) ) ;
#217 = EDGE_LOOP ( 'NONE', ( #166, #37 ) ) ;
#218 = VECTOR ( 'NONE', #27, 1000.000000000000000 ) ;
#219 = CARTESIAN_POINT ( 'NONE',  ( 0.000000000000000000, 8.000000000000000000, 0.000000000000000000 ) ) ;
#220 = LOCAL_TIME ( 9, 43, 11.00000000000000000, #134 ) ;
#221 = LINE ( 'NONE', #82, #159 ) ;
#222 = CARTESIAN_POINT ( 'NONE',  ( 0.000000000000000000, 8.000000000000000000, 0.000000000000000000 ) ) ;
#223 =( NAMED_UNIT ( * ) PLANE_ANGLE_UNIT ( ) SI_UNIT ( $, .RADIAN. ) );
#224 = ADVANCED_FACE ( 'NONE', ( #181 ), #14, .F. ) ;
#225 = CARTESIAN_POINT ( 'NONE',  ( 0.000000000000000000, 8.000000000000000000, 0.000000000000000000 ) ) ;
#226 = AXIS2_PLACEMENT_3D ( 'NONE', #87, #162, #160 ) ;
#227 = APPROVAL_STATUS ( 'not_yet_approved' ) ;
#228 = SHAPE_DEFINITION_REPRESENTATION ( #25, #127 ) ;
#229 = EDGE_CURVE ( 'NONE', #48, #192, #221, .T. ) ;
#230 = COORDINATED_UNIVERSAL_TIME_OFFSET ( 1, 0, .AHEAD. ) ;
#231 = PERSON_AND_ORGANIZATION ( #63, #2 ) ;
#232 = VECTOR ( 'NONE', #24, 1000.000000000000000 ) ;
#233 = ORIENTED_EDGE ( 'NONE', *, *, #133, .T. ) ;
#234 = EDGE_CURVE ( 'NONE', #211, #193, #236, .T. ) ;
#235 = CARTESIAN_POINT ( 'NONE',  ( 1.604287306883033281E-14, 8.000000000000000000, 131.0000000000000284 ) ) ;
#236 = CIRCLE ( 'NONE', #147, 131.0000000000000284 ) ;
#237 = FACE_BOUND ( 'NONE', #100, .T. ) ;
#238 = CARTESIAN_POINT ( 'NONE',  ( 1.604287306883033281E-14, 0.000000000000000000, 131.0000000000000284 ) ) ;
#239 = ORIENTED_EDGE ( 'NONE', *, *, #13, .F. ) ;
#240 = AXIS2_PLACEMENT_3D ( 'NONE', #68, #32, #146 ) ;
#241 = CARTESIAN_POINT ( 'NONE',  ( 7.470345474798855081E-15, 0.000000000000000000, 61.00000000000000000 ) ) ;
#242 = LINE ( 'NONE', #35, #65 ) ;
#243 = AXIS2_PLACEMENT_3D ( 'NONE', #155, #175, #9 ) ;
#244 = PERSON_AND_ORGANIZATION_ROLE ( 'design_owner' ) ;
#245 = LOCAL_TIME ( 9, 43, 11.00000000000000000, #230 ) ;
#246 = DIRECTION ( 'NONE',  ( 0.000000000000000000, 1.000000000000000000, 0.000000000000000000 ) ) ;
#247 = AXIS2_PLACEMENT_3D ( 'NONE', #197, #201, #178 ) ;
#248 = DIRECTION ( 'NONE',  ( -0.000000000000000000, -1.000000000000000000, -0.000000000000000000 ) ) ;
#249 = DESIGN_CONTEXT ( 'detailed design', #170, 'design' ) ;
ENDSEC;
END-ISO-10303-21;
