ISO-10303-21;
HEADER;
FILE_DESCRIPTION (( 'STEP AP203' ),
    '1' );
FILE_NAME ('3D_GB3092_120_188706910.STEP',
    '2024-10-17T11:50:32',
    ( '' ),
    ( '' ),
    'SwSTEP 2.0',
    'SolidWorks 2024',
    '' );
FILE_SCHEMA (( 'CONFIG_CONTROL_DESIGN' ));
ENDSEC;

DATA;
#1 = EDGE_CURVE ( 'NONE', #173, #217, #367, .T. ) ;
#2 = ORIENTED_EDGE ( 'NONE', *, *, #70, .T. ) ;
#3 = EDGE_CURVE ( 'NONE', #173, #206, #168, .T. ) ;
#4 = PERSON_AND_ORGANIZATION ( #270, #62 ) ;
#5 = CARTESIAN_POINT ( 'NONE',  ( 42.43524478543739065, 0.000000000000000000, 30.00000000000019540 ) ) ;
#6 = DIRECTION ( 'NONE',  ( 0.000000000000000000, 0.000000000000000000, 1.000000000000000000 ) ) ;
#7 = ORIENTED_EDGE ( 'NONE', *, *, #352, .T. ) ;
#8 = CYLINDRICAL_SURFACE ( 'NONE', #245, 5.499999999999994671 ) ;
#9 = CARTESIAN_POINT ( 'NONE',  ( 42.43524478543739065, 8.000000000000000000, 19.00000000000020250 ) ) ;
#10 = LOCAL_TIME ( 13, 50, 32.00000000000000000, #251 ) ;
#11 = LINE ( 'NONE', #42, #260 ) ;
#12 = AXIS2_PLACEMENT_3D ( 'NONE', #238, #323, #390 ) ;
#13 = VECTOR ( 'NONE', #376, 1000.000000000000000 ) ;
#14 = FACE_BOUND ( 'NONE', #144, .T. ) ;
#15 = FACE_OUTER_BOUND ( 'NONE', #132, .T. ) ;
#16 = CC_DESIGN_APPROVAL ( #320, ( #340 ) ) ;
#17 = APPLICATION_PROTOCOL_DEFINITION ( 'international standard', 'config_control_design', 1994, #36 ) ;
#18 = ORIENTED_EDGE ( 'NONE', *, *, #305, .F. ) ;
#19 = CIRCLE ( 'NONE', #359, 5.499999999999998224 ) ;
#20 = APPROVAL_STATUS ( 'not_yet_approved' ) ;
#21 = EDGE_LOOP ( 'NONE', ( #194, #395, #121, #276 ) ) ;
#22 = DIRECTION ( 'NONE',  ( -0.000000000000000000, 1.000000000000000000, -0.000000000000000000 ) ) ;
#23 = VERTEX_POINT ( 'NONE', #5 ) ;
#24 = APPROVAL ( #20, 'UNSPECIFIED' ) ;
#25 = ADVANCED_FACE ( 'NONE', ( #281 ), #34, .F. ) ;
#26 = EDGE_LOOP ( 'NONE', ( #211, #297 ) ) ;
#27 = AXIS2_PLACEMENT_3D ( 'NONE', #261, #286, #197 ) ;
#28 = EDGE_LOOP ( 'NONE', ( #179, #59 ) ) ;
#29 = PERSON_AND_ORGANIZATION_ROLE ( 'creator' ) ;
#30 = ORIENTED_EDGE ( 'NONE', *, *, #363, .T. ) ;
#31 = FACE_OUTER_BOUND ( 'NONE', #83, .T. ) ;
#32 = EDGE_CURVE ( 'NONE', #217, #308, #220, .T. ) ;
#33 = DATE_AND_TIME ( #223, #10 ) ;
#34 = CYLINDRICAL_SURFACE ( 'NONE', #163, 5.499999999999994671 ) ;
#35 = CARTESIAN_POINT ( 'NONE',  ( 0.000000000000000000, 0.000000000000000000, 0.000000000000000000 ) ) ;
#36 = APPLICATION_CONTEXT ( 'configuration controlled 3d designs of mechanical parts and assemblies' ) ;
#37 = CC_DESIGN_PERSON_AND_ORGANIZATION_ASSIGNMENT ( #63, #193, ( #340 ) ) ;
#38 = EDGE_CURVE ( 'NONE', #387, #299, #135, .T. ) ;
#39 = DIRECTION ( 'NONE',  ( 0.000000000000000000, 0.000000000000000000, 1.000000000000000000 ) ) ;
#40 = CARTESIAN_POINT ( 'NONE',  ( 0.000000000000000000, 8.000000000000000000, -43.50000000000000711 ) ) ;
#41 = FACE_OUTER_BOUND ( 'NONE', #258, .T. ) ;
#42 = CARTESIAN_POINT ( 'NONE',  ( 0.000000000000000000, 8.000000000000000000, -60.00000000000000000 ) ) ;
#43 = DIRECTION ( 'NONE',  ( 0.000000000000000000, 0.000000000000000000, -1.000000000000000000 ) ) ;
#44 = DESIGN_CONTEXT ( 'detailed design', #36, 'design' ) ;
#45 = AXIS2_PLACEMENT_3D ( 'NONE', #162, #284, #343 ) ;
#46 = FACE_OUTER_BOUND ( 'NONE', #356, .T. ) ;
#47 = APPLICATION_PROTOCOL_DEFINITION ( 'international standard', 'config_control_design', 1994, #383 ) ;
#48 = ORIENTED_EDGE ( 'NONE', *, *, #3, .F. ) ;
#49 = ORIENTED_EDGE ( 'NONE', *, *, #32, .T. ) ;
#50 = APPROVAL_PERSON_ORGANIZATION ( #296, #24, #368 ) ;
#51 = VERTEX_POINT ( 'NONE', #279 ) ;
#52 = CARTESIAN_POINT ( 'NONE',  ( 6.735557395310436107E-16, 0.000000000000000000, -54.50000000000000000 ) ) ;
#53 = ORIENTED_EDGE ( 'NONE', *, *, #66, .T. ) ;
#54 = CARTESIAN_POINT ( 'NONE',  ( 0.000000000000000000, 0.000000000000000000, 0.000000000000000000 ) ) ;
#55 = ORIENTED_EDGE ( 'NONE', *, *, #66, .F. ) ;
#56 = DIRECTION ( 'NONE',  ( 0.000000000000000000, 0.000000000000000000, 1.000000000000000000 ) ) ;
#57 = DATE_AND_TIME ( #249, #100 ) ;
#58 = EDGE_CURVE ( 'NONE', #23, #189, #61, .T. ) ;
#59 = ORIENTED_EDGE ( 'NONE', *, *, #214, .T. ) ;
#60 = CC_DESIGN_SECURITY_CLASSIFICATION ( #340, ( #156 ) ) ;
#61 = LINE ( 'NONE', #278, #131 ) ;
#62 = ORGANIZATION ( 'UNSPECIFIED', 'UNSPECIFIED', '' ) ;
#63 = PERSON_AND_ORGANIZATION ( #270, #62 ) ;
#64 = CARTESIAN_POINT ( 'NONE',  ( 0.000000000000000000, 8.000000000000000000, -60.00000000000000000 ) ) ;
#65 = CC_DESIGN_PERSON_AND_ORGANIZATION_ASSIGNMENT ( #277, #92, ( #137 ) ) ;
#66 = EDGE_CURVE ( 'NONE', #23, #51, #321, .T. ) ;
#67 = APPROVAL_ROLE ( '' ) ;
#68 = DIRECTION ( 'NONE',  ( -0.000000000000000000, 1.000000000000000000, -0.000000000000000000 ) ) ;
#69 = CYLINDRICAL_SURFACE ( 'NONE', #244, 5.499999999999998224 ) ;
#70 = EDGE_CURVE ( 'NONE', #189, #147, #354, .T. ) ;
#71 = CIRCLE ( 'NONE', #295, 5.499999999999998224 ) ;
#72 = DIRECTION ( 'NONE',  ( -0.000000000000000000, 1.000000000000000000, -0.000000000000000000 ) ) ;
#73 = FACE_OUTER_BOUND ( 'NONE', #181, .T. ) ;
#74 = EDGE_CURVE ( 'NONE', #299, #387, #235, .T. ) ;
#75 = DIRECTION ( 'NONE',  ( 0.000000000000000000, 0.000000000000000000, 1.000000000000000000 ) ) ;
#76 = CARTESIAN_POINT ( 'NONE',  ( 42.43524478543739065, 8.000000000000000000, 24.50000000000020250 ) ) ;
#77 = CIRCLE ( 'NONE', #385, 60.00000000000000000 ) ;
#78 = FACE_BOUND ( 'NONE', #328, .T. ) ;
#79 = EDGE_LOOP ( 'NONE', ( #98, #391 ) ) ;
#80 = EDGE_LOOP ( 'NONE', ( #239, #326 ) ) ;
#81 = APPROVAL ( #126, 'UNSPECIFIED' ) ;
#82 = CARTESIAN_POINT ( 'NONE',  ( -42.43524478543771750, 8.000000000000000000, 29.99999999999960210 ) ) ;
#83 = EDGE_LOOP ( 'NONE', ( #250, #330, #324, #331 ) ) ;
#84 = AXIS2_PLACEMENT_3D ( 'NONE', #103, #199, #232 ) ;
#85 = VECTOR ( 'NONE', #93, 1000.000000000000000 ) ;
#86 = CARTESIAN_POINT ( 'NONE',  ( 0.000000000000000000, 0.000000000000000000, 0.000000000000000000 ) ) ;
#87 = VERTEX_POINT ( 'NONE', #124 ) ;
#88 = DIRECTION ( 'NONE',  ( -0.000000000000000000, -1.000000000000000000, -0.000000000000000000 ) ) ;
#89 = ORIENTED_EDGE ( 'NONE', *, *, #364, .F. ) ;
#90 = PERSON_AND_ORGANIZATION ( #270, #62 ) ;
#91 = DIRECTION ( 'NONE',  ( -0.000000000000000000, 1.000000000000000000, -0.000000000000000000 ) ) ;
#92 = PERSON_AND_ORGANIZATION_ROLE ( 'creator' ) ;
#93 = DIRECTION ( 'NONE',  ( -0.000000000000000000, 1.000000000000000000, -0.000000000000000000 ) ) ;
#94 = VERTEX_POINT ( 'NONE', #64 ) ;
#95 = DIRECTION ( 'NONE',  ( 0.000000000000000000, 0.000000000000000000, 1.000000000000000000 ) ) ;
#96 = COORDINATED_UNIVERSAL_TIME_OFFSET ( 1, 0, .AHEAD. ) ;
#97 = AXIS2_PLACEMENT_3D ( 'NONE', #337, #335, #95 ) ;
#98 = ORIENTED_EDGE ( 'NONE', *, *, #38, .T. ) ;
#99 = DIRECTION ( 'NONE',  ( 0.000000000000000000, 1.000000000000000000, 0.000000000000000000 ) ) ;
#100 = LOCAL_TIME ( 13, 50, 32.00000000000000000, #157 ) ;
#101 = CARTESIAN_POINT ( 'NONE',  ( -42.43524478543771750, 0.000000000000000000, 18.99999999999960920 ) ) ;
#102 = EDGE_CURVE ( 'NONE', #51, #147, #252, .T. ) ;
#103 = CARTESIAN_POINT ( 'NONE',  ( 0.000000000000000000, 8.000000000000000000, 0.000000000000000000 ) ) ;
#104 = DIRECTION ( 'NONE',  ( -0.000000000000000000, 1.000000000000000000, -0.000000000000000000 ) ) ;
#105 = CARTESIAN_POINT ( 'NONE',  ( 42.43524478543739065, 8.000000000000000000, 30.00000000000019895 ) ) ;
#106 = ADVANCED_FACE ( 'NONE', ( #31 ), #370, .F. ) ;
#107 = FACE_BOUND ( 'NONE', #79, .T. ) ;
#108 = CIRCLE ( 'NONE', #314, 5.499999999999998224 ) ;
#109 =( LENGTH_UNIT ( ) NAMED_UNIT ( * ) SI_UNIT ( .MILLI., .METRE. ) );
#110 = ORIENTED_EDGE ( 'NONE', *, *, #1, .T. ) ;
#111 = PRODUCT_RELATED_PRODUCT_CATEGORY ( 'detail', '', ( #182 ) ) ;
#112 = MECHANICAL_CONTEXT ( 'NONE', #383, 'mechanical' ) ;
#113 = ORIENTED_EDGE ( 'NONE', *, *, #214, .F. ) ;
#114 =( NAMED_UNIT ( * ) PLANE_ANGLE_UNIT ( ) SI_UNIT ( $, .RADIAN. ) );
#115 = ORIENTED_EDGE ( 'NONE', *, *, #122, .T. ) ;
#116 = AXIS2_PLACEMENT_3D ( 'NONE', #225, #192, #311 ) ;
#117 = CARTESIAN_POINT ( 'NONE',  ( 0.000000000000000000, 8.000000000000000000, -49.00000000000000000 ) ) ;
#118 = VERTEX_POINT ( 'NONE', #339 ) ;
#119 = PERSON_AND_ORGANIZATION ( #270, #62 ) ;
#120 = PRODUCT_DEFINITION_SHAPE ( 'NONE', 'NONE',  #137 ) ;
#121 = ORIENTED_EDGE ( 'NONE', *, *, #196, .T. ) ;
#122 = EDGE_CURVE ( 'NONE', #118, #129, #203, .T. ) ;
#123 = DATE_AND_TIME ( #310, #208 ) ;
#124 = CARTESIAN_POINT ( 'NONE',  ( 7.347880794884118356E-15, 8.000000000000000000, 60.00000000000000000 ) ) ;
#125 = VECTOR ( 'NONE', #205, 1000.000000000000000 ) ;
#126 = APPROVAL_STATUS ( 'not_yet_approved' ) ;
#127 = CARTESIAN_POINT ( 'NONE',  ( -42.43524478543771750, 8.000000000000000000, 18.99999999999960920 ) ) ;
#128 = DIRECTION ( 'NONE',  ( -0.000000000000000000, 1.000000000000000000, -0.000000000000000000 ) ) ;
#129 = VERTEX_POINT ( 'NONE', #353 ) ;
#130 = CIRCLE ( 'NONE', #342, 5.499999999999998224 ) ;
#131 = VECTOR ( 'NONE', #91, 1000.000000000000000 ) ;
#132 = EDGE_LOOP ( 'NONE', ( #48, #110, #49, #306 ) ) ;
#133 = DIRECTION ( 'NONE',  ( 0.000000000000000000, 0.000000000000000000, 1.000000000000000000 ) ) ;
#134 = CARTESIAN_POINT ( 'NONE',  ( 0.000000000000000000, 8.000000000000000000, 0.000000000000000000 ) ) ;
#135 = CIRCLE ( 'NONE', #97, 5.499999999999998224 ) ;
#136 = DIRECTION ( 'NONE',  ( -0.000000000000000000, -1.000000000000000000, -0.000000000000000000 ) ) ;
#137 = PRODUCT_DEFINITION ( 'UNKNOWN', '', #156, #44 ) ;
#138 = EDGE_CURVE ( 'NONE', #299, #246, #233, .T. ) ;
#139 = FACE_BOUND ( 'NONE', #176, .T. ) ;
#140 = UNCERTAINTY_MEASURE_WITH_UNIT (LENGTH_MEASURE( 1.000000000000000082E-05 ), #109, 'distance_accuracy_value', 'NONE');
#141 = ORIENTED_EDGE ( 'NONE', *, *, #32, .F. ) ;
#142 = CC_DESIGN_PERSON_AND_ORGANIZATION_ASSIGNMENT ( #4, #29, ( #156 ) ) ;
#143 = PLANE ( 'NONE',  #253 ) ;
#144 = EDGE_LOOP ( 'NONE', ( #149, #18 ) ) ;
#145 = ADVANCED_FACE ( 'NONE', ( #41 ), #8, .F. ) ;
#146 = LINE ( 'NONE', #327, #167 ) ;
#147 = VERTEX_POINT ( 'NONE', #9 ) ;
#148 = DIRECTION ( 'NONE',  ( 1.000000000000000000, 0.000000000000000000, 0.000000000000000000 ) ) ;
#149 = ORIENTED_EDGE ( 'NONE', *, *, #70, .F. ) ;
#150 = AXIS2_PLACEMENT_3D ( 'NONE', #288, #136, #43 ) ;
#151 = AXIS2_PLACEMENT_3D ( 'NONE', #307, #226, #56 ) ;
#152 = MANIFOLD_SOLID_BREP ( 'Kreismuster1', #392 ) ;
#153 = DATE_AND_TIME ( #304, #348 ) ;
#154 = EDGE_LOOP ( 'NONE', ( #374, #141 ) ) ;
#155 = CARTESIAN_POINT ( 'NONE',  ( -42.43524478543771750, 0.000000000000000000, 24.49999999999960565 ) ) ;
#156 = PRODUCT_DEFINITION_FORMATION_WITH_SPECIFIED_SOURCE ( 'ANY', '', #182, .NOT_KNOWN. ) ;
#157 = COORDINATED_UNIVERSAL_TIME_OFFSET ( 1, 0, .AHEAD. ) ;
#158 = VERTEX_POINT ( 'NONE', #40 ) ;
#159 = SECURITY_CLASSIFICATION_LEVEL ( 'unclassified' ) ;
#160 = ORIENTED_EDGE ( 'NONE', *, *, #305, .T. ) ;
#161 = DIRECTION ( 'NONE',  ( 0.000000000000000000, 1.000000000000000000, 0.000000000000000000 ) ) ;
#162 = CARTESIAN_POINT ( 'NONE',  ( -42.43524478543771750, 8.000000000000000000, 24.49999999999960565 ) ) ;
#163 = AXIS2_PLACEMENT_3D ( 'NONE', #222, #68, #283 ) ;
#164 = CARTESIAN_POINT ( 'NONE',  ( -42.43524478543771750, 0.000000000000000000, 24.49999999999960565 ) ) ;
#165 = CARTESIAN_POINT ( 'NONE',  ( 0.000000000000000000, 0.000000000000000000, 0.000000000000000000 ) ) ;
#166 = DIRECTION ( 'NONE',  ( 0.000000000000000000, 1.000000000000000000, 0.000000000000000000 ) ) ;
#167 = VECTOR ( 'NONE', #88, 1000.000000000000000 ) ;
#168 = CIRCLE ( 'NONE', #375, 5.499999999999998224 ) ;
#169 = CYLINDRICAL_SURFACE ( 'NONE', #27, 5.499999999999998224 ) ;
#170 = CARTESIAN_POINT ( 'NONE',  ( 0.000000000000000000, 8.000000000000000000, -43.50000000000000711 ) ) ;
#171 = PERSON_AND_ORGANIZATION_ROLE ( 'design_owner' ) ;
#172 = CC_DESIGN_APPROVAL ( #24, ( #137 ) ) ;
#173 = VERTEX_POINT ( 'NONE', #101 ) ;
#174 =( GEOMETRIC_REPRESENTATION_CONTEXT ( 3 ) GLOBAL_UNCERTAINTY_ASSIGNED_CONTEXT ( ( #140 ) ) GLOBAL_UNIT_ASSIGNED_CONTEXT ( ( #109, #114, #243 ) ) REPRESENTATION_CONTEXT ( 'NONE', 'WORKASPACE' ) );
#175 = EDGE_CURVE ( 'NONE', #94, #118, #11, .T. ) ;
#176 = EDGE_LOOP ( 'NONE', ( #312, #362 ) ) ;
#177 = DIRECTION ( 'NONE',  ( 0.000000000000000000, 0.000000000000000000, 1.000000000000000000 ) ) ;
#178 = ORIENTED_EDGE ( 'NONE', *, *, #175, .T. ) ;
#179 = ORIENTED_EDGE ( 'NONE', *, *, #242, .T. ) ;
#180 = CC_DESIGN_DATE_AND_TIME_ASSIGNMENT ( #33, #333, ( #137 ) ) ;
#181 = EDGE_LOOP ( 'NONE', ( #113, #213, #371, #294 ) ) ;
#182 = PRODUCT ( '3D_GB3092_120_188706910', '3D_GB3092_120_188706910', '', ( #112 ) ) ;
#183 = APPROVAL_DATE_TIME ( #153, #81 ) ;
#184 = CARTESIAN_POINT ( 'NONE',  ( 0.000000000000000000, 0.000000000000000000, -49.00000000000000000 ) ) ;
#185 = CALENDAR_DATE ( 2024, 17, 10 ) ;
#186 = CC_DESIGN_PERSON_AND_ORGANIZATION_ASSIGNMENT ( #393, #171, ( #182 ) ) ;
#187 = DIRECTION ( 'NONE',  ( 0.000000000000000000, 1.000000000000000000, 0.000000000000000000 ) ) ;
#188 = DATE_AND_TIME ( #185, #372 ) ;
#189 = VERTEX_POINT ( 'NONE', #105 ) ;
#190 = CIRCLE ( 'NONE', #275, 5.499999999999998224 ) ;
#191 = VECTOR ( 'NONE', #128, 1000.000000000000000 ) ;
#192 = DIRECTION ( 'NONE',  ( -0.000000000000000000, 1.000000000000000000, -0.000000000000000000 ) ) ;
#193 = PERSON_AND_ORGANIZATION_ROLE ( 'classification_officer' ) ;
#194 = ORIENTED_EDGE ( 'NONE', *, *, #138, .F. ) ;
#195 = EDGE_CURVE ( 'NONE', #129, #118, #77, .T. ) ;
#196 = EDGE_CURVE ( 'NONE', #387, #158, #292, .T. ) ;
#197 = DIRECTION ( 'NONE',  ( 0.000000000000000000, 0.000000000000000000, 1.000000000000000000 ) ) ;
#198 = AXIS2_PLACEMENT_3D ( 'NONE', #134, #347, #287 ) ;
#199 = DIRECTION ( 'NONE',  ( 0.000000000000000000, 1.000000000000000000, 0.000000000000000000 ) ) ;
#200 = DIRECTION ( 'NONE',  ( 0.000000000000000000, 0.000000000000000000, 1.000000000000000000 ) ) ;
#201 = CC_DESIGN_PERSON_AND_ORGANIZATION_ASSIGNMENT ( #119, #336, ( #156 ) ) ;
#202 = CARTESIAN_POINT ( 'NONE',  ( 6.735557395310438079E-16, 8.000000000000000000, -54.50000000000000000 ) ) ;
#203 = CIRCLE ( 'NONE', #334, 60.00000000000000000 ) ;
#204 = DIRECTION ( 'NONE',  ( -0.000000000000000000, -1.000000000000000000, -0.000000000000000000 ) ) ;
#205 = DIRECTION ( 'NONE',  ( -0.000000000000000000, 1.000000000000000000, -0.000000000000000000 ) ) ;
#206 = VERTEX_POINT ( 'NONE', #378 ) ;
#207 = DIRECTION ( 'NONE',  ( 0.000000000000000000, -0.000000000000000000, 1.000000000000000000 ) ) ;
#208 = LOCAL_TIME ( 13, 50, 32.00000000000000000, #366 ) ;
#209 = ORIENTED_EDGE ( 'NONE', *, *, #1, .F. ) ;
#210 = CARTESIAN_POINT ( 'NONE',  ( 0.000000000000000000, 0.000000000000000000, -43.50000000000000711 ) ) ;
#211 = ORIENTED_EDGE ( 'NONE', *, *, #122, .F. ) ;
#212 = CARTESIAN_POINT ( 'NONE',  ( 42.43524478543739065, 8.000000000000000000, 24.50000000000020250 ) ) ;
#213 = ORIENTED_EDGE ( 'NONE', *, *, #364, .T. ) ;
#214 = EDGE_CURVE ( 'NONE', #87, #94, #309, .T. ) ;
#215 = EDGE_CURVE ( 'NONE', #206, #173, #108, .T. ) ;
#216 = CARTESIAN_POINT ( 'NONE',  ( -42.43524478543771750, 8.000000000000000000, 24.49999999999960565 ) ) ;
#217 = VERTEX_POINT ( 'NONE', #231 ) ;
#218 = APPROVAL_DATE_TIME ( #57, #320 ) ;
#219 = DIRECTION ( 'NONE',  ( 0.000000000000000000, 0.000000000000000000, 1.000000000000000000 ) ) ;
#220 = CIRCLE ( 'NONE', #45, 5.499999999999998224 ) ;
#221 = APPROVAL_ROLE ( '' ) ;
#222 = CARTESIAN_POINT ( 'NONE',  ( 42.43524478543739065, 8.000000000000000000, 24.50000000000020250 ) ) ;
#223 = CALENDAR_DATE ( 2024, 17, 10 ) ;
#224 = ADVANCED_FACE ( 'NONE', ( #46 ), #351, .T. ) ;
#225 = CARTESIAN_POINT ( 'NONE',  ( 0.000000000000000000, 8.000000000000000000, -49.00000000000000000 ) ) ;
#226 = DIRECTION ( 'NONE',  ( -0.000000000000000000, 1.000000000000000000, -0.000000000000000000 ) ) ;
#227 = DIRECTION ( 'NONE',  ( 0.000000000000000000, 1.000000000000000000, 0.000000000000000000 ) ) ;
#228 = ADVANCED_FACE ( 'NONE', ( #15 ), #69, .F. ) ;
#229 = ADVANCED_FACE ( 'NONE', ( #315 ), #169, .F. ) ;
#230 = DIRECTION ( 'NONE',  ( 0.000000000000000000, 0.000000000000000000, 1.000000000000000000 ) ) ;
#231 = CARTESIAN_POINT ( 'NONE',  ( -42.43524478543771750, 8.000000000000000000, 18.99999999999960920 ) ) ;
#232 = DIRECTION ( 'NONE',  ( 0.000000000000000000, 0.000000000000000000, 1.000000000000000000 ) ) ;
#233 = LINE ( 'NONE', #202, #13 ) ;
#234 = DIRECTION ( 'NONE',  ( -0.000000000000000000, 1.000000000000000000, -0.000000000000000000 ) ) ;
#235 = CIRCLE ( 'NONE', #290, 5.499999999999998224 ) ;
#236 = DIRECTION ( 'NONE',  ( -0.000000000000000000, 1.000000000000000000, -0.000000000000000000 ) ) ;
#237 = ADVANCED_FACE ( 'NONE', ( #263 ), #380, .F. ) ;
#238 = CARTESIAN_POINT ( 'NONE',  ( 42.43524478543739065, 0.000000000000000000, 24.50000000000020250 ) ) ;
#239 = ORIENTED_EDGE ( 'NONE', *, *, #215, .T. ) ;
#240 = CARTESIAN_POINT ( 'NONE',  ( 0.000000000000000000, 8.000000000000000000, 0.000000000000000000 ) ) ;
#241 = ORIENTED_EDGE ( 'NONE', *, *, #58, .F. ) ;
#242 = EDGE_CURVE ( 'NONE', #94, #87, #264, .T. ) ;
#243 =( NAMED_UNIT ( * ) SI_UNIT ( $, .STERADIAN. ) SOLID_ANGLE_UNIT ( ) );
#244 = AXIS2_PLACEMENT_3D ( 'NONE', #381, #104, #265 ) ;
#245 = AXIS2_PLACEMENT_3D ( 'NONE', #76, #349, #133 ) ;
#246 = VERTEX_POINT ( 'NONE', #350 ) ;
#247 = DIRECTION ( 'NONE',  ( 0.000000000000000000, 0.000000000000000000, 1.000000000000000000 ) ) ;
#248 = ORIENTED_EDGE ( 'NONE', *, *, #377, .T. ) ;
#249 = CALENDAR_DATE ( 2024, 17, 10 ) ;
#250 = ORIENTED_EDGE ( 'NONE', *, *, #74, .F. ) ;
#251 = COORDINATED_UNIVERSAL_TIME_OFFSET ( 1, 0, .AHEAD. ) ;
#252 = LINE ( 'NONE', #369, #85 ) ;
#253 = AXIS2_PLACEMENT_3D ( 'NONE', #54, #298, #386 ) ;
#254 = ADVANCED_FACE ( 'NONE', ( #73 ), #317, .T. ) ;
#255 = DIRECTION ( 'NONE',  ( 0.000000000000000000, 1.000000000000000000, 0.000000000000000000 ) ) ;
#256 = CARTESIAN_POINT ( 'NONE',  ( 42.43524478543739065, 0.000000000000000000, 24.50000000000020250 ) ) ;
#257 = APPROVAL_DATE_TIME ( #123, #24 ) ;
#258 = EDGE_LOOP ( 'NONE', ( #389, #55, #271, #2 ) ) ;
#259 = AXIS2_PLACEMENT_3D ( 'NONE', #313, #72, #75 ) ;
#260 = VECTOR ( 'NONE', #204, 1000.000000000000000 ) ;
#261 = CARTESIAN_POINT ( 'NONE',  ( -42.43524478543771750, 8.000000000000000000, 24.49999999999960565 ) ) ;
#262 = CARTESIAN_POINT ( 'NONE',  ( 0.000000000000000000, 8.000000000000000000, 0.000000000000000000 ) ) ;
#263 = FACE_OUTER_BOUND ( 'NONE', #21, .T. ) ;
#264 = CIRCLE ( 'NONE', #84, 60.00000000000000000 ) ;
#265 = DIRECTION ( 'NONE',  ( 0.000000000000000000, 0.000000000000000000, 1.000000000000000000 ) ) ;
#266 = FACE_OUTER_BOUND ( 'NONE', #28, .T. ) ;
#267 = CARTESIAN_POINT ( 'NONE',  ( 0.000000000000000000, 8.000000000000000000, -49.00000000000000000 ) ) ;
#268 = CC_DESIGN_DATE_AND_TIME_ASSIGNMENT ( #188, #345, ( #340 ) ) ;
#269 = ORIENTED_EDGE ( 'NONE', *, *, #242, .F. ) ;
#270 = PERSON ( 'UNSPECIFIED', 'UNSPECIFIED', 'UNSPECIFIED', ('UNSPECIFIED'), ('UNSPECIFIED'), ('UNSPECIFIED') ) ;
#271 = ORIENTED_EDGE ( 'NONE', *, *, #58, .T. ) ;
#272 = FACE_OUTER_BOUND ( 'NONE', #26, .T. ) ;
#273 = ORIENTED_EDGE ( 'NONE', *, *, #215, .F. ) ;
#274 = DIRECTION ( 'NONE',  ( -0.000000000000000000, 1.000000000000000000, -0.000000000000000000 ) ) ;
#275 = AXIS2_PLACEMENT_3D ( 'NONE', #216, #22, #247 ) ;
#276 = ORIENTED_EDGE ( 'NONE', *, *, #332, .T. ) ;
#277 = PERSON_AND_ORGANIZATION ( #270, #62 ) ;
#278 = CARTESIAN_POINT ( 'NONE',  ( 42.43524478543739065, 8.000000000000000000, 30.00000000000019540 ) ) ;
#279 = CARTESIAN_POINT ( 'NONE',  ( 42.43524478543739065, 0.000000000000000000, 19.00000000000020606 ) ) ;
#280 = SHAPE_DEFINITION_REPRESENTATION ( #120, #344 ) ;
#281 = FACE_OUTER_BOUND ( 'NONE', #346, .T. ) ;
#282 = ADVANCED_FACE ( 'NONE', ( #291, #14, #139, #266 ), #382, .T. ) ;
#283 = DIRECTION ( 'NONE',  ( 0.000000000000000000, 0.000000000000000000, 1.000000000000000000 ) ) ;
#284 = DIRECTION ( 'NONE',  ( -0.000000000000000000, 1.000000000000000000, -0.000000000000000000 ) ) ;
#285 = AXIS2_PLACEMENT_3D ( 'NONE', #262, #322, #319 ) ;
#286 = DIRECTION ( 'NONE',  ( -0.000000000000000000, 1.000000000000000000, -0.000000000000000000 ) ) ;
#287 = DIRECTION ( 'NONE',  ( 0.000000000000000000, 0.000000000000000000, -1.000000000000000000 ) ) ;
#288 = CARTESIAN_POINT ( 'NONE',  ( 0.000000000000000000, 8.000000000000000000, 0.000000000000000000 ) ) ;
#289 = AXIS2_PLACEMENT_3D ( 'NONE', #86, #293, #148 ) ;
#290 = AXIS2_PLACEMENT_3D ( 'NONE', #184, #255, #397 ) ;
#291 = FACE_BOUND ( 'NONE', #154, .T. ) ;
#292 = LINE ( 'NONE', #170, #302 ) ;
#293 = DIRECTION ( 'NONE',  ( 0.000000000000000000, 0.000000000000000000, 1.000000000000000000 ) ) ;
#294 = ORIENTED_EDGE ( 'NONE', *, *, #175, .F. ) ;
#295 = AXIS2_PLACEMENT_3D ( 'NONE', #117, #274, #325 ) ;
#296 = PERSON_AND_ORGANIZATION ( #270, #62 ) ;
#297 = ORIENTED_EDGE ( 'NONE', *, *, #195, .F. ) ;
#298 = DIRECTION ( 'NONE',  ( 0.000000000000000000, 1.000000000000000000, 0.000000000000000000 ) ) ;
#299 = VERTEX_POINT ( 'NONE', #52 ) ;
#300 = EDGE_LOOP ( 'NONE', ( #209, #273, #30, #7 ) ) ;
#301 = CIRCLE ( 'NONE', #12, 5.499999999999994671 ) ;
#302 = VECTOR ( 'NONE', #234, 1000.000000000000000 ) ;
#303 = ORIENTED_EDGE ( 'NONE', *, *, #377, .F. ) ;
#304 = CALENDAR_DATE ( 2024, 17, 10 ) ;
#305 = EDGE_CURVE ( 'NONE', #147, #189, #19, .T. ) ;
#306 = ORIENTED_EDGE ( 'NONE', *, *, #363, .F. ) ;
#307 = CARTESIAN_POINT ( 'NONE',  ( 42.43524478543739065, 8.000000000000000000, 24.50000000000020250 ) ) ;
#308 = VERTEX_POINT ( 'NONE', #384 ) ;
#309 = CIRCLE ( 'NONE', #285, 60.00000000000000000 ) ;
#310 = CALENDAR_DATE ( 2024, 17, 10 ) ;
#311 = DIRECTION ( 'NONE',  ( 0.000000000000000000, 0.000000000000000000, 1.000000000000000000 ) ) ;
#312 = ORIENTED_EDGE ( 'NONE', *, *, #332, .F. ) ;
#313 = CARTESIAN_POINT ( 'NONE',  ( 0.000000000000000000, 8.000000000000000000, -49.00000000000000000 ) ) ;
#314 = AXIS2_PLACEMENT_3D ( 'NONE', #164, #166, #200 ) ;
#315 = FACE_OUTER_BOUND ( 'NONE', #300, .T. ) ;
#316 = ADVANCED_FACE ( 'NONE', ( #388, #78, #107, #272 ), #143, .F. ) ;
#317 = CYLINDRICAL_SURFACE ( 'NONE', #150, 60.00000000000000000 ) ;
#318 = APPROVAL_PERSON_ORGANIZATION ( #90, #81, #221 ) ;
#319 = DIRECTION ( 'NONE',  ( 0.000000000000000000, 0.000000000000000000, 1.000000000000000000 ) ) ;
#320 = APPROVAL ( #396, 'UNSPECIFIED' ) ;
#321 = CIRCLE ( 'NONE', #360, 5.499999999999994671 ) ;
#322 = DIRECTION ( 'NONE',  ( 0.000000000000000000, 1.000000000000000000, 0.000000000000000000 ) ) ;
#323 = DIRECTION ( 'NONE',  ( 0.000000000000000000, 1.000000000000000000, 0.000000000000000000 ) ) ;
#324 = ORIENTED_EDGE ( 'NONE', *, *, #394, .T. ) ;
#325 = DIRECTION ( 'NONE',  ( 0.000000000000000000, 0.000000000000000000, 1.000000000000000000 ) ) ;
#326 = ORIENTED_EDGE ( 'NONE', *, *, #3, .T. ) ;
#327 = CARTESIAN_POINT ( 'NONE',  ( 7.347880794884118356E-15, 8.000000000000000000, 60.00000000000000000 ) ) ;
#328 = EDGE_LOOP ( 'NONE', ( #53, #248 ) ) ;
#329 = DIRECTION ( 'NONE',  ( -0.000000000000000000, 1.000000000000000000, -0.000000000000000000 ) ) ;
#330 = ORIENTED_EDGE ( 'NONE', *, *, #138, .T. ) ;
#331 = ORIENTED_EDGE ( 'NONE', *, *, #196, .F. ) ;
#332 = EDGE_CURVE ( 'NONE', #158, #246, #71, .T. ) ;
#333 = DATE_TIME_ROLE ( 'creation_date' ) ;
#334 = AXIS2_PLACEMENT_3D ( 'NONE', #35, #161, #6 ) ;
#335 = DIRECTION ( 'NONE',  ( 0.000000000000000000, 1.000000000000000000, 0.000000000000000000 ) ) ;
#336 = PERSON_AND_ORGANIZATION_ROLE ( 'design_supplier' ) ;
#337 = CARTESIAN_POINT ( 'NONE',  ( 0.000000000000000000, 0.000000000000000000, -49.00000000000000000 ) ) ;
#338 = COORDINATED_UNIVERSAL_TIME_OFFSET ( 1, 0, .AHEAD. ) ;
#339 = CARTESIAN_POINT ( 'NONE',  ( 0.000000000000000000, 0.000000000000000000, -60.00000000000000000 ) ) ;
#340 = SECURITY_CLASSIFICATION ( '', '', #159 ) ;
#341 = PERSON_AND_ORGANIZATION ( #270, #62 ) ;
#342 = AXIS2_PLACEMENT_3D ( 'NONE', #267, #236, #355 ) ;
#343 = DIRECTION ( 'NONE',  ( 0.000000000000000000, 0.000000000000000000, 1.000000000000000000 ) ) ;
#344 = ADVANCED_BREP_SHAPE_REPRESENTATION ( '3D_GB3092_120_188706910', ( #152, #289 ), #174 ) ;
#345 = DATE_TIME_ROLE ( 'classification_date' ) ;
#346 = EDGE_LOOP ( 'NONE', ( #303, #358, #160, #241 ) ) ;
#347 = DIRECTION ( 'NONE',  ( -0.000000000000000000, -1.000000000000000000, -0.000000000000000000 ) ) ;
#348 = LOCAL_TIME ( 13, 50, 32.00000000000000000, #96 ) ;
#349 = DIRECTION ( 'NONE',  ( -0.000000000000000000, 1.000000000000000000, -0.000000000000000000 ) ) ;
#350 = CARTESIAN_POINT ( 'NONE',  ( 6.735557395310437093E-16, 8.000000000000000000, -54.50000000000000000 ) ) ;
#351 = CYLINDRICAL_SURFACE ( 'NONE', #198, 60.00000000000000000 ) ;
#352 = EDGE_CURVE ( 'NONE', #308, #217, #190, .T. ) ;
#353 = CARTESIAN_POINT ( 'NONE',  ( 7.347880794884118356E-15, 0.000000000000000000, 60.00000000000000000 ) ) ;
#354 = CIRCLE ( 'NONE', #151, 5.499999999999998224 ) ;
#355 = DIRECTION ( 'NONE',  ( 0.000000000000000000, 0.000000000000000000, 1.000000000000000000 ) ) ;
#356 = EDGE_LOOP ( 'NONE', ( #89, #269, #178, #115 ) ) ;
#357 = DIRECTION ( 'NONE',  ( 0.000000000000000000, 1.000000000000000000, 0.000000000000000000 ) ) ;
#358 = ORIENTED_EDGE ( 'NONE', *, *, #102, .T. ) ;
#359 = AXIS2_PLACEMENT_3D ( 'NONE', #212, #329, #177 ) ;
#360 = AXIS2_PLACEMENT_3D ( 'NONE', #256, #187, #219 ) ;
#361 = LINE ( 'NONE', #82, #125 ) ;
#362 = ORIENTED_EDGE ( 'NONE', *, *, #394, .F. ) ;
#363 = EDGE_CURVE ( 'NONE', #206, #308, #361, .T. ) ;
#364 = EDGE_CURVE ( 'NONE', #87, #129, #146, .T. ) ;
#365 = CC_DESIGN_APPROVAL ( #81, ( #156 ) ) ;
#366 = COORDINATED_UNIVERSAL_TIME_OFFSET ( 1, 0, .AHEAD. ) ;
#367 = LINE ( 'NONE', #127, #191 ) ;
#368 = APPROVAL_ROLE ( '' ) ;
#369 = CARTESIAN_POINT ( 'NONE',  ( 42.43524478543739065, 8.000000000000000000, 19.00000000000020606 ) ) ;
#370 = CYLINDRICAL_SURFACE ( 'NONE', #116, 5.499999999999998224 ) ;
#371 = ORIENTED_EDGE ( 'NONE', *, *, #195, .T. ) ;
#372 = LOCAL_TIME ( 13, 50, 32.00000000000000000, #338 ) ;
#373 = AXIS2_PLACEMENT_3D ( 'NONE', #240, #357, #207 ) ;
#374 = ORIENTED_EDGE ( 'NONE', *, *, #352, .F. ) ;
#375 = AXIS2_PLACEMENT_3D ( 'NONE', #155, #227, #39 ) ;
#376 = DIRECTION ( 'NONE',  ( -0.000000000000000000, 1.000000000000000000, -0.000000000000000000 ) ) ;
#377 = EDGE_CURVE ( 'NONE', #51, #23, #301, .T. ) ;
#378 = CARTESIAN_POINT ( 'NONE',  ( -42.43524478543771750, 0.000000000000000000, 29.99999999999960210 ) ) ;
#379 = APPROVAL_PERSON_ORGANIZATION ( #341, #320, #67 ) ;
#380 = CYLINDRICAL_SURFACE ( 'NONE', #259, 5.499999999999998224 ) ;
#381 = CARTESIAN_POINT ( 'NONE',  ( -42.43524478543771750, 8.000000000000000000, 24.49999999999960565 ) ) ;
#382 = PLANE ( 'NONE',  #373 ) ;
#383 = APPLICATION_CONTEXT ( 'configuration controlled 3d designs of mechanical parts and assemblies' ) ;
#384 = CARTESIAN_POINT ( 'NONE',  ( -42.43524478543771750, 8.000000000000000000, 29.99999999999960210 ) ) ;
#385 = AXIS2_PLACEMENT_3D ( 'NONE', #165, #99, #230 ) ;
#386 = DIRECTION ( 'NONE',  ( 0.000000000000000000, -0.000000000000000000, 1.000000000000000000 ) ) ;
#387 = VERTEX_POINT ( 'NONE', #210 ) ;
#388 = FACE_BOUND ( 'NONE', #80, .T. ) ;
#389 = ORIENTED_EDGE ( 'NONE', *, *, #102, .F. ) ;
#390 = DIRECTION ( 'NONE',  ( 0.000000000000000000, 0.000000000000000000, 1.000000000000000000 ) ) ;
#391 = ORIENTED_EDGE ( 'NONE', *, *, #74, .T. ) ;
#392 = CLOSED_SHELL ( 'NONE', ( #228, #25, #106, #254, #224, #282, #316, #237, #145, #229 ) ) ;
#393 = PERSON_AND_ORGANIZATION ( #270, #62 ) ;
#394 = EDGE_CURVE ( 'NONE', #246, #158, #130, .T. ) ;
#395 = ORIENTED_EDGE ( 'NONE', *, *, #38, .F. ) ;
#396 = APPROVAL_STATUS ( 'not_yet_approved' ) ;
#397 = DIRECTION ( 'NONE',  ( 0.000000000000000000, 0.000000000000000000, 1.000000000000000000 ) ) ;
ENDSEC;
END-ISO-10303-21;
