ISO-10303-21;
HEADER;
FILE_DESCRIPTION (( 'STEP AP203' ),
    '1' );
FILE_NAME ('3D_M2060_25-15_174121030.STEP',
    '2024-09-05T10:14:52',
    ( '' ),
    ( '' ),
    'SwSTEP 2.0',
    'SolidWorks 2024',
    '' );
FILE_SCHEMA (( 'CONFIG_CONTROL_DESIGN' ));
ENDSEC;

DATA;
#1 = EDGE_CURVE ( 'NONE', #172, #24, #196, .T. ) ;
#2 = EDGE_CURVE ( 'NONE', #27, #60, #234, .T. ) ;
#3 = VERTEX_POINT ( 'NONE', #213 ) ;
#4 = DIRECTION ( 'NONE',  ( 0.000000000000000000, 0.000000000000000000, -1.000000000000000000 ) ) ;
#5 = ORIENTED_EDGE ( 'NONE', *, *, #26, .F. ) ;
#6 = CARTESIAN_POINT ( 'NONE',  ( 0.000000000000000000, 0.000000000000000000, 0.000000000000000000 ) ) ;
#7 = APPLICATION_CONTEXT ( 'configuration controlled 3d designs of mechanical parts and assemblies' ) ;
#8 = AXIS2_PLACEMENT_3D ( 'NONE', #6, #186, #83 ) ;
#9 = DIRECTION ( 'NONE',  ( 0.000000000000000000, 0.000000000000000000, -1.000000000000000000 ) ) ;
#10 = DIRECTION ( 'NONE',  ( -1.000000000000000000, -0.000000000000000000, -0.000000000000000000 ) ) ;
#11 = DIRECTION ( 'NONE',  ( -0.9635179096299406609, 3.277692010970710133E-17, -0.2676438637860946712 ) ) ;
#12 = DIRECTION ( 'NONE',  ( 0.000000000000000000, 0.000000000000000000, 1.000000000000000000 ) ) ;
#13 = AXIS2_PLACEMENT_3D ( 'NONE', #49, #88, #218 ) ;
#14 = DIRECTION ( 'NONE',  ( 0.000000000000000000, 0.000000000000000000, -1.000000000000000000 ) ) ;
#15 = APPROVAL_ROLE ( '' ) ;
#16 = EDGE_CURVE ( 'NONE', #156, #235, #21, .T. ) ;
#17 = APPROVAL_PERSON_ORGANIZATION ( #200, #105, #15 ) ;
#18 = PERSON_AND_ORGANIZATION ( #168, #202 ) ;
#19 = APPLICATION_CONTEXT ( 'configuration controlled 3d designs of mechanical parts and assemblies' ) ;
#20 = EDGE_CURVE ( 'NONE', #39, #3, #38, .T. ) ;
#21 = CIRCLE ( 'NONE', #8, 13.00000000000000178 ) ;
#22 = EDGE_LOOP ( 'NONE', ( #117, #216 ) ) ;
#23 = ORIENTED_EDGE ( 'NONE', *, *, #26, .T. ) ;
#24 = VERTEX_POINT ( 'NONE', #242 ) ;
#25 = LOCAL_TIME ( 12, 14, 52.00000000000000000, #50 ) ;
#26 = EDGE_CURVE ( 'NONE', #24, #172, #222, .T. ) ;
#27 = VERTEX_POINT ( 'NONE', #223 ) ;
#28 = CARTESIAN_POINT ( 'NONE',  ( 0.000000000000000000, 0.000000000000000000, 0.000000000000000000 ) ) ;
#29 = DIRECTION ( 'NONE',  ( 1.000000000000000000, 0.000000000000000000, 0.000000000000000000 ) ) ;
#30 = DIRECTION ( 'NONE',  ( 1.000000000000000000, 0.000000000000000000, 0.000000000000000000 ) ) ;
#31 = DIRECTION ( 'NONE',  ( 0.000000000000000000, 0.000000000000000000, -1.000000000000000000 ) ) ;
#32 = APPROVAL_STATUS ( 'not_yet_approved' ) ;
#33 =( LENGTH_UNIT ( ) NAMED_UNIT ( * ) SI_UNIT ( .MILLI., .METRE. ) );
#34 = UNCERTAINTY_MEASURE_WITH_UNIT (LENGTH_MEASURE( 1.000000000000000082E-05 ), #33, 'distance_accuracy_value', 'NONE');
#35 = APPROVAL ( #87, 'UNSPECIFIED' ) ;
#36 = COORDINATED_UNIVERSAL_TIME_OFFSET ( 1, 0, .AHEAD. ) ;
#37 = VECTOR ( 'NONE', #111, 1000.000000000000114 ) ;
#38 = CIRCLE ( 'NONE', #184, 6.443204858977550131 ) ;
#39 = VERTEX_POINT ( 'NONE', #89 ) ;
#40 =( GEOMETRIC_REPRESENTATION_CONTEXT ( 3 ) GLOBAL_UNCERTAINTY_ASSIGNED_CONTEXT ( ( #34 ) ) GLOBAL_UNIT_ASSIGNED_CONTEXT ( ( #33, #149, #232 ) ) REPRESENTATION_CONTEXT ( 'NONE', 'WORKASPACE' ) );
#41 = CC_DESIGN_PERSON_AND_ORGANIZATION_ASSIGNMENT ( #248, #73, ( #66 ) ) ;
#42 = DIRECTION ( 'NONE',  ( 1.000000000000000000, 0.000000000000000000, 0.000000000000000000 ) ) ;
#43 = DIRECTION ( 'NONE',  ( -0.9635179096299406609, 0.000000000000000000, 0.2676438637860946712 ) ) ;
#44 = AXIS2_PLACEMENT_3D ( 'NONE', #246, #106, #90 ) ;
#45 = LINE ( 'NONE', #92, #37 ) ;
#46 = FACE_BOUND ( 'NONE', #76, .T. ) ;
#47 = CARTESIAN_POINT ( 'NONE',  ( 0.000000000000000000, 0.000000000000000000, 0.000000000000000000 ) ) ;
#48 = CC_DESIGN_PERSON_AND_ORGANIZATION_ASSIGNMENT ( #182, #75, ( #135 ) ) ;
#49 = CARTESIAN_POINT ( 'NONE',  ( 18.00000000000000000, 0.000000000000000000, 0.000000000000000000 ) ) ;
#50 = COORDINATED_UNIVERSAL_TIME_OFFSET ( 1, 0, .AHEAD. ) ;
#51 = DIRECTION ( 'NONE',  ( 1.000000000000000000, 0.000000000000000000, 0.000000000000000000 ) ) ;
#52 = APPROVAL_PERSON_ORGANIZATION ( #191, #35, #157 ) ;
#53 = APPROVAL_DATE_TIME ( #225, #120 ) ;
#54 = CONICAL_SURFACE ( 'NONE', #13, 8.000000000000000000, 0.2709468503384205862 ) ;
#55 = ORIENTED_EDGE ( 'NONE', *, *, #2, .F. ) ;
#56 = ORIENTED_EDGE ( 'NONE', *, *, #214, .T. ) ;
#57 = AXIS2_PLACEMENT_3D ( 'NONE', #127, #29, #178 ) ;
#58 = CLOSED_SHELL ( 'NONE', ( #100, #148, #174, #231, #62, #72 ) ) ;
#59 = ORIENTED_EDGE ( 'NONE', *, *, #236, .F. ) ;
#60 = VERTEX_POINT ( 'NONE', #197 ) ;
#61 = PERSON_AND_ORGANIZATION_ROLE ( 'design_owner' ) ;
#62 = ADVANCED_FACE ( 'NONE', ( #220 ), #212, .T. ) ;
#63 = ORIENTED_EDGE ( 'NONE', *, *, #167, .F. ) ;
#64 = CARTESIAN_POINT ( 'NONE',  ( 0.000000000000000000, 1.401388420253429817E-15, -11.44320485897755013 ) ) ;
#65 = CALENDAR_DATE ( 2024, 5, 9 ) ;
#66 = PRODUCT_DEFINITION_FORMATION_WITH_SPECIFIED_SOURCE ( 'ANY', '', #249, .NOT_KNOWN. ) ;
#67 = CARTESIAN_POINT ( 'NONE',  ( 18.00000000000000000, 0.000000000000000000, 0.000000000000000000 ) ) ;
#68 = DIRECTION ( 'NONE',  ( -1.000000000000000000, -0.000000000000000000, -0.000000000000000000 ) ) ;
#69 = ADVANCED_BREP_SHAPE_REPRESENTATION ( '3D_M2060_25-15_174121030', ( #171, #247 ), #40 ) ;
#70 = COORDINATED_UNIVERSAL_TIME_OFFSET ( 1, 0, .AHEAD. ) ;
#71 = LINE ( 'NONE', #144, #190 ) ;
#72 = ADVANCED_FACE ( 'NONE', ( #112 ), #229, .F. ) ;
#73 = PERSON_AND_ORGANIZATION_ROLE ( 'creator' ) ;
#74 = CALENDAR_DATE ( 2024, 5, 9 ) ;
#75 = PERSON_AND_ORGANIZATION_ROLE ( 'classification_officer' ) ;
#76 = EDGE_LOOP ( 'NONE', ( #150, #187 ) ) ;
#77 = DIRECTION ( 'NONE',  ( 1.000000000000000000, 0.000000000000000000, 0.000000000000000000 ) ) ;
#78 = DIRECTION ( 'NONE',  ( 1.000000000000000000, 0.000000000000000000, 0.000000000000000000 ) ) ;
#79 = CC_DESIGN_DATE_AND_TIME_ASSIGNMENT ( #239, #175, ( #135 ) ) ;
#80 = ORIENTED_EDGE ( 'NONE', *, *, #16, .T. ) ;
#81 = LOCAL_TIME ( 12, 14, 52.00000000000000000, #36 ) ;
#82 = AXIS2_PLACEMENT_3D ( 'NONE', #159, #30, #9 ) ;
#83 = DIRECTION ( 'NONE',  ( 0.000000000000000000, 0.000000000000000000, -1.000000000000000000 ) ) ;
#84 = EDGE_CURVE ( 'NONE', #3, #39, #110, .T. ) ;
#85 = APPROVAL_ROLE ( '' ) ;
#86 = PERSON_AND_ORGANIZATION ( #168, #202 ) ;
#87 = APPROVAL_STATUS ( 'not_yet_approved' ) ;
#88 = DIRECTION ( 'NONE',  ( -1.000000000000000000, -0.000000000000000000, -0.000000000000000000 ) ) ;
#89 = CARTESIAN_POINT ( 'NONE',  ( 18.00000000000000000, 0.000000000000000000, 6.443204858977550131 ) ) ;
#90 = DIRECTION ( 'NONE',  ( 0.000000000000000000, 0.000000000000000000, 1.000000000000000000 ) ) ;
#91 = AXIS2_PLACEMENT_3D ( 'NONE', #177, #68, #164 ) ;
#92 = CARTESIAN_POINT ( 'NONE',  ( 17.59853420432085613, 0.000000000000000000, 6.554723135555089009 ) ) ;
#93 = CC_DESIGN_PERSON_AND_ORGANIZATION_ASSIGNMENT ( #18, #199, ( #165 ) ) ;
#94 = FACE_BOUND ( 'NONE', #152, .T. ) ;
#95 = COORDINATED_UNIVERSAL_TIME_OFFSET ( 1, 0, .AHEAD. ) ;
#96 = CALENDAR_DATE ( 2024, 5, 9 ) ;
#97 = AXIS2_PLACEMENT_3D ( 'NONE', #137, #77, #4 ) ;
#98 = ORIENTED_EDGE ( 'NONE', *, *, #243, .T. ) ;
#99 = CC_DESIGN_SECURITY_CLASSIFICATION ( #135, ( #66 ) ) ;
#100 = ADVANCED_FACE ( 'NONE', ( #161 ), #103, .F. ) ;
#101 = ORIENTED_EDGE ( 'NONE', *, *, #16, .F. ) ;
#102 = ORIENTED_EDGE ( 'NONE', *, *, #194, .F. ) ;
#103 = CONICAL_SURFACE ( 'NONE', #91, 6.554723135555089009, 0.2709468503384205862 ) ;
#104 = VECTOR ( 'NONE', #11, 1000.000000000000114 ) ;
#105 = APPROVAL ( #32, 'UNSPECIFIED' ) ;
#106 = DIRECTION ( 'NONE',  ( -1.000000000000000000, -0.000000000000000000, -0.000000000000000000 ) ) ;
#107 = DIRECTION ( 'NONE',  ( 0.000000000000000000, 0.000000000000000000, -1.000000000000000000 ) ) ;
#108 = EDGE_CURVE ( 'NONE', #3, #172, #142, .T. ) ;
#109 = DIRECTION ( 'NONE',  ( 1.000000000000000000, 0.000000000000000000, 0.000000000000000000 ) ) ;
#110 = CIRCLE ( 'NONE', #82, 6.443204858977550131 ) ;
#111 = DIRECTION ( 'NONE',  ( -0.9635179096299406609, 0.000000000000000000, 0.2676438637860946712 ) ) ;
#112 = FACE_OUTER_BOUND ( 'NONE', #230, .T. ) ;
#113 = PERSON_AND_ORGANIZATION ( #168, #202 ) ;
#114 = ORIENTED_EDGE ( 'NONE', *, *, #108, .T. ) ;
#115 = ORIENTED_EDGE ( 'NONE', *, *, #1, .F. ) ;
#116 = AXIS2_PLACEMENT_3D ( 'NONE', #28, #145, #198 ) ;
#117 = ORIENTED_EDGE ( 'NONE', *, *, #167, .T. ) ;
#118 = ORIENTED_EDGE ( 'NONE', *, *, #1, .T. ) ;
#119 = AXIS2_PLACEMENT_3D ( 'NONE', #238, #10, #12 ) ;
#120 = APPROVAL ( #153, 'UNSPECIFIED' ) ;
#121 = PLANE ( 'NONE',  #57 ) ;
#122 = CARTESIAN_POINT ( 'NONE',  ( 18.00000000000000000, 0.000000000000000000, 0.000000000000000000 ) ) ;
#123 = CC_DESIGN_PERSON_AND_ORGANIZATION_ASSIGNMENT ( #86, #61, ( #249 ) ) ;
#124 = FACE_OUTER_BOUND ( 'NONE', #22, .T. ) ;
#125 = AXIS2_PLACEMENT_3D ( 'NONE', #173, #78, #211 ) ;
#126 = DIRECTION ( 'NONE',  ( 0.000000000000000000, 0.000000000000000000, -1.000000000000000000 ) ) ;
#127 = CARTESIAN_POINT ( 'NONE',  ( 0.000000000000000000, 0.000000000000000000, 0.000000000000000000 ) ) ;
#128 = APPROVAL_DATE_TIME ( #147, #105 ) ;
#129 = DESIGN_CONTEXT ( 'detailed design', #19, 'design' ) ;
#130 = DATE_AND_TIME ( #74, #25 ) ;
#131 = CC_DESIGN_APPROVAL ( #120, ( #165 ) ) ;
#132 = AXIS2_PLACEMENT_3D ( 'NONE', #122, #109, #14 ) ;
#133 = ORIENTED_EDGE ( 'NONE', *, *, #194, .T. ) ;
#134 = EDGE_LOOP ( 'NONE', ( #101, #102 ) ) ;
#135 = SECURITY_CLASSIFICATION ( '', '', #201 ) ;
#136 = EDGE_LOOP ( 'NONE', ( #59, #63, #98, #80 ) ) ;
#137 = CARTESIAN_POINT ( 'NONE',  ( 0.000000000000000000, 0.000000000000000000, 0.000000000000000000 ) ) ;
#138 = APPLICATION_PROTOCOL_DEFINITION ( 'international standard', 'config_control_design', 1994, #19 ) ;
#139 = CARTESIAN_POINT ( 'NONE',  ( 18.00000000000000000, 0.000000000000000000, 0.000000000000000000 ) ) ;
#140 = CARTESIAN_POINT ( 'NONE',  ( 0.000000000000000000, 2.388061258337338939E-15, -13.00000000000000178 ) ) ;
#141 = DATE_AND_TIME ( #65, #210 ) ;
#142 = LINE ( 'NONE', #158, #162 ) ;
#143 = CARTESIAN_POINT ( 'NONE',  ( 0.000000000000000000, -7.960204194457796463E-16, 13.00000000000000178 ) ) ;
#144 = CARTESIAN_POINT ( 'NONE',  ( 18.00000000000000000, 0.000000000000000000, 8.000000000000000000 ) ) ;
#145 = DIRECTION ( 'NONE',  ( 1.000000000000000000, 0.000000000000000000, 0.000000000000000000 ) ) ;
#146 = CARTESIAN_POINT ( 'NONE',  ( 0.000000000000000000, 0.000000000000000000, 0.000000000000000000 ) ) ;
#147 = DATE_AND_TIME ( #226, #241 ) ;
#148 = ADVANCED_FACE ( 'NONE', ( #245 ), #54, .T. ) ;
#149 =( NAMED_UNIT ( * ) PLANE_ANGLE_UNIT ( ) SI_UNIT ( $, .RADIAN. ) );
#150 = ORIENTED_EDGE ( 'NONE', *, *, #20, .F. ) ;
#151 = CC_DESIGN_APPROVAL ( #35, ( #135 ) ) ;
#152 = EDGE_LOOP ( 'NONE', ( #23, #118 ) ) ;
#153 = APPROVAL_STATUS ( 'not_yet_approved' ) ;
#154 = COORDINATED_UNIVERSAL_TIME_OFFSET ( 1, 0, .AHEAD. ) ;
#155 = CALENDAR_DATE ( 2024, 5, 9 ) ;
#156 = VERTEX_POINT ( 'NONE', #143 ) ;
#157 = APPROVAL_ROLE ( '' ) ;
#158 = CARTESIAN_POINT ( 'NONE',  ( 17.59853420432085613, 8.027220707254641754E-16, -6.554723135555089009 ) ) ;
#159 = CARTESIAN_POINT ( 'NONE',  ( 18.00000000000000000, 0.000000000000000000, 0.000000000000000000 ) ) ;
#160 = CC_DESIGN_APPROVAL ( #105, ( #66 ) ) ;
#161 = FACE_OUTER_BOUND ( 'NONE', #169, .T. ) ;
#162 = VECTOR ( 'NONE', #240, 1000.000000000000114 ) ;
#163 = LINE ( 'NONE', #181, #104 ) ;
#164 = DIRECTION ( 'NONE',  ( 0.000000000000000000, 0.000000000000000000, 1.000000000000000000 ) ) ;
#165 = PRODUCT_DEFINITION ( 'UNKNOWN', '', #66, #129 ) ;
#166 = APPLICATION_PROTOCOL_DEFINITION ( 'international standard', 'config_control_design', 1994, #7 ) ;
#167 = EDGE_CURVE ( 'NONE', #60, #27, #244, .T. ) ;
#168 = PERSON ( 'UNSPECIFIED', 'UNSPECIFIED', 'UNSPECIFIED', ('UNSPECIFIED'), ('UNSPECIFIED'), ('UNSPECIFIED') ) ;
#169 = EDGE_LOOP ( 'NONE', ( #207, #114, #5, #176 ) ) ;
#170 = ORIENTED_EDGE ( 'NONE', *, *, #236, .T. ) ;
#171 = MANIFOLD_SOLID_BREP ( 'Wandung2', #58 ) ;
#172 = VERTEX_POINT ( 'NONE', #64 ) ;
#173 = CARTESIAN_POINT ( 'NONE',  ( 18.00000000000000000, 0.000000000000000000, 0.000000000000000000 ) ) ;
#174 = ADVANCED_FACE ( 'NONE', ( #46, #124 ), #219, .T. ) ;
#175 = DATE_TIME_ROLE ( 'classification_date' ) ;
#176 = ORIENTED_EDGE ( 'NONE', *, *, #214, .F. ) ;
#177 = CARTESIAN_POINT ( 'NONE',  ( 17.59853420432085613, 0.000000000000000000, 0.000000000000000000 ) ) ;
#178 = DIRECTION ( 'NONE',  ( 0.000000000000000000, 0.000000000000000000, -1.000000000000000000 ) ) ;
#179 = APPROVAL_PERSON_ORGANIZATION ( #215, #120, #85 ) ;
#180 = DIRECTION ( 'NONE',  ( 1.000000000000000000, 0.000000000000000000, 0.000000000000000000 ) ) ;
#181 = CARTESIAN_POINT ( 'NONE',  ( 18.00000000000000000, 9.797174393178825657E-16, -8.000000000000000000 ) ) ;
#182 = PERSON_AND_ORGANIZATION ( #168, #202 ) ;
#183 = DATE_TIME_ROLE ( 'creation_date' ) ;
#184 = AXIS2_PLACEMENT_3D ( 'NONE', #139, #42, #126 ) ;
#185 = ORIENTED_EDGE ( 'NONE', *, *, #243, .F. ) ;
#186 = DIRECTION ( 'NONE',  ( 1.000000000000000000, 0.000000000000000000, 0.000000000000000000 ) ) ;
#187 = ORIENTED_EDGE ( 'NONE', *, *, #84, .F. ) ;
#188 = CC_DESIGN_DATE_AND_TIME_ASSIGNMENT ( #130, #183, ( #165 ) ) ;
#189 = AXIS2_PLACEMENT_3D ( 'NONE', #67, #224, #31 ) ;
#190 = VECTOR ( 'NONE', #43, 1000.000000000000114 ) ;
#191 = PERSON_AND_ORGANIZATION ( #168, #202 ) ;
#192 = ORIENTED_EDGE ( 'NONE', *, *, #84, .T. ) ;
#193 = SHAPE_DEFINITION_REPRESENTATION ( #204, #69 ) ;
#194 = EDGE_CURVE ( 'NONE', #235, #156, #205, .T. ) ;
#195 = FACE_OUTER_BOUND ( 'NONE', #134, .T. ) ;
#196 = CIRCLE ( 'NONE', #97, 11.44320485897755191 ) ;
#197 = CARTESIAN_POINT ( 'NONE',  ( 18.00000000000000000, 4.898587196589412829E-16, 8.000000000000000000 ) ) ;
#198 = DIRECTION ( 'NONE',  ( 0.000000000000000000, 0.000000000000000000, -1.000000000000000000 ) ) ;
#199 = PERSON_AND_ORGANIZATION_ROLE ( 'creator' ) ;
#200 = PERSON_AND_ORGANIZATION ( #168, #202 ) ;
#201 = SECURITY_CLASSIFICATION_LEVEL ( 'unclassified' ) ;
#202 = ORGANIZATION ( 'UNSPECIFIED', 'UNSPECIFIED', '' ) ;
#203 = MECHANICAL_CONTEXT ( 'NONE', #7, 'mechanical' ) ;
#204 = PRODUCT_DEFINITION_SHAPE ( 'NONE', 'NONE',  #165 ) ;
#205 = CIRCLE ( 'NONE', #208, 13.00000000000000178 ) ;
#206 = PERSON_AND_ORGANIZATION_ROLE ( 'design_supplier' ) ;
#207 = ORIENTED_EDGE ( 'NONE', *, *, #20, .T. ) ;
#208 = AXIS2_PLACEMENT_3D ( 'NONE', #47, #180, #107 ) ;
#209 = ORIENTED_EDGE ( 'NONE', *, *, #108, .F. ) ;
#210 = LOCAL_TIME ( 12, 14, 52.00000000000000000, #70 ) ;
#211 = DIRECTION ( 'NONE',  ( 0.000000000000000000, 0.000000000000000000, -1.000000000000000000 ) ) ;
#212 = CONICAL_SURFACE ( 'NONE', #44, 8.000000000000000000, 0.2709468503384205862 ) ;
#213 = CARTESIAN_POINT ( 'NONE',  ( 18.00000000000000000, 1.095226720466591355E-15, -6.443204858977550131 ) ) ;
#214 = EDGE_CURVE ( 'NONE', #39, #24, #45, .T. ) ;
#215 = PERSON_AND_ORGANIZATION ( #168, #202 ) ;
#216 = ORIENTED_EDGE ( 'NONE', *, *, #2, .T. ) ;
#217 = PRODUCT_RELATED_PRODUCT_CATEGORY ( 'detail', '', ( #249 ) ) ;
#218 = DIRECTION ( 'NONE',  ( 0.000000000000000000, 0.000000000000000000, 1.000000000000000000 ) ) ;
#219 = PLANE ( 'NONE',  #132 ) ;
#220 = FACE_OUTER_BOUND ( 'NONE', #136, .T. ) ;
#221 = CC_DESIGN_PERSON_AND_ORGANIZATION_ASSIGNMENT ( #113, #206, ( #66 ) ) ;
#222 = CIRCLE ( 'NONE', #116, 11.44320485897755191 ) ;
#223 = CARTESIAN_POINT ( 'NONE',  ( 18.00000000000000000, 4.898587196589412829E-16, -8.000000000000000000 ) ) ;
#224 = DIRECTION ( 'NONE',  ( 1.000000000000000000, 0.000000000000000000, 0.000000000000000000 ) ) ;
#225 = DATE_AND_TIME ( #155, #228 ) ;
#226 = CALENDAR_DATE ( 2024, 5, 9 ) ;
#227 = DIRECTION ( 'NONE',  ( 0.000000000000000000, 0.000000000000000000, 1.000000000000000000 ) ) ;
#228 = LOCAL_TIME ( 12, 14, 52.00000000000000000, #154 ) ;
#229 = CONICAL_SURFACE ( 'NONE', #119, 6.554723135555089009, 0.2709468503384205862 ) ;
#230 = EDGE_LOOP ( 'NONE', ( #209, #192, #56, #115 ) ) ;
#231 = ADVANCED_FACE ( 'NONE', ( #94, #195 ), #121, .F. ) ;
#232 =( NAMED_UNIT ( * ) SI_UNIT ( $, .STERADIAN. ) SOLID_ANGLE_UNIT ( ) );
#233 = EDGE_LOOP ( 'NONE', ( #55, #170, #133, #185 ) ) ;
#234 = CIRCLE ( 'NONE', #125, 8.000000000000000000 ) ;
#235 = VERTEX_POINT ( 'NONE', #140 ) ;
#236 = EDGE_CURVE ( 'NONE', #27, #235, #163, .T. ) ;
#237 = APPROVAL_DATE_TIME ( #141, #35 ) ;
#238 = CARTESIAN_POINT ( 'NONE',  ( 17.59853420432085613, 0.000000000000000000, 0.000000000000000000 ) ) ;
#239 = DATE_AND_TIME ( #96, #81 ) ;
#240 = DIRECTION ( 'NONE',  ( -0.9635179096299406609, 3.277692010970710133E-17, -0.2676438637860946712 ) ) ;
#241 = LOCAL_TIME ( 12, 14, 52.00000000000000000, #95 ) ;
#242 = CARTESIAN_POINT ( 'NONE',  ( 0.000000000000000000, 0.000000000000000000, 11.44320485897755013 ) ) ;
#243 = EDGE_CURVE ( 'NONE', #60, #156, #71, .T. ) ;
#244 = CIRCLE ( 'NONE', #189, 8.000000000000000000 ) ;
#245 = FACE_OUTER_BOUND ( 'NONE', #233, .T. ) ;
#246 = CARTESIAN_POINT ( 'NONE',  ( 18.00000000000000000, 0.000000000000000000, 0.000000000000000000 ) ) ;
#247 = AXIS2_PLACEMENT_3D ( 'NONE', #146, #227, #51 ) ;
#248 = PERSON_AND_ORGANIZATION ( #168, #202 ) ;
#249 = PRODUCT ( '3D_M2060_25-15_174121030', '3D_M2060_25-15_174121030', '', ( #203 ) ) ;
ENDSEC;
END-ISO-10303-21;
