ISO-10303-21;
HEADER;
/****************************************************************
 * Generated by software with PDElib inside                    *
 * PDElib Version v51a, created Wed 07/06/2011                  *
 * ITI Transcendata (http://www.transcendata.com/)              *
 ****************************************************************/
FILE_DESCRIPTION(('Hygienic Clamp Joint-6,35x0,89'),'2;1');
FILE_NAME('E090_CC_6,35x0,89_MR14,3_L66,7_Fl25_00.stp','2013-09-04T15:17:15',(''),('DOCKWEILER AG'),'Autodesk Inventor 2012','Autodesk Inventor 2012','');
FILE_SCHEMA(('CONFIG_CONTROL_DESIGN'));
ENDSEC;
DATA;
#5=APPLICATION_CONTEXT('configuration controlled 3D designs of mechanical parts and assemblies');
#6=APPLICATION_PROTOCOL_DEFINITION('International Standard','ap203_configuration_controlled_3d_design_of_mechanical_parts_and_assemblies_mim_lf',2004,#5);
#7=PRODUCT_CONTEXT('',#5,'mechanical');
#8=PRODUCT('N0001_005_001','N0001_005_001',$,(#7));
#9=PRODUCT_RELATED_PRODUCT_CATEGORY('part',$,(#8));
#10=PRODUCT_DEFINITION_FORMATION('',$,#8);
#11=PRODUCT_DEFINITION_CONTEXT('part definition',#5,'design');
#12=PRODUCT_DEFINITION('',$,#10,#11);
#18=(NAMED_UNIT(*)PLANE_ANGLE_UNIT()SI_UNIT($,.RADIAN.));
#19=DIMENSIONAL_EXPONENTS(0.0,0.0,0.0,0.0,0.0,0.0,0.0);
#20=PLANE_ANGLE_MEASURE_WITH_UNIT(PLANE_ANGLE_MEASURE(0.0174532925),#18);
#24=(CONVERSION_BASED_UNIT('DEGREE',#20)NAMED_UNIT(#19)PLANE_ANGLE_UNIT());
#28=(NAMED_UNIT(*)SI_UNIT($,.STERADIAN.)SOLID_ANGLE_UNIT());
#32=(LENGTH_UNIT()NAMED_UNIT(*)SI_UNIT(.MILLI.,.METRE.));
#34=UNCERTAINTY_MEASURE_WITH_UNIT(LENGTH_MEASURE(0.01),#32,'DISTANCE_ACCURACY_VALUE','');
#36=(GEOMETRIC_REPRESENTATION_CONTEXT(3)GLOBAL_UNCERTAINTY_ASSIGNED_CONTEXT((#34))GLOBAL_UNIT_ASSIGNED_CONTEXT((#24,#28,#32))REPRESENTATION_CONTEXT('None','None'));
#37=AXIS2_PLACEMENT_3D('',#38,#39,#40);
#38=CARTESIAN_POINT('',(0.0,0.0,0.0));
#39=DIRECTION('',(0.0,0.0,1.0));
#40=DIRECTION('',(1.0,0.0,0.0));
#41=SHAPE_REPRESENTATION('',(#37,#294,#669),#36);
#42=PRODUCT_DEFINITION_SHAPE('','',#12);
#43=SHAPE_DEFINITION_REPRESENTATION(#42,#41);
#44=APPLICATION_CONTEXT('configuration controlled 3D designs of mechanical parts and assemblies');
#45=APPLICATION_PROTOCOL_DEFINITION('International Standard','ap203_configuration_controlled_3d_design_of_mechanical_parts_and_assemblies_mim_lf',2004,#44);
#46=PRODUCT_CONTEXT('',#44,'mechanical');
#47=PRODUCT('N0001_001_001_04','N0001_001_001_04',$,(#46));
#48=PRODUCT_RELATED_PRODUCT_CATEGORY('part',$,(#47));
#49=PRODUCT_DEFINITION_FORMATION('',$,#47);
#50=PRODUCT_DEFINITION_CONTEXT('part definition',#44,'design');
#51=PRODUCT_DEFINITION('',$,#49,#50);
#57=(NAMED_UNIT(*)PLANE_ANGLE_UNIT()SI_UNIT($,.RADIAN.));
#58=DIMENSIONAL_EXPONENTS(0.0,0.0,0.0,0.0,0.0,0.0,0.0);
#59=PLANE_ANGLE_MEASURE_WITH_UNIT(PLANE_ANGLE_MEASURE(0.0174532925),#57);
#63=(CONVERSION_BASED_UNIT('DEGREE',#59)NAMED_UNIT(#58)PLANE_ANGLE_UNIT());
#67=(NAMED_UNIT(*)SI_UNIT($,.STERADIAN.)SOLID_ANGLE_UNIT());
#71=(LENGTH_UNIT()NAMED_UNIT(*)SI_UNIT(.MILLI.,.METRE.));
#73=UNCERTAINTY_MEASURE_WITH_UNIT(LENGTH_MEASURE(0.01),#71,'DISTANCE_ACCURACY_VALUE','');
#75=(GEOMETRIC_REPRESENTATION_CONTEXT(3)GLOBAL_UNCERTAINTY_ASSIGNED_CONTEXT((#73))GLOBAL_UNIT_ASSIGNED_CONTEXT((#63,#67,#71))REPRESENTATION_CONTEXT('None','None'));
#76=AXIS2_PLACEMENT_3D('',#77,#78,#79);
#77=CARTESIAN_POINT('',(0.0,0.0,0.0));
#78=DIRECTION('',(0.0,0.0,1.0));
#79=DIRECTION('',(1.0,0.0,0.0));
#80=SHAPE_REPRESENTATION('',(#76),#75);
#81=PRODUCT_DEFINITION_SHAPE('','',#51);
#82=SHAPE_DEFINITION_REPRESENTATION(#81,#80);
#88=(NAMED_UNIT(*)PLANE_ANGLE_UNIT()SI_UNIT($,.RADIAN.));
#89=DIMENSIONAL_EXPONENTS(0.0,0.0,0.0,0.0,0.0,0.0,0.0);
#90=PLANE_ANGLE_MEASURE_WITH_UNIT(PLANE_ANGLE_MEASURE(0.0174532925),#88);
#94=(CONVERSION_BASED_UNIT('DEGREE',#90)NAMED_UNIT(#89)PLANE_ANGLE_UNIT());
#98=(NAMED_UNIT(*)SI_UNIT($,.STERADIAN.)SOLID_ANGLE_UNIT());
#102=(LENGTH_UNIT()NAMED_UNIT(*)SI_UNIT(.MILLI.,.METRE.));
#104=UNCERTAINTY_MEASURE_WITH_UNIT(LENGTH_MEASURE(0.000001),#102,'DISTANCE_ACCURACY_VALUE','');
#106=(GEOMETRIC_REPRESENTATION_CONTEXT(3)GLOBAL_UNCERTAINTY_ASSIGNED_CONTEXT((#104))GLOBAL_UNIT_ASSIGNED_CONTEXT((#94,#98,#102))REPRESENTATION_CONTEXT('','3D'));
#107=CARTESIAN_POINT('',(28.600000000000001,0.0,66.700000000000017));
#108=DIRECTION('',(1.0,0.0,0.0));
#109=DIRECTION('',(0.0,0.0,-1.0));
#110=AXIS2_PLACEMENT_3D('',#107,#108,#109);
#111=PLANE('',#110);
#112=CARTESIAN_POINT('',(28.600000000000001,-3.174999999999999,66.700000000000017));
#113=VERTEX_POINT('',#112);
#114=CARTESIAN_POINT('',(28.600000000000001,0.0,66.700000000000017));
#115=DIRECTION('',(-1.0,0.0,0.0));
#116=DIRECTION('',(0.0,0.0,1.0));
#117=AXIS2_PLACEMENT_3D('',#114,#115,#116);
#118=CIRCLE('',#117,3.174999999999999);
#119=EDGE_CURVE('',#113,#113,#118,.T.);
#120=ORIENTED_EDGE('',*,*,#119,.F.);
#121=EDGE_LOOP('',(#120));
#122=FACE_OUTER_BOUND('',#121,.T.);
#123=CARTESIAN_POINT('',(28.600000000000001,2.798318E-016,64.41500000000002));
#124=VERTEX_POINT('',#123);
#125=CARTESIAN_POINT('',(28.600000000000001,0.0,66.700000000000017));
#126=DIRECTION('',(1.0,0.0,0.0));
#127=DIRECTION('',(0.0,0.0,1.0));
#128=AXIS2_PLACEMENT_3D('',#125,#126,#127);
#129=CIRCLE('',#128,2.284999999999999);
#130=EDGE_CURVE('',#124,#124,#129,.T.);
#131=ORIENTED_EDGE('',*,*,#130,.F.);
#132=EDGE_LOOP('',(#131));
#133=FACE_BOUND('',#132,.T.);
#134=ADVANCED_FACE('',(#122,#133),#111,.T.);
#135=CARTESIAN_POINT('',(14.299999999999997,0.0,66.700000000000017));
#136=DIRECTION('',(1.0,0.0,0.0));
#137=DIRECTION('',(0.0,0.0,1.0));
#138=AXIS2_PLACEMENT_3D('',#135,#136,#137);
#139=CYLINDRICAL_SURFACE('',#138,2.284999999999999);
#140=ORIENTED_EDGE('',*,*,#130,.T.);
#141=EDGE_LOOP('',(#140));
#142=FACE_OUTER_BOUND('',#141,.T.);
#143=CARTESIAN_POINT('',(14.299999999999997,2.798318E-016,64.415000000000035));
#144=VERTEX_POINT('',#143);
#145=CARTESIAN_POINT('',(14.299999999999997,0.0,66.700000000000017));
#146=DIRECTION('',(-1.0,0.0,0.0));
#147=DIRECTION('',(0.0,0.0,1.0));
#148=AXIS2_PLACEMENT_3D('',#145,#146,#147);
#149=CIRCLE('',#148,2.284999999999999);
#150=EDGE_CURVE('',#144,#144,#149,.T.);
#151=ORIENTED_EDGE('',*,*,#150,.T.);
#152=EDGE_LOOP('',(#151));
#153=FACE_BOUND('',#152,.T.);
#154=ADVANCED_FACE('',(#142,#153),#139,.F.);
#155=CARTESIAN_POINT('',(14.299999999999997,0.0,52.400000000000027));
#156=DIRECTION('',(0.0,1.0,0.0));
#157=DIRECTION('',(0.0,0.0,1.0));
#158=AXIS2_PLACEMENT_3D('',#155,#156,#157);
#159=TOROIDAL_SURFACE('',#158,14.299999999999997,2.284999999999999);
#160=ORIENTED_EDGE('',*,*,#150,.F.);
#161=EDGE_LOOP('',(#160));
#162=FACE_OUTER_BOUND('',#161,.T.);
#163=CARTESIAN_POINT('',(2.285,2.798318E-016,52.400000000000027));
#164=VERTEX_POINT('',#163);
#165=CARTESIAN_POINT('',(2.660915E-016,0.0,52.400000000000027));
#166=DIRECTION('',(0.0,0.0,-1.0));
#167=DIRECTION('',(-1.0,0.0,0.0));
#168=AXIS2_PLACEMENT_3D('',#165,#166,#167);
#169=CIRCLE('',#168,2.284999999999999);
#170=EDGE_CURVE('',#164,#164,#169,.T.);
#171=ORIENTED_EDGE('',*,*,#170,.T.);
#172=EDGE_LOOP('',(#171));
#173=FACE_BOUND('',#172,.T.);
#174=ADVANCED_FACE('',(#162,#173),#159,.F.);
#175=CARTESIAN_POINT('',(0.0,0.0,0.0));
#176=DIRECTION('',(5.078082E-018,0.0,1.0));
#177=DIRECTION('',(-1.0,0.0,0.0));
#178=AXIS2_PLACEMENT_3D('',#175,#176,#177);
#179=CYLINDRICAL_SURFACE('',#178,2.284999999999999);
#180=ORIENTED_EDGE('',*,*,#170,.F.);
#181=EDGE_LOOP('',(#180));
#182=FACE_OUTER_BOUND('',#181,.T.);
#183=CARTESIAN_POINT('',(2.284999999999999,2.798318E-016,0.0));
#184=VERTEX_POINT('',#183);
#185=CARTESIAN_POINT('',(0.0,0.0,0.0));
#186=DIRECTION('',(0.0,0.0,1.0));
#187=DIRECTION('',(-1.0,0.0,0.0));
#188=AXIS2_PLACEMENT_3D('',#185,#186,#187);
#189=CIRCLE('',#188,2.284999999999999);
#190=EDGE_CURVE('',#184,#184,#189,.T.);
#191=ORIENTED_EDGE('',*,*,#190,.F.);
#192=EDGE_LOOP('',(#191));
#193=FACE_BOUND('',#192,.T.);
#194=ADVANCED_FACE('',(#182,#193),#179,.F.);
#195=CARTESIAN_POINT('',(14.299999999999997,0.0,66.700000000000017));
#196=DIRECTION('',(1.0,0.0,0.0));
#197=DIRECTION('',(0.0,0.0,1.0));
#198=AXIS2_PLACEMENT_3D('',#195,#196,#197);
#199=CYLINDRICAL_SURFACE('',#198,3.174999999999999);
#200=ORIENTED_EDGE('',*,*,#119,.T.);
#201=EDGE_LOOP('',(#200));
#202=FACE_OUTER_BOUND('',#201,.T.);
#203=CARTESIAN_POINT('',(14.299999999999997,3.888254E-016,63.525000000000027));
#204=VERTEX_POINT('',#203);
#205=CARTESIAN_POINT('',(14.299999999999997,0.0,66.700000000000017));
#206=DIRECTION('',(-1.0,0.0,0.0));
#207=DIRECTION('',(0.0,0.0,1.0));
#208=AXIS2_PLACEMENT_3D('',#205,#206,#207);
#209=CIRCLE('',#208,3.174999999999999);
#210=EDGE_CURVE('',#204,#204,#209,.T.);
#211=ORIENTED_EDGE('',*,*,#210,.F.);
#212=EDGE_LOOP('',(#211));
#213=FACE_BOUND('',#212,.T.);
#214=ADVANCED_FACE('',(#202,#213),#199,.T.);
#215=CARTESIAN_POINT('',(14.299999999999997,0.0,52.400000000000027));
#216=DIRECTION('',(0.0,1.0,0.0));
#217=DIRECTION('',(0.0,0.0,1.0));
#218=AXIS2_PLACEMENT_3D('',#215,#216,#217);
#219=TOROIDAL_SURFACE('',#218,14.299999999999997,3.174999999999999);
#220=ORIENTED_EDGE('',*,*,#210,.T.);
#221=EDGE_LOOP('',(#220));
#222=FACE_OUTER_BOUND('',#221,.T.);
#223=CARTESIAN_POINT('',(3.174999999999999,3.888254E-016,52.400000000000027));
#224=VERTEX_POINT('',#223);
#225=CARTESIAN_POINT('',(2.660915E-016,0.0,52.400000000000027));
#226=DIRECTION('',(0.0,0.0,-1.0));
#227=DIRECTION('',(-1.0,0.0,0.0));
#228=AXIS2_PLACEMENT_3D('',#225,#226,#227);
#229=CIRCLE('',#228,3.174999999999999);
#230=EDGE_CURVE('',#224,#224,#229,.T.);
#231=ORIENTED_EDGE('',*,*,#230,.F.);
#232=EDGE_LOOP('',(#231));
#233=FACE_BOUND('',#232,.T.);
#234=ADVANCED_FACE('',(#222,#233),#219,.T.);
#235=CARTESIAN_POINT('',(0.0,0.0,0.0));
#236=DIRECTION('',(5.078082E-018,0.0,1.0));
#237=DIRECTION('',(-1.0,0.0,0.0));
#238=AXIS2_PLACEMENT_3D('',#235,#236,#237);
#239=CYLINDRICAL_SURFACE('',#238,3.174999999999999);
#240=ORIENTED_EDGE('',*,*,#230,.T.);
#241=EDGE_LOOP('',(#240));
#242=FACE_OUTER_BOUND('',#241,.T.);
#243=CARTESIAN_POINT('',(3.174999999999999,3.888254E-016,0.0));
#244=VERTEX_POINT('',#243);
#245=CARTESIAN_POINT('',(0.0,0.0,0.0));
#246=DIRECTION('',(0.0,0.0,-1.0));
#247=DIRECTION('',(-1.0,0.0,0.0));
#248=AXIS2_PLACEMENT_3D('',#245,#246,#247);
#249=CIRCLE('',#248,3.174999999999999);
#250=EDGE_CURVE('',#244,#244,#249,.T.);
#251=ORIENTED_EDGE('',*,*,#250,.F.);
#252=EDGE_LOOP('',(#251));
#253=FACE_BOUND('',#252,.T.);
#254=ADVANCED_FACE('',(#242,#253),#239,.T.);
#255=CARTESIAN_POINT('',(0.0,0.0,0.0));
#256=DIRECTION('',(0.0,0.0,-1.0));
#257=DIRECTION('',(-1.0,0.0,0.0));
#258=AXIS2_PLACEMENT_3D('',#255,#256,#257);
#259=PLANE('',#258);
#260=ORIENTED_EDGE('',*,*,#250,.T.);
#261=EDGE_LOOP('',(#260));
#262=FACE_OUTER_BOUND('',#261,.T.);
#263=ORIENTED_EDGE('',*,*,#190,.T.);
#264=EDGE_LOOP('',(#263));
#265=FACE_BOUND('',#264,.T.);
#266=ADVANCED_FACE('',(#262,#265),#259,.T.);
#267=CLOSED_SHELL('',(#134,#154,#174,#194,#214,#234,#254,#266));
#268=MANIFOLD_SOLID_BREP('',#267);
#269=COLOUR_RGB('',0.639216005802155,0.639216005802155,0.686275005340576);
#270=FILL_AREA_STYLE_COLOUR('',#269);
#271=FILL_AREA_STYLE('',(#270));
#272=SURFACE_STYLE_FILL_AREA(#271);
#273=SURFACE_SIDE_STYLE('',(#272));
#274=SURFACE_STYLE_USAGE(.BOTH.,#273);
#275=PRESENTATION_STYLE_ASSIGNMENT((#274));
#276=STYLED_ITEM('',(#275),#154);
#277=STYLED_ITEM('',(#275),#174);
#278=STYLED_ITEM('',(#275),#194);
#279=STYLED_ITEM('',(#275),#214);
#280=STYLED_ITEM('',(#275),#234);
#281=STYLED_ITEM('',(#275),#254);
#282=STYLED_ITEM('',(#275),#266);
#283=MECHANICAL_DESIGN_GEOMETRIC_PRESENTATION_REPRESENTATION('',(#276,#277,#278,#279,#280,#281,#282,#291,#666),#106);
#284=COLOUR_RGB('Metall - Stahl',0.639216005802155,0.639216005802155,0.686275005340576);
#285=FILL_AREA_STYLE_COLOUR('Metall - Stahl',#284);
#286=FILL_AREA_STYLE('Metall - Stahl',(#285));
#287=SURFACE_STYLE_FILL_AREA(#286);
#288=SURFACE_SIDE_STYLE('Metall - Stahl',(#287));
#289=SURFACE_STYLE_USAGE(.BOTH.,#288);
#290=PRESENTATION_STYLE_ASSIGNMENT((#289));
#291=STYLED_ITEM('',(#290),#268);
#292=ADVANCED_BREP_SHAPE_REPRESENTATION('ABSR',(#268),#75);
#293=SHAPE_REPRESENTATION_RELATIONSHIP('SRR','None',#292,#80);
#294=AXIS2_PLACEMENT_3D('',#295,#296,#297);
#295=CARTESIAN_POINT('',(0.0,0.0,0.0));
#296=DIRECTION('',(0.0,0.0,1.0));
#297=DIRECTION('',(1.0,0.0,0.0));
#298=NEXT_ASSEMBLY_USAGE_OCCURRENCE('N0001_001_001_04_1:1','N0001_001_001_04_1:1','N0001_001_001_04_1:1',#12,#51,'N0001_001_001_04_1:1');
#299=PRODUCT_DEFINITION_SHAPE('N0001_001_001_04_1:1','N0001_001_001_04_1:1',#298);
#300=ITEM_DEFINED_TRANSFORMATION('N0001_001_001_04_1:1','N0001_001_001_04_1:1',#76,#294);
#304=(REPRESENTATION_RELATIONSHIP('N0001_001_001_04_1:1','N0001_001_001_04_1:1',#80,#41)REPRESENTATION_RELATIONSHIP_WITH_TRANSFORMATION(#300)SHAPE_REPRESENTATION_RELATIONSHIP());
#305=CONTEXT_DEPENDENT_SHAPE_REPRESENTATION(#304,#299);
#306=APPLICATION_CONTEXT('configuration controlled 3D designs of mechanical parts and assemblies');
#307=APPLICATION_PROTOCOL_DEFINITION('International Standard','ap203_configuration_controlled_3d_design_of_mechanical_parts_and_assemblies_mim_lf',2004,#306);
#308=PRODUCT_CONTEXT('',#306,'mechanical');
#309=PRODUCT('N0003_003_001_06','N0003_003_001_06',$,(#308));
#310=PRODUCT_RELATED_PRODUCT_CATEGORY('part',$,(#309));
#311=PRODUCT_DEFINITION_FORMATION('',$,#309);
#312=PRODUCT_DEFINITION_CONTEXT('part definition',#306,'design');
#313=PRODUCT_DEFINITION('',$,#311,#312);
#319=(NAMED_UNIT(*)PLANE_ANGLE_UNIT()SI_UNIT($,.RADIAN.));
#320=DIMENSIONAL_EXPONENTS(0.0,0.0,0.0,0.0,0.0,0.0,0.0);
#321=PLANE_ANGLE_MEASURE_WITH_UNIT(PLANE_ANGLE_MEASURE(0.0174532925),#319);
#325=(CONVERSION_BASED_UNIT('DEGREE',#321)NAMED_UNIT(#320)PLANE_ANGLE_UNIT());
#329=(NAMED_UNIT(*)SI_UNIT($,.STERADIAN.)SOLID_ANGLE_UNIT());
#333=(LENGTH_UNIT()NAMED_UNIT(*)SI_UNIT(.MILLI.,.METRE.));
#335=UNCERTAINTY_MEASURE_WITH_UNIT(LENGTH_MEASURE(0.01),#333,'DISTANCE_ACCURACY_VALUE','');
#337=(GEOMETRIC_REPRESENTATION_CONTEXT(3)GLOBAL_UNCERTAINTY_ASSIGNED_CONTEXT((#335))GLOBAL_UNIT_ASSIGNED_CONTEXT((#325,#329,#333))REPRESENTATION_CONTEXT('None','None'));
#338=AXIS2_PLACEMENT_3D('',#339,#340,#341);
#339=CARTESIAN_POINT('',(0.0,0.0,0.0));
#340=DIRECTION('',(0.0,0.0,1.0));
#341=DIRECTION('',(1.0,0.0,0.0));
#342=SHAPE_REPRESENTATION('',(#338),#337);
#343=PRODUCT_DEFINITION_SHAPE('','',#313);
#344=SHAPE_DEFINITION_REPRESENTATION(#343,#342);
#350=(NAMED_UNIT(*)PLANE_ANGLE_UNIT()SI_UNIT($,.RADIAN.));
#351=DIMENSIONAL_EXPONENTS(0.0,0.0,0.0,0.0,0.0,0.0,0.0);
#352=PLANE_ANGLE_MEASURE_WITH_UNIT(PLANE_ANGLE_MEASURE(0.0174532925),#350);
#356=(CONVERSION_BASED_UNIT('DEGREE',#352)NAMED_UNIT(#351)PLANE_ANGLE_UNIT());
#360=(NAMED_UNIT(*)SI_UNIT($,.STERADIAN.)SOLID_ANGLE_UNIT());
#364=(LENGTH_UNIT()NAMED_UNIT(*)SI_UNIT(.MILLI.,.METRE.));
#366=UNCERTAINTY_MEASURE_WITH_UNIT(LENGTH_MEASURE(0.000001),#364,'DISTANCE_ACCURACY_VALUE','');
#368=(GEOMETRIC_REPRESENTATION_CONTEXT(3)GLOBAL_UNCERTAINTY_ASSIGNED_CONTEXT((#366))GLOBAL_UNIT_ASSIGNED_CONTEXT((#356,#360,#364))REPRESENTATION_CONTEXT('','3D'));
#369=CARTESIAN_POINT('',(2.730000000000004,12.699999999999998,0.0));
#370=DIRECTION('',(0.0,1.0,0.0));
#371=DIRECTION('',(0.0,0.0,1.0));
#372=AXIS2_PLACEMENT_3D('',#369,#370,#371);
#373=PLANE('',#372);
#374=CARTESIAN_POINT('',(3.175000000000004,12.699999999999998,0.0));
#375=VERTEX_POINT('',#374);
#376=CARTESIAN_POINT('',(0.0,12.699999999999998,0.0));
#377=DIRECTION('',(0.0,-1.0,0.0));
#378=DIRECTION('',(1.0,0.0,0.0));
#379=AXIS2_PLACEMENT_3D('',#376,#377,#378);
#380=CIRCLE('',#379,3.175000000000004);
#381=EDGE_CURVE('',#375,#375,#380,.T.);
#382=ORIENTED_EDGE('',*,*,#381,.F.);
#383=EDGE_LOOP('',(#382));
#384=FACE_OUTER_BOUND('',#383,.T.);
#385=CARTESIAN_POINT('',(2.285000000000004,12.699999999999998,0.0));
#386=VERTEX_POINT('',#385);
#387=CARTESIAN_POINT('',(0.0,12.699999999999998,0.0));
#388=DIRECTION('',(0.0,-1.0,0.0));
#389=DIRECTION('',(1.0,0.0,0.0));
#390=AXIS2_PLACEMENT_3D('',#387,#388,#389);
#391=CIRCLE('',#390,2.285000000000004);
#392=EDGE_CURVE('',#386,#386,#391,.T.);
#393=ORIENTED_EDGE('',*,*,#392,.T.);
#394=EDGE_LOOP('',(#393));
#395=FACE_BOUND('',#394,.T.);
#396=ADVANCED_FACE('',(#384,#395),#373,.T.);
#397=CARTESIAN_POINT('',(0.0,10.12709423255005,0.0));
#398=DIRECTION('',(0.0,-1.0,0.0));
#399=DIRECTION('',(1.0,0.0,0.0));
#400=AXIS2_PLACEMENT_3D('',#397,#398,#399);
#401=CYLINDRICAL_SURFACE('',#400,3.175000000000006);
#402=CARTESIAN_POINT('',(3.175000000000008,7.554188465100098,0.0));
#403=VERTEX_POINT('',#402);
#404=CARTESIAN_POINT('',(0.0,7.554188465100098,0.0));
#405=DIRECTION('',(0.0,-1.0,0.0));
#406=DIRECTION('',(1.0,0.0,0.0));
#407=AXIS2_PLACEMENT_3D('',#404,#405,#406);
#408=CIRCLE('',#407,3.175000000000008);
#409=EDGE_CURVE('',#403,#403,#408,.T.);
#410=ORIENTED_EDGE('',*,*,#409,.F.);
#411=EDGE_LOOP('',(#410));
#412=FACE_OUTER_BOUND('',#411,.T.);
#413=ORIENTED_EDGE('',*,*,#381,.T.);
#414=EDGE_LOOP('',(#413));
#415=FACE_BOUND('',#414,.T.);
#416=ADVANCED_FACE('',(#412,#415),#401,.T.);
#417=CARTESIAN_POINT('',(0.0,7.554188465100098,0.0));
#418=DIRECTION('',(0.0,-1.0,0.0));
#419=DIRECTION('',(0.0,0.0,-1.0));
#420=AXIS2_PLACEMENT_3D('',#417,#418,#419);
#421=TOROIDAL_SURFACE('',#420,3.975000000000007,0.8);
#422=CARTESIAN_POINT('',(3.701383885339472,6.802434368471372,0.0));
#423=VERTEX_POINT('',#422);
#424=CARTESIAN_POINT('',(0.0,6.802434368471372,0.0));
#425=DIRECTION('',(0.0,-1.0,0.0));
#426=DIRECTION('',(1.0,0.0,0.0));
#427=AXIS2_PLACEMENT_3D('',#424,#425,#426);
#428=CIRCLE('',#427,3.701383885339472);
#429=EDGE_CURVE('',#423,#423,#428,.T.);
#430=ORIENTED_EDGE('',*,*,#429,.F.);
#431=EDGE_LOOP('',(#430));
#432=FACE_OUTER_BOUND('',#431,.T.);
#433=ORIENTED_EDGE('',*,*,#409,.T.);
#434=EDGE_LOOP('',(#433));
#435=FACE_BOUND('',#434,.T.);
#436=ADVANCED_FACE('',(#432,#435),#421,.F.);
#437=CARTESIAN_POINT('',(0.0,5.297011217266165,0.0));
#438=DIRECTION('',(0.0,-1.0,0.0));
#439=DIRECTION('',(1.0,0.0,0.0));
#440=AXIS2_PLACEMENT_3D('',#437,#438,#439);
#441=CONICAL_SURFACE('',#440,7.837500000000002,70.000000000000014);
#442=CARTESIAN_POINT('',(11.973616114660533,3.791588066060959,0.0));
#443=VERTEX_POINT('',#442);
#444=CARTESIAN_POINT('',(0.0,3.791588066060959,0.0));
#445=DIRECTION('',(0.0,-1.0,0.0));
#446=DIRECTION('',(1.0,0.0,0.0));
#447=AXIS2_PLACEMENT_3D('',#444,#445,#446);
#448=CIRCLE('',#447,11.973616114660533);
#449=EDGE_CURVE('',#443,#443,#448,.T.);
#450=ORIENTED_EDGE('',*,*,#449,.F.);
#451=EDGE_LOOP('',(#450));
#452=FACE_OUTER_BOUND('',#451,.T.);
#453=ORIENTED_EDGE('',*,*,#429,.T.);
#454=EDGE_LOOP('',(#453));
#455=FACE_BOUND('',#454,.T.);
#456=ADVANCED_FACE('',(#452,#455),#441,.T.);
#457=CARTESIAN_POINT('',(0.0,3.039833969432233,0.0));
#458=DIRECTION('',(0.0,-1.0,0.0));
#459=DIRECTION('',(0.0,0.0,-1.0));
#460=AXIS2_PLACEMENT_3D('',#457,#458,#459);
#461=TOROIDAL_SURFACE('',#460,11.699999999999998,0.8);
#462=CARTESIAN_POINT('',(12.5,3.039833969432233,0.0));
#463=VERTEX_POINT('',#462);
#464=CARTESIAN_POINT('',(0.0,3.039833969432233,0.0));
#465=DIRECTION('',(0.0,-1.0,0.0));
#466=DIRECTION('',(1.0,0.0,0.0));
#467=AXIS2_PLACEMENT_3D('',#464,#465,#466);
#468=CIRCLE('',#467,12.5);
#469=EDGE_CURVE('',#463,#463,#468,.T.);
#470=ORIENTED_EDGE('',*,*,#469,.F.);
#471=EDGE_LOOP('',(#470));
#472=FACE_OUTER_BOUND('',#471,.T.);
#473=ORIENTED_EDGE('',*,*,#449,.T.);
#474=EDGE_LOOP('',(#473));
#475=FACE_BOUND('',#474,.T.);
#476=ADVANCED_FACE('',(#472,#475),#461,.T.);
#477=CARTESIAN_POINT('',(0.0,1.519916984716117,0.0));
#478=DIRECTION('',(0.0,-1.0,0.0));
#479=DIRECTION('',(1.0,0.0,0.0));
#480=AXIS2_PLACEMENT_3D('',#477,#478,#479);
#481=CYLINDRICAL_SURFACE('',#480,12.5);
#482=CARTESIAN_POINT('',(12.5,6.938894E-017,0.0));
#483=VERTEX_POINT('',#482);
#484=CARTESIAN_POINT('',(0.0,1.387779E-016,0.0));
#485=DIRECTION('',(0.0,-1.0,0.0));
#486=DIRECTION('',(1.0,0.0,0.0));
#487=AXIS2_PLACEMENT_3D('',#484,#485,#486);
#488=CIRCLE('',#487,12.5);
#489=EDGE_CURVE('',#483,#483,#488,.T.);
#490=ORIENTED_EDGE('',*,*,#489,.F.);
#491=EDGE_LOOP('',(#490));
#492=FACE_OUTER_BOUND('',#491,.T.);
#493=ORIENTED_EDGE('',*,*,#469,.T.);
#494=EDGE_LOOP('',(#493));
#495=FACE_BOUND('',#494,.T.);
#496=ADVANCED_FACE('',(#492,#495),#481,.T.);
#497=CARTESIAN_POINT('',(11.98,1.090599E-018,0.0));
#498=DIRECTION('',(0.0,-1.0,0.0));
#499=DIRECTION('',(0.0,0.0,-1.0));
#500=AXIS2_PLACEMENT_3D('',#497,#498,#499);
#501=PLANE('',#500);
#502=ORIENTED_EDGE('',*,*,#489,.T.);
#503=EDGE_LOOP('',(#502));
#504=FACE_OUTER_BOUND('',#503,.T.);
#505=CARTESIAN_POINT('',(11.460000000000001,-6.720774E-017,0.0));
#506=VERTEX_POINT('',#505);
#507=CARTESIAN_POINT('',(0.0,0.0,0.0));
#508=DIRECTION('',(0.0,-1.0,0.0));
#509=DIRECTION('',(1.0,0.0,0.0));
#510=AXIS2_PLACEMENT_3D('',#507,#508,#509);
#511=CIRCLE('',#510,11.460000000000001);
#512=EDGE_CURVE('',#506,#506,#511,.T.);
#513=ORIENTED_EDGE('',*,*,#512,.F.);
#514=EDGE_LOOP('',(#513));
#515=FACE_BOUND('',#514,.T.);
#516=ADVANCED_FACE('',(#504,#515),#501,.T.);
#517=CARTESIAN_POINT('',(0.0,0.5,0.0));
#518=DIRECTION('',(0.0,-1.0,0.0));
#519=DIRECTION('',(0.0,0.0,-1.0));
#520=AXIS2_PLACEMENT_3D('',#517,#518,#519);
#521=TOROIDAL_SURFACE('',#520,11.460000000000001,0.5);
#522=CARTESIAN_POINT('',(10.960000000000001,0.5,0.0));
#523=VERTEX_POINT('',#522);
#524=CARTESIAN_POINT('',(0.0,0.5,0.0));
#525=DIRECTION('',(0.0,-1.0,0.0));
#526=DIRECTION('',(1.0,0.0,0.0));
#527=AXIS2_PLACEMENT_3D('',#524,#525,#526);
#528=CIRCLE('',#527,10.960000000000001);
#529=EDGE_CURVE('',#523,#523,#528,.T.);
#530=ORIENTED_EDGE('',*,*,#529,.F.);
#531=EDGE_LOOP('',(#530));
#532=FACE_OUTER_BOUND('',#531,.T.);
#533=ORIENTED_EDGE('',*,*,#512,.T.);
#534=EDGE_LOOP('',(#533));
#535=FACE_BOUND('',#534,.T.);
#536=ADVANCED_FACE('',(#532,#535),#521,.T.);
#537=CARTESIAN_POINT('',(0.0,1.0,0.0));
#538=DIRECTION('',(0.0,-1.0,0.0));
#539=DIRECTION('',(1.0,0.0,0.0));
#540=AXIS2_PLACEMENT_3D('',#537,#538,#539);
#541=CYLINDRICAL_SURFACE('',#540,10.960000000000001);
#542=CARTESIAN_POINT('',(10.960000000000001,1.499999999999999,0.0));
#543=VERTEX_POINT('',#542);
#544=CARTESIAN_POINT('',(0.0,1.499999999999999,0.0));
#545=DIRECTION('',(0.0,-1.0,0.0));
#546=DIRECTION('',(1.0,0.0,0.0));
#547=AXIS2_PLACEMENT_3D('',#544,#545,#546);
#548=CIRCLE('',#547,10.960000000000001);
#549=EDGE_CURVE('',#543,#543,#548,.T.);
#550=ORIENTED_EDGE('',*,*,#549,.F.);
#551=EDGE_LOOP('',(#550));
#552=FACE_OUTER_BOUND('',#551,.T.);
#553=ORIENTED_EDGE('',*,*,#529,.T.);
#554=EDGE_LOOP('',(#553));
#555=FACE_BOUND('',#554,.T.);
#556=ADVANCED_FACE('',(#552,#555),#541,.F.);
#557=CARTESIAN_POINT('',(0.0,1.499999999999999,0.0));
#558=DIRECTION('',(0.0,-1.0,0.0));
#559=DIRECTION('',(0.0,0.0,-1.0));
#560=AXIS2_PLACEMENT_3D('',#557,#558,#559);
#561=TOROIDAL_SURFACE('',#560,10.16,0.8);
#562=CARTESIAN_POINT('',(9.504678364568806,1.958861149080837,0.0));
#563=VERTEX_POINT('',#562);
#564=CARTESIAN_POINT('',(0.0,1.958861149080837,0.0));
#565=DIRECTION('',(0.0,-1.0,0.0));
#566=DIRECTION('',(1.0,0.0,0.0));
#567=AXIS2_PLACEMENT_3D('',#564,#565,#566);
#568=CIRCLE('',#567,9.504678364568806);
#569=EDGE_CURVE('',#563,#563,#568,.T.);
#570=ORIENTED_EDGE('',*,*,#569,.F.);
#571=EDGE_LOOP('',(#570));
#572=FACE_OUTER_BOUND('',#571,.T.);
#573=ORIENTED_EDGE('',*,*,#549,.T.);
#574=EDGE_LOOP('',(#573));
#575=FACE_BOUND('',#574,.T.);
#576=ADVANCED_FACE('',(#572,#575),#561,.F.);
#577=CARTESIAN_POINT('',(0.0,1.486036465452657,0.0));
#578=DIRECTION('',(0.0,1.0,0.0));
#579=DIRECTION('',(1.0,0.0,0.0));
#580=AXIS2_PLACEMENT_3D('',#577,#578,#579);
#581=CONICAL_SURFACE('',#580,9.173602956840734,35.000000000000007);
#582=CARTESIAN_POINT('',(8.84252754911266,1.013211781824476,0.0));
#583=VERTEX_POINT('',#582);
#584=CARTESIAN_POINT('',(0.0,1.013211781824476,0.0));
#585=DIRECTION('',(0.0,-1.0,0.0));
#586=DIRECTION('',(1.0,0.0,0.0));
#587=AXIS2_PLACEMENT_3D('',#584,#585,#586);
#588=CIRCLE('',#587,8.84252754911266);
#589=EDGE_CURVE('',#583,#583,#588,.T.);
#590=ORIENTED_EDGE('',*,*,#589,.F.);
#591=EDGE_LOOP('',(#590));
#592=FACE_OUTER_BOUND('',#591,.T.);
#593=ORIENTED_EDGE('',*,*,#569,.T.);
#594=EDGE_LOOP('',(#593));
#595=FACE_BOUND('',#594,.T.);
#596=ADVANCED_FACE('',(#592,#595),#581,.T.);
#597=CARTESIAN_POINT('',(0.0,1.299999999999999,0.0));
#598=DIRECTION('',(0.0,-1.0,0.0));
#599=DIRECTION('',(0.0,0.0,-1.0));
#600=AXIS2_PLACEMENT_3D('',#597,#598,#599);
#601=TOROIDAL_SURFACE('',#600,8.432951526968164,0.5);
#602=CARTESIAN_POINT('',(8.432951526968164,0.8,0.0));
#603=VERTEX_POINT('',#602);
#604=CARTESIAN_POINT('',(0.0,0.8,0.0));
#605=DIRECTION('',(0.0,-1.0,0.0));
#606=DIRECTION('',(1.0,0.0,0.0));
#607=AXIS2_PLACEMENT_3D('',#604,#605,#606);
#608=CIRCLE('',#607,8.432951526968164);
#609=EDGE_CURVE('',#603,#603,#608,.T.);
#610=ORIENTED_EDGE('',*,*,#609,.F.);
#611=EDGE_LOOP('',(#610));
#612=FACE_OUTER_BOUND('',#611,.T.);
#613=ORIENTED_EDGE('',*,*,#589,.T.);
#614=EDGE_LOOP('',(#613));
#615=FACE_BOUND('',#614,.T.);
#616=ADVANCED_FACE('',(#612,#615),#601,.T.);
#617=CARTESIAN_POINT('',(5.358975763484086,0.8,0.0));
#618=DIRECTION('',(0.0,-1.0,0.0));
#619=DIRECTION('',(0.0,0.0,-1.0));
#620=AXIS2_PLACEMENT_3D('',#617,#618,#619);
#621=PLANE('',#620);
#622=ORIENTED_EDGE('',*,*,#609,.T.);
#623=EDGE_LOOP('',(#622));
#624=FACE_OUTER_BOUND('',#623,.T.);
#625=CARTESIAN_POINT('',(2.285000000000009,0.800000000000001,0.0));
#626=VERTEX_POINT('',#625);
#627=CARTESIAN_POINT('',(0.0,0.800000000000001,0.0));
#628=DIRECTION('',(0.0,-1.0,0.0));
#629=DIRECTION('',(1.0,0.0,0.0));
#630=AXIS2_PLACEMENT_3D('',#627,#628,#629);
#631=CIRCLE('',#630,2.285000000000009);
#632=EDGE_CURVE('',#626,#626,#631,.T.);
#633=ORIENTED_EDGE('',*,*,#632,.F.);
#634=EDGE_LOOP('',(#633));
#635=FACE_BOUND('',#634,.T.);
#636=ADVANCED_FACE('',(#624,#635),#621,.T.);
#637=CARTESIAN_POINT('',(0.0,6.749999999999999,0.0));
#638=DIRECTION('',(0.0,-1.0,0.0));
#639=DIRECTION('',(1.0,0.0,0.0));
#640=AXIS2_PLACEMENT_3D('',#637,#638,#639);
#641=CYLINDRICAL_SURFACE('',#640,2.285000000000006);
#642=ORIENTED_EDGE('',*,*,#392,.F.);
#643=EDGE_LOOP('',(#642));
#644=FACE_OUTER_BOUND('',#643,.T.);
#645=ORIENTED_EDGE('',*,*,#632,.T.);
#646=EDGE_LOOP('',(#645));
#647=FACE_BOUND('',#646,.T.);
#648=ADVANCED_FACE('',(#644,#647),#641,.F.);
#649=CLOSED_SHELL('',(#396,#416,#436,#456,#476,#496,#516,#536,#556,#576,#596,#616,#636,#648));
#650=MANIFOLD_SOLID_BREP('Volumenk\S\vrper1',#649);
#651=STYLED_ITEM('',(#275),#396);
#652=STYLED_ITEM('',(#275),#416);
#653=STYLED_ITEM('',(#275),#436);
#654=STYLED_ITEM('',(#275),#456);
#655=STYLED_ITEM('',(#275),#476);
#656=STYLED_ITEM('',(#275),#496);
#657=STYLED_ITEM('',(#275),#516);
#658=STYLED_ITEM('',(#275),#536);
#659=STYLED_ITEM('',(#275),#556);
#660=STYLED_ITEM('',(#275),#576);
#661=STYLED_ITEM('',(#275),#596);
#662=STYLED_ITEM('',(#275),#616);
#663=STYLED_ITEM('',(#275),#636);
#664=STYLED_ITEM('',(#275),#648);
#665=MECHANICAL_DESIGN_GEOMETRIC_PRESENTATION_REPRESENTATION('',(#651,#652,#653,#654,#655,#656,#657,#658,#659,#660,#661,#662,#663,#664),#368);
#666=STYLED_ITEM('',(#290),#650);
#667=ADVANCED_BREP_SHAPE_REPRESENTATION('ABSR',(#650),#337);
#668=SHAPE_REPRESENTATION_RELATIONSHIP('SRR','None',#667,#342);
#669=AXIS2_PLACEMENT_3D('',#670,#671,#672);
#670=CARTESIAN_POINT('',(41.299999999999997,2.936815E-015,66.700000000000031));
#671=DIRECTION('',(-1.104097E-015,0.361027976644002,0.932554985017147));
#672=DIRECTION('',(1.282158E-015,0.932554985017147,-0.361027976644002));
#673=NEXT_ASSEMBLY_USAGE_OCCURRENCE('N0003_003_001_06:1','N0003_003_001_06:1','N0003_003_001_06:1',#12,#313,'N0003_003_001_06:1');
#674=PRODUCT_DEFINITION_SHAPE('N0003_003_001_06:1','N0003_003_001_06:1',#673);
#675=ITEM_DEFINED_TRANSFORMATION('N0003_003_001_06:1','N0003_003_001_06:1',#338,#669);
#679=(REPRESENTATION_RELATIONSHIP('N0003_003_001_06:1','N0003_003_001_06:1',#342,#41)REPRESENTATION_RELATIONSHIP_WITH_TRANSFORMATION(#675)SHAPE_REPRESENTATION_RELATIONSHIP());
#680=CONTEXT_DEPENDENT_SHAPE_REPRESENTATION(#679,#674);
ENDSEC;
END-ISO-10303-21;
