ISO-10303-21;
HEADER;
FILE_DESCRIPTION (( 'STEP AP203' ),
    '1' );
FILE_NAME ('3D-M2102P_60.3x2_174114040.STEP',
    '2024-09-05T09:22:33',
    ( '' ),
    ( '' ),
    'SwSTEP 2.0',
    'SolidWorks 2024',
    '' );
FILE_SCHEMA (( 'CONFIG_CONTROL_DESIGN' ));
ENDSEC;

DATA;
#1 = DATE_AND_TIME ( #240, #327 ) ;
#2 = CIRCLE ( 'NONE', #86, 28.14999999999999858 ) ;
#3 = FACE_OUTER_BOUND ( 'NONE', #264, .T. ) ;
#4 = EDGE_LOOP ( 'NONE', ( #308, #108 ) ) ;
#5 = DIRECTION ( 'NONE',  ( -1.000000000000000000, -0.000000000000000000, -0.000000000000000000 ) ) ;
#6 = EDGE_CURVE ( 'NONE', #138, #404, #132, .T. ) ;
#7 = EDGE_LOOP ( 'NONE', ( #34, #173 ) ) ;
#8 = CARTESIAN_POINT ( 'NONE',  ( 12.00000000000000000, 0.000000000000000000, 0.000000000000000000 ) ) ;
#9 = EDGE_LOOP ( 'NONE', ( #376, #202 ) ) ;
#10 = APPROVAL ( #199, 'UNSPECIFIED' ) ;
#11 = DIRECTION ( 'NONE',  ( 0.000000000000000000, 0.000000000000000000, 1.000000000000000000 ) ) ;
#12 = DIRECTION ( 'NONE',  ( -0.000000000000000000, 0.000000000000000000, 1.000000000000000000 ) ) ;
#13 = EDGE_CURVE ( 'NONE', #400, #366, #225, .T. ) ;
#14 = CARTESIAN_POINT ( 'NONE',  ( 28.00000000000000355, 3.692310099429270397E-15, -30.14999999999999858 ) ) ;
#15 = DATE_AND_TIME ( #424, #176 ) ;
#16 = FACE_OUTER_BOUND ( 'NONE', #372, .T. ) ;
#17 = CIRCLE ( 'NONE', #73, 34.50000000000000000 ) ;
#18 = DIRECTION ( 'NONE',  ( 0.9659258262890678681, 3.169619151431780349E-17, 0.2588190451025220162 ) ) ;
#19 = ADVANCED_FACE ( 'NONE', ( #78 ), #339, .F. ) ;
#20 = CYLINDRICAL_SURFACE ( 'NONE', #72, 28.14999999999999858 ) ;
#21 = DIRECTION ( 'NONE',  ( -1.000000000000000000, -0.000000000000000000, -0.000000000000000000 ) ) ;
#22 = PRODUCT_DEFINITION ( 'UNKNOWN', '', #290, #178 ) ;
#23 = AXIS2_PLACEMENT_3D ( 'NONE', #292, #97, #322 ) ;
#24 = PERSON_AND_ORGANIZATION ( #365, #29 ) ;
#25 =( NAMED_UNIT ( * ) PLANE_ANGLE_UNIT ( ) SI_UNIT ( $, .RADIAN. ) );
#26 = DIRECTION ( 'NONE',  ( 0.000000000000000000, 0.000000000000000000, 1.000000000000000000 ) ) ;
#27 = CC_DESIGN_APPROVAL ( #99, ( #22 ) ) ;
#28 = DIRECTION ( 'NONE',  ( -1.000000000000000000, -0.000000000000000000, -0.000000000000000000 ) ) ;
#29 = ORGANIZATION ( 'UNSPECIFIED', 'UNSPECIFIED', '' ) ;
#30 = EDGE_CURVE ( 'NONE', #41, #338, #317, .T. ) ;
#31 = CALENDAR_DATE ( 2024, 5, 9 ) ;
#32 = ORIENTED_EDGE ( 'NONE', *, *, #293, .T. ) ;
#33 = DATE_TIME_ROLE ( 'classification_date' ) ;
#34 = ORIENTED_EDGE ( 'NONE', *, *, #30, .F. ) ;
#35 = CARTESIAN_POINT ( 'NONE',  ( -16.64708581120227038, 0.000000000000000000, 0.000000000000000000 ) ) ;
#36 = EDGE_LOOP ( 'NONE', ( #313, #139, #201, #105 ) ) ;
#37 = ORIENTED_EDGE ( 'NONE', *, *, #249, .F. ) ;
#38 = CARTESIAN_POINT ( 'NONE',  ( 12.00000000000000000, 0.000000000000000000, 0.000000000000000000 ) ) ;
#39 = ORIENTED_EDGE ( 'NONE', *, *, #13, .F. ) ;
#40 = CARTESIAN_POINT ( 'NONE',  ( 0.000000000000000000, 0.000000000000000000, 25.00000000000000000 ) ) ;
#41 = VERTEX_POINT ( 'NONE', #76 ) ;
#42 = CC_DESIGN_DATE_AND_TIME_ASSIGNMENT ( #15, #33, ( #227 ) ) ;
#43 = DIRECTION ( 'NONE',  ( -1.000000000000000000, -0.000000000000000000, -0.000000000000000000 ) ) ;
#44 = ORIENTED_EDGE ( 'NONE', *, *, #377, .F. ) ;
#45 = CARTESIAN_POINT ( 'NONE',  ( -16.64708581120227038, 3.061616997868383043E-15, -25.00000000000000000 ) ) ;
#46 = AXIS2_PLACEMENT_3D ( 'NONE', #251, #416, #213 ) ;
#47 = CC_DESIGN_SECURITY_CLASSIFICATION ( #227, ( #290 ) ) ;
#48 = ADVANCED_FACE ( 'NONE', ( #398 ), #343, .F. ) ;
#49 = CARTESIAN_POINT ( 'NONE',  ( 12.00000000000000000, 0.000000000000000000, 0.000000000000000000 ) ) ;
#50 = CARTESIAN_POINT ( 'NONE',  ( 12.00000000000000000, 4.225031457058368922E-15, 34.50000000000000000 ) ) ;
#51 = DIRECTION ( 'NONE',  ( 0.000000000000000000, 0.000000000000000000, -1.000000000000000000 ) ) ;
#52 = ADVANCED_FACE ( 'NONE', ( #3 ), #346, .T. ) ;
#53 = CIRCLE ( 'NONE', #183, 25.00000000000000000 ) ;
#54 = VECTOR ( 'NONE', #84, 1000.000000000000114 ) ;
#55 = CARTESIAN_POINT ( 'NONE',  ( 1.000000000000000888, 0.000000000000000000, 0.000000000000000000 ) ) ;
#56 = DIRECTION ( 'NONE',  ( -1.000000000000000000, 0.000000000000000000, -0.000000000000000000 ) ) ;
#57 = COORDINATED_UNIVERSAL_TIME_OFFSET ( 1, 0, .AHEAD. ) ;
#58 = PERSON_AND_ORGANIZATION_ROLE ( 'creator' ) ;
#59 = VECTOR ( 'NONE', #28, 1000.000000000000000 ) ;
#60 = CARTESIAN_POINT ( 'NONE',  ( -16.64708581120227038, 0.000000000000000000, 28.14999999999999858 ) ) ;
#61 = PERSON_AND_ORGANIZATION ( #365, #29 ) ;
#62 = DIRECTION ( 'NONE',  ( -1.000000000000000000, -0.000000000000000000, -0.000000000000000000 ) ) ;
#63 = ORIENTED_EDGE ( 'NONE', *, *, #254, .T. ) ;
#64 = EDGE_CURVE ( 'NONE', #361, #366, #241, .T. ) ;
#65 = AXIS2_PLACEMENT_3D ( 'NONE', #371, #278, #247 ) ;
#66 = DATE_AND_TIME ( #31, #169 ) ;
#67 = CC_DESIGN_PERSON_AND_ORGANIZATION_ASSIGNMENT ( #61, #194, ( #290 ) ) ;
#68 = DIRECTION ( 'NONE',  ( 0.000000000000000000, 0.000000000000000000, 1.000000000000000000 ) ) ;
#69 = EDGE_LOOP ( 'NONE', ( #300, #272, #246, #386 ) ) ;
#70 = FACE_OUTER_BOUND ( 'NONE', #429, .T. ) ;
#71 = SHAPE_DEFINITION_REPRESENTATION ( #276, #112 ) ;
#72 = AXIS2_PLACEMENT_3D ( 'NONE', #382, #285, #288 ) ;
#73 = AXIS2_PLACEMENT_3D ( 'NONE', #146, #280, #410 ) ;
#74 = DIRECTION ( 'NONE',  ( -1.000000000000000000, -0.000000000000000000, -0.000000000000000000 ) ) ;
#75 = ORIENTED_EDGE ( 'NONE', *, *, #64, .F. ) ;
#76 = CARTESIAN_POINT ( 'NONE',  ( 12.00000000000000000, 0.000000000000000000, -34.50000000000000000 ) ) ;
#77 = VERTEX_POINT ( 'NONE', #174 ) ;
#78 = FACE_OUTER_BOUND ( 'NONE', #69, .T. ) ;
#79 = EDGE_CURVE ( 'NONE', #361, #90, #283, .T. ) ;
#80 = DIRECTION ( 'NONE',  ( -1.000000000000000000, -0.000000000000000000, -0.000000000000000000 ) ) ;
#81 = DIRECTION ( 'NONE',  ( 0.000000000000000000, 0.000000000000000000, 1.000000000000000000 ) ) ;
#82 = VERTEX_POINT ( 'NONE', #40 ) ;
#83 = EDGE_CURVE ( 'NONE', #90, #163, #106, .T. ) ;
#84 = DIRECTION ( 'NONE',  ( 0.9659258262890678681, 0.000000000000000000, -0.2588190451025220162 ) ) ;
#85 = FACE_OUTER_BOUND ( 'NONE', #394, .T. ) ;
#86 = AXIS2_PLACEMENT_3D ( 'NONE', #403, #142, #406 ) ;
#87 = PERSON_AND_ORGANIZATION ( #365, #29 ) ;
#88 = FACE_BOUND ( 'NONE', #335, .T. ) ;
#89 = LINE ( 'NONE', #359, #381 ) ;
#90 = VERTEX_POINT ( 'NONE', #401 ) ;
#91 = ADVANCED_FACE ( 'NONE', ( #273 ), #378, .F. ) ;
#92 = CALENDAR_DATE ( 2024, 5, 9 ) ;
#93 = APPROVAL_PERSON_ORGANIZATION ( #426, #99, #355 ) ;
#94 = EDGE_CURVE ( 'NONE', #163, #82, #159, .T. ) ;
#95 =( LENGTH_UNIT ( ) NAMED_UNIT ( * ) SI_UNIT ( .MILLI., .METRE. ) );
#96 = ORIENTED_EDGE ( 'NONE', *, *, #262, .F. ) ;
#97 = DIRECTION ( 'NONE',  ( -1.000000000000000000, -0.000000000000000000, -0.000000000000000000 ) ) ;
#98 = ORIENTED_EDGE ( 'NONE', *, *, #417, .T. ) ;
#99 = APPROVAL ( #224, 'UNSPECIFIED' ) ;
#100 = VECTOR ( 'NONE', #118, 1000.000000000000000 ) ;
#101 = APPROVAL_PERSON_ORGANIZATION ( #370, #154, #301 ) ;
#102 = APPROVAL_DATE_TIME ( #126, #99 ) ;
#103 = VERTEX_POINT ( 'NONE', #303 ) ;
#104 = DIRECTION ( 'NONE',  ( -1.000000000000000000, -0.000000000000000000, -0.000000000000000000 ) ) ;
#105 = ORIENTED_EDGE ( 'NONE', *, *, #397, .F. ) ;
#106 = LINE ( 'NONE', #45, #388 ) ;
#107 = DIRECTION ( 'NONE',  ( 0.000000000000000000, 0.000000000000000000, 1.000000000000000000 ) ) ;
#108 = ORIENTED_EDGE ( 'NONE', *, *, #94, .F. ) ;
#109 = LINE ( 'NONE', #245, #115 ) ;
#110 = ORIENTED_EDGE ( 'NONE', *, *, #6, .F. ) ;
#111 = CARTESIAN_POINT ( 'NONE',  ( 0.000000000000000000, 0.000000000000000000, 0.000000000000000000 ) ) ;
#112 = ADVANCED_BREP_SHAPE_REPRESENTATION ( '3D-M2102P_60.3x2_174114040', ( #396, #333 ), #350 ) ;
#113 = FACE_OUTER_BOUND ( 'NONE', #299, .T. ) ;
#114 = FACE_OUTER_BOUND ( 'NONE', #291, .T. ) ;
#115 = VECTOR ( 'NONE', #216, 1000.000000000000000 ) ;
#116 = AXIS2_PLACEMENT_3D ( 'NONE', #49, #179, #348 ) ;
#117 = CARTESIAN_POINT ( 'NONE',  ( 1.000000000000000888, 0.000000000000000000, 0.000000000000000000 ) ) ;
#118 = DIRECTION ( 'NONE',  ( -1.000000000000000000, -0.000000000000000000, -0.000000000000000000 ) ) ;
#119 = CARTESIAN_POINT ( 'NONE',  ( 12.00000000000000000, 0.000000000000000000, -34.50000000000000000 ) ) ;
#120 = EDGE_CURVE ( 'NONE', #82, #163, #266, .T. ) ;
#121 = ORIENTED_EDGE ( 'NONE', *, *, #120, .T. ) ;
#122 = APPROVAL_DATE_TIME ( #184, #10 ) ;
#123 = CARTESIAN_POINT ( 'NONE',  ( 28.00000000000000355, 0.000000000000000000, 0.000000000000000000 ) ) ;
#124 = ADVANCED_FACE ( 'NONE', ( #70 ), #217, .T. ) ;
#125 = CONICAL_SURFACE ( 'NONE', #168, 25.00000000000000000, 0.1205662369238367504 ) ;
#126 = DATE_AND_TIME ( #92, #220 ) ;
#127 = ORIENTED_EDGE ( 'NONE', *, *, #358, .F. ) ;
#128 = ORIENTED_EDGE ( 'NONE', *, *, #64, .T. ) ;
#129 = APPROVAL_ROLE ( '' ) ;
#130 = ORIENTED_EDGE ( 'NONE', *, *, #344, .F. ) ;
#131 = CARTESIAN_POINT ( 'NONE',  ( 27.00000000000000355, 0.000000000000000000, 0.000000000000000000 ) ) ;
#132 = CIRCLE ( 'NONE', #188, 31.28460969082651033 ) ;
#133 = ORIENTED_EDGE ( 'NONE', *, *, #377, .T. ) ;
#134 = CIRCLE ( 'NONE', #46, 31.28460969082651033 ) ;
#135 = CIRCLE ( 'NONE', #191, 28.14999999999999858 ) ;
#136 = EDGE_CURVE ( 'NONE', #103, #400, #205, .T. ) ;
#137 = DIRECTION ( 'NONE',  ( 0.000000000000000000, 0.000000000000000000, 1.000000000000000000 ) ) ;
#138 = VERTEX_POINT ( 'NONE', #170 ) ;
#139 = ORIENTED_EDGE ( 'NONE', *, *, #358, .T. ) ;
#140 = CARTESIAN_POINT ( 'NONE',  ( -16.64708581120227038, 0.000000000000000000, 0.000000000000000000 ) ) ;
#141 = ORIENTED_EDGE ( 'NONE', *, *, #353, .F. ) ;
#142 = DIRECTION ( 'NONE',  ( -1.000000000000000000, -0.000000000000000000, -0.000000000000000000 ) ) ;
#143 = ORIENTED_EDGE ( 'NONE', *, *, #79, .T. ) ;
#144 = EDGE_CURVE ( 'NONE', #356, #103, #2, .T. ) ;
#145 = DIRECTION ( 'NONE',  ( -1.000000000000000000, -0.000000000000000000, -0.000000000000000000 ) ) ;
#146 = CARTESIAN_POINT ( 'NONE',  ( 12.00000000000000000, 0.000000000000000000, 0.000000000000000000 ) ) ;
#147 = DIRECTION ( 'NONE',  ( -1.000000000000000000, -0.000000000000000000, -0.000000000000000000 ) ) ;
#148 = FACE_OUTER_BOUND ( 'NONE', #369, .T. ) ;
#149 = CIRCLE ( 'NONE', #364, 30.14999999999999858 ) ;
#150 = DIRECTION ( 'NONE',  ( -0.000000000000000000, 0.000000000000000000, 1.000000000000000000 ) ) ;
#151 = FACE_BOUND ( 'NONE', #4, .T. ) ;
#152 = EDGE_CURVE ( 'NONE', #294, #77, #109, .T. ) ;
#153 = FACE_OUTER_BOUND ( 'NONE', #36, .T. ) ;
#154 = APPROVAL ( #234, 'UNSPECIFIED' ) ;
#155 = DIRECTION ( 'NONE',  ( 1.000000000000000000, 0.000000000000000000, 0.000000000000000000 ) ) ;
#156 = ADVANCED_FACE ( 'NONE', ( #85 ), #289, .F. ) ;
#157 = APPLICATION_PROTOCOL_DEFINITION ( 'international standard', 'config_control_design', 1994, #243 ) ;
#158 = PERSON_AND_ORGANIZATION_ROLE ( 'classification_officer' ) ;
#159 = CIRCLE ( 'NONE', #413, 25.00000000000000000 ) ;
#160 = CIRCLE ( 'NONE', #375, 30.14999999999999858 ) ;
#161 =( NAMED_UNIT ( * ) SI_UNIT ( $, .STERADIAN. ) SOLID_ANGLE_UNIT ( ) );
#162 = PERSON_AND_ORGANIZATION ( #365, #29 ) ;
#163 = VERTEX_POINT ( 'NONE', #349 ) ;
#164 = ADVANCED_FACE ( 'NONE', ( #151, #148 ), #248, .F. ) ;
#165 = DIRECTION ( 'NONE',  ( 0.9927406912262276562, 1.472936013909467794E-17, 0.1202743529754851243 ) ) ;
#166 = ORIENTED_EDGE ( 'NONE', *, *, #397, .T. ) ;
#167 = PRODUCT ( '3D-M2102P_60.3x2_174114040', '3D-M2102P_60.3x2_174114040', '', ( #258 ) ) ;
#168 = AXIS2_PLACEMENT_3D ( 'NONE', #117, #252, #314 ) ;
#169 = LOCAL_TIME ( 11, 22, 33.00000000000000000, #235 ) ;
#170 = CARTESIAN_POINT ( 'NONE',  ( -3.469446951953614189E-15, 4.028145584551432188E-15, 31.28460969082651033 ) ) ;
#171 = COORDINATED_UNIVERSAL_TIME_OFFSET ( 1, 0, .AHEAD. ) ;
#172 = CARTESIAN_POINT ( 'NONE',  ( -16.64708581120227038, 3.447380739599799311E-15, -28.14999999999999858 ) ) ;
#173 = ORIENTED_EDGE ( 'NONE', *, *, #293, .F. ) ;
#174 = CARTESIAN_POINT ( 'NONE',  ( 12.00000000000000000, 0.000000000000000000, 30.14999999999999858 ) ) ;
#175 = ORIENTED_EDGE ( 'NONE', *, *, #368, .F. ) ;
#176 = LOCAL_TIME ( 11, 22, 33.00000000000000000, #193 ) ;
#177 = DIRECTION ( 'NONE',  ( -1.000000000000000000, -0.000000000000000000, -0.000000000000000000 ) ) ;
#178 = DESIGN_CONTEXT ( 'detailed design', #243, 'design' ) ;
#179 = DIRECTION ( 'NONE',  ( 1.000000000000000000, 0.000000000000000000, 0.000000000000000000 ) ) ;
#180 = DIRECTION ( 'NONE',  ( 1.000000000000000000, 0.000000000000000000, 0.000000000000000000 ) ) ;
#181 = AXIS2_PLACEMENT_3D ( 'NONE', #35, #104, #137 ) ;
#182 = PLANE ( 'NONE',  #259 ) ;
#183 = AXIS2_PLACEMENT_3D ( 'NONE', #185, #147, #81 ) ;
#184 = DATE_AND_TIME ( #263, #414 ) ;
#185 = CARTESIAN_POINT ( 'NONE',  ( 1.000000000000000888, 0.000000000000000000, 0.000000000000000000 ) ) ;
#186 = ADVANCED_FACE ( 'NONE', ( #16 ), #20, .F. ) ;
#187 = CARTESIAN_POINT ( 'NONE',  ( 28.00000000000000355, 0.000000000000000000, 0.000000000000000000 ) ) ;
#188 = AXIS2_PLACEMENT_3D ( 'NONE', #203, #43, #107 ) ;
#189 = CYLINDRICAL_SURFACE ( 'NONE', #250, 30.14999999999999858 ) ;
#190 = AXIS2_PLACEMENT_3D ( 'NONE', #140, #177, #409 ) ;
#191 = AXIS2_PLACEMENT_3D ( 'NONE', #380, #80, #347 ) ;
#192 = CARTESIAN_POINT ( 'NONE',  ( 27.00000000000000355, 0.000000000000000000, 28.14999999999999858 ) ) ;
#193 = COORDINATED_UNIVERSAL_TIME_OFFSET ( 1, 0, .AHEAD. ) ;
#194 = PERSON_AND_ORGANIZATION_ROLE ( 'design_supplier' ) ;
#195 = PERSON_AND_ORGANIZATION_ROLE ( 'design_owner' ) ;
#196 = CC_DESIGN_PERSON_AND_ORGANIZATION_ASSIGNMENT ( #395, #427, ( #22 ) ) ;
#197 = CARTESIAN_POINT ( 'NONE',  ( 12.00000000000000000, 0.000000000000000000, 0.000000000000000000 ) ) ;
#198 = VECTOR ( 'NONE', #18, 1000.000000000000114 ) ;
#199 = APPROVAL_STATUS ( 'not_yet_approved' ) ;
#200 = EDGE_CURVE ( 'NONE', #404, #138, #134, .T. ) ;
#201 = ORIENTED_EDGE ( 'NONE', *, *, #152, .T. ) ;
#202 = ORIENTED_EDGE ( 'NONE', *, *, #324, .T. ) ;
#203 = CARTESIAN_POINT ( 'NONE',  ( -3.469446951953614189E-15, 0.000000000000000000, 0.000000000000000000 ) ) ;
#204 = AXIS2_PLACEMENT_3D ( 'NONE', #320, #180, #51 ) ;
#205 = LINE ( 'NONE', #172, #325 ) ;
#206 = ORIENTED_EDGE ( 'NONE', *, *, #83, .F. ) ;
#207 = CARTESIAN_POINT ( 'NONE',  ( 1.000000000000000888, 0.000000000000000000, 0.000000000000000000 ) ) ;
#208 = ORIENTED_EDGE ( 'NONE', *, *, #94, .T. ) ;
#209 = DIRECTION ( 'NONE',  ( 0.000000000000000000, 0.000000000000000000, 1.000000000000000000 ) ) ;
#210 = ORIENTED_EDGE ( 'NONE', *, *, #152, .F. ) ;
#211 = APPLICATION_CONTEXT ( 'configuration controlled 3d designs of mechanical parts and assemblies' ) ;
#212 = VECTOR ( 'NONE', #165, 1000.000000000000114 ) ;
#213 = DIRECTION ( 'NONE',  ( 0.000000000000000000, 0.000000000000000000, 1.000000000000000000 ) ) ;
#214 = EDGE_CURVE ( 'NONE', #361, #82, #312, .T. ) ;
#215 = CARTESIAN_POINT ( 'NONE',  ( 12.00000000000000000, 30.14999999999999858, 0.000000000000000000 ) ) ;
#216 = DIRECTION ( 'NONE',  ( -1.000000000000000000, -0.000000000000000000, -0.000000000000000000 ) ) ;
#217 = CONICAL_SURFACE ( 'NONE', #275, 34.50000000000000000, 0.2617993877991507956 ) ;
#218 = FACE_OUTER_BOUND ( 'NONE', #261, .T. ) ;
#219 = ADVANCED_FACE ( 'NONE', ( #218 ), #125, .F. ) ;
#220 = LOCAL_TIME ( 11, 22, 33.00000000000000000, #57 ) ;
#221 = CIRCLE ( 'NONE', #305, 30.14999999999999858 ) ;
#222 = CARTESIAN_POINT ( 'NONE',  ( -16.64708581120227038, 3.692310099429270397E-15, -30.14999999999999858 ) ) ;
#223 = CC_DESIGN_PERSON_AND_ORGANIZATION_ASSIGNMENT ( #87, #58, ( #290 ) ) ;
#224 = APPROVAL_STATUS ( 'not_yet_approved' ) ;
#225 = CIRCLE ( 'NONE', #282, 28.14999999999999858 ) ;
#226 = DIRECTION ( 'NONE',  ( 0.9927406912262276562, 0.000000000000000000, -0.1202743529754851243 ) ) ;
#227 = SECURITY_CLASSIFICATION ( '', '', #253 ) ;
#228 = APPLICATION_PROTOCOL_DEFINITION ( 'international standard', 'config_control_design', 1994, #211 ) ;
#229 = DIRECTION ( 'NONE',  ( -1.000000000000000000, -0.000000000000000000, -0.000000000000000000 ) ) ;
#230 = EDGE_LOOP ( 'NONE', ( #268, #408, #208, #321 ) ) ;
#231 = CARTESIAN_POINT ( 'NONE',  ( 0.000000000000000000, 0.000000000000000000, 0.000000000000000000 ) ) ;
#232 = EDGE_CURVE ( 'NONE', #242, #354, #351, .T. ) ;
#233 = ORIENTED_EDGE ( 'NONE', *, *, #136, .F. ) ;
#234 = APPROVAL_STATUS ( 'not_yet_approved' ) ;
#235 = COORDINATED_UNIVERSAL_TIME_OFFSET ( 1, 0, .AHEAD. ) ;
#236 = EDGE_LOOP ( 'NONE', ( #206, #342, #269, #121 ) ) ;
#237 = CARTESIAN_POINT ( 'NONE',  ( -16.64708581120227038, 0.000000000000000000, 0.000000000000000000 ) ) ;
#238 = ORIENTED_EDGE ( 'NONE', *, *, #232, .T. ) ;
#239 = DIRECTION ( 'NONE',  ( 0.000000000000000000, 0.000000000000000000, 1.000000000000000000 ) ) ;
#240 = CALENDAR_DATE ( 2024, 5, 9 ) ;
#241 = LINE ( 'NONE', #270, #212 ) ;
#242 = VERTEX_POINT ( 'NONE', #14 ) ;
#243 = APPLICATION_CONTEXT ( 'configuration controlled 3d designs of mechanical parts and assemblies' ) ;
#244 = CIRCLE ( 'NONE', #23, 28.14999999999999858 ) ;
#245 = CARTESIAN_POINT ( 'NONE',  ( -16.64708581120227038, 0.000000000000000000, 30.14999999999999858 ) ) ;
#246 = ORIENTED_EDGE ( 'NONE', *, *, #13, .T. ) ;
#247 = DIRECTION ( 'NONE',  ( 0.000000000000000000, 0.000000000000000000, 1.000000000000000000 ) ) ;
#248 = PLANE ( 'NONE',  #204 ) ;
#249 = EDGE_CURVE ( 'NONE', #138, #338, #383, .T. ) ;
#250 = AXIS2_PLACEMENT_3D ( 'NONE', #387, #326, #357 ) ;
#251 = CARTESIAN_POINT ( 'NONE',  ( -3.469446951953614189E-15, 0.000000000000000000, 0.000000000000000000 ) ) ;
#252 = DIRECTION ( 'NONE',  ( 1.000000000000000000, 0.000000000000000000, 0.000000000000000000 ) ) ;
#253 = SECURITY_CLASSIFICATION_LEVEL ( 'unclassified' ) ;
#254 = EDGE_CURVE ( 'NONE', #90, #361, #53, .T. ) ;
#255 = DIRECTION ( 'NONE',  ( 1.000000000000000000, 0.000000000000000000, 0.000000000000000000 ) ) ;
#256 = FACE_BOUND ( 'NONE', #9, .T. ) ;
#257 = AXIS2_PLACEMENT_3D ( 'NONE', #123, #62, #26 ) ;
#258 = MECHANICAL_CONTEXT ( 'NONE', #211, 'mechanical' ) ;
#259 = AXIS2_PLACEMENT_3D ( 'NONE', #385, #318, #150 ) ;
#260 = CARTESIAN_POINT ( 'NONE',  ( 1.000000000000000888, 3.254498868734091374E-15, 25.00000000000000000 ) ) ;
#261 = EDGE_LOOP ( 'NONE', ( #75, #143, #298, #44 ) ) ;
#262 = EDGE_CURVE ( 'NONE', #404, #41, #418, .T. ) ;
#263 = CALENDAR_DATE ( 2024, 5, 9 ) ;
#264 = EDGE_LOOP ( 'NONE', ( #336, #238, #141, #210 ) ) ;
#265 = DIRECTION ( 'NONE',  ( -1.000000000000000000, -0.000000000000000000, -0.000000000000000000 ) ) ;
#266 = CIRCLE ( 'NONE', #65, 25.00000000000000000 ) ;
#267 = CIRCLE ( 'NONE', #257, 30.14999999999999858 ) ;
#268 = ORIENTED_EDGE ( 'NONE', *, *, #254, .F. ) ;
#269 = ORIENTED_EDGE ( 'NONE', *, *, #214, .T. ) ;
#270 = CARTESIAN_POINT ( 'NONE',  ( 1.000000000000000888, 3.061616997868383043E-15, 25.00000000000000000 ) ) ;
#271 = DIRECTION ( 'NONE',  ( 1.000000000000000000, 0.000000000000000000, 0.000000000000000000 ) ) ;
#272 = ORIENTED_EDGE ( 'NONE', *, *, #136, .T. ) ;
#273 = FACE_OUTER_BOUND ( 'NONE', #230, .T. ) ;
#274 = ORIENTED_EDGE ( 'NONE', *, *, #200, .F. ) ;
#275 = AXIS2_PLACEMENT_3D ( 'NONE', #38, #271, #341 ) ;
#276 = PRODUCT_DEFINITION_SHAPE ( 'NONE', 'NONE',  #22 ) ;
#277 = CC_DESIGN_APPROVAL ( #154, ( #227 ) ) ;
#278 = DIRECTION ( 'NONE',  ( -1.000000000000000000, -0.000000000000000000, -0.000000000000000000 ) ) ;
#279 = ADVANCED_FACE ( 'NONE', ( #113, #256 ), #182, .F. ) ;
#280 = DIRECTION ( 'NONE',  ( -1.000000000000000000, -0.000000000000000000, -0.000000000000000000 ) ) ;
#281 = CARTESIAN_POINT ( 'NONE',  ( -16.64708581120227038, 0.000000000000000000, 25.00000000000000000 ) ) ;
#282 = AXIS2_PLACEMENT_3D ( 'NONE', #131, #428, #337 ) ;
#283 = CIRCLE ( 'NONE', #332, 25.00000000000000000 ) ;
#284 = APPROVAL_PERSON_ORGANIZATION ( #162, #10, #129 ) ;
#285 = DIRECTION ( 'NONE',  ( -1.000000000000000000, -0.000000000000000000, -0.000000000000000000 ) ) ;
#286 = ADVANCED_FACE ( 'NONE', ( #287, #88 ), #352, .F. ) ;
#287 = FACE_OUTER_BOUND ( 'NONE', #7, .T. ) ;
#288 = DIRECTION ( 'NONE',  ( 0.000000000000000000, 0.000000000000000000, 1.000000000000000000 ) ) ;
#289 = CONICAL_SURFACE ( 'NONE', #420, 25.00000000000000000, 0.1205662369238367504 ) ;
#290 = PRODUCT_DEFINITION_FORMATION_WITH_SPECIFIED_SOURCE ( 'ANY', '', #167, .NOT_KNOWN. ) ;
#291 = EDGE_LOOP ( 'NONE', ( #37, #274, #422, #411 ) ) ;
#292 = CARTESIAN_POINT ( 'NONE',  ( 27.00000000000000355, 0.000000000000000000, 0.000000000000000000 ) ) ;
#293 = EDGE_CURVE ( 'NONE', #338, #41, #17, .T. ) ;
#294 = VERTEX_POINT ( 'NONE', #412 ) ;
#295 = DIRECTION ( 'NONE',  ( 0.000000000000000000, 0.000000000000000000, 1.000000000000000000 ) ) ;
#296 = LINE ( 'NONE', #60, #59 ) ;
#297 = COORDINATED_UNIVERSAL_TIME_OFFSET ( 1, 0, .AHEAD. ) ;
#298 = ORIENTED_EDGE ( 'NONE', *, *, #344, .T. ) ;
#299 = EDGE_LOOP ( 'NONE', ( #175, #127 ) ) ;
#300 = ORIENTED_EDGE ( 'NONE', *, *, #324, .F. ) ;
#301 = APPROVAL_ROLE ( '' ) ;
#302 = ORIENTED_EDGE ( 'NONE', *, *, #249, .T. ) ;
#303 = CARTESIAN_POINT ( 'NONE',  ( 28.00000000000000355, 3.447380739599799311E-15, -28.14999999999999858 ) ) ;
#304 = AXIS2_PLACEMENT_3D ( 'NONE', #367, #145, #68 ) ;
#305 = AXIS2_PLACEMENT_3D ( 'NONE', #328, #229, #423 ) ;
#306 = DIRECTION ( 'NONE',  ( 0.000000000000000000, 0.000000000000000000, 1.000000000000000000 ) ) ;
#307 = DIRECTION ( 'NONE',  ( -1.000000000000000000, -0.000000000000000000, -0.000000000000000000 ) ) ;
#308 = ORIENTED_EDGE ( 'NONE', *, *, #120, .F. ) ;
#309 = DIRECTION ( 'NONE',  ( -1.000000000000000000, -0.000000000000000000, -0.000000000000000000 ) ) ;
#310 = VECTOR ( 'NONE', #415, 1000.000000000000000 ) ;
#311 = UNCERTAINTY_MEASURE_WITH_UNIT (LENGTH_MEASURE( 1.000000000000000082E-05 ), #95, 'distance_accuracy_value', 'NONE');
#312 = LINE ( 'NONE', #281, #310 ) ;
#313 = ORIENTED_EDGE ( 'NONE', *, *, #232, .F. ) ;
#314 = DIRECTION ( 'NONE',  ( 0.000000000000000000, 0.000000000000000000, -1.000000000000000000 ) ) ;
#315 = CC_DESIGN_DATE_AND_TIME_ASSIGNMENT ( #66, #334, ( #22 ) ) ;
#316 = DIRECTION ( 'NONE',  ( 0.000000000000000000, 0.000000000000000000, -1.000000000000000000 ) ) ;
#317 = CIRCLE ( 'NONE', #425, 34.50000000000000000 ) ;
#318 = DIRECTION ( 'NONE',  ( -1.000000000000000000, 0.000000000000000000, -0.000000000000000000 ) ) ;
#319 = PRODUCT_RELATED_PRODUCT_CATEGORY ( 'detail', '', ( #167 ) ) ;
#320 = CARTESIAN_POINT ( 'NONE',  ( -8.947186110754873282E-16, 31.28460969082651033, 0.000000000000000000 ) ) ;
#321 = ORIENTED_EDGE ( 'NONE', *, *, #214, .F. ) ;
#322 = DIRECTION ( 'NONE',  ( 0.000000000000000000, 0.000000000000000000, 1.000000000000000000 ) ) ;
#323 = CLOSED_SHELL ( 'NONE', ( #52, #124, #91, #156, #19, #186, #219, #48, #164, #330, #286, #405, #279 ) ) ;
#324 = EDGE_CURVE ( 'NONE', #103, #356, #135, .T. ) ;
#325 = VECTOR ( 'NONE', #307, 1000.000000000000000 ) ;
#326 = DIRECTION ( 'NONE',  ( -1.000000000000000000, -0.000000000000000000, -0.000000000000000000 ) ) ;
#327 = LOCAL_TIME ( 11, 22, 33.00000000000000000, #171 ) ;
#328 = CARTESIAN_POINT ( 'NONE',  ( 12.00000000000000000, 0.000000000000000000, 0.000000000000000000 ) ) ;
#329 = CARTESIAN_POINT ( 'NONE',  ( 28.00000000000000355, 0.000000000000000000, 28.14999999999999858 ) ) ;
#330 = ADVANCED_FACE ( 'NONE', ( #114 ), #407, .T. ) ;
#331 = CARTESIAN_POINT ( 'NONE',  ( 27.00000000000000355, 3.447380739599799311E-15, -28.14999999999999858 ) ) ;
#332 = AXIS2_PLACEMENT_3D ( 'NONE', #207, #5, #209 ) ;
#333 = AXIS2_PLACEMENT_3D ( 'NONE', #231, #421, #155 ) ;
#334 = DATE_TIME_ROLE ( 'creation_date' ) ;
#335 = EDGE_LOOP ( 'NONE', ( #419, #166 ) ) ;
#336 = ORIENTED_EDGE ( 'NONE', *, *, #368, .T. ) ;
#337 = DIRECTION ( 'NONE',  ( 0.000000000000000000, 0.000000000000000000, 1.000000000000000000 ) ) ;
#338 = VERTEX_POINT ( 'NONE', #50 ) ;
#339 = CYLINDRICAL_SURFACE ( 'NONE', #181, 28.14999999999999858 ) ;
#340 = AXIS2_PLACEMENT_3D ( 'NONE', #215, #56, #12 ) ;
#341 = DIRECTION ( 'NONE',  ( 0.000000000000000000, 0.000000000000000000, -1.000000000000000000 ) ) ;
#342 = ORIENTED_EDGE ( 'NONE', *, *, #79, .F. ) ;
#343 = CYLINDRICAL_SURFACE ( 'NONE', #399, 25.00000000000000000 ) ;
#344 = EDGE_CURVE ( 'NONE', #90, #400, #89, .T. ) ;
#345 = ORIENTED_EDGE ( 'NONE', *, *, #6, .T. ) ;
#346 = CYLINDRICAL_SURFACE ( 'NONE', #304, 30.14999999999999858 ) ;
#347 = DIRECTION ( 'NONE',  ( 0.000000000000000000, 0.000000000000000000, 1.000000000000000000 ) ) ;
#348 = DIRECTION ( 'NONE',  ( 0.000000000000000000, 0.000000000000000000, -1.000000000000000000 ) ) ;
#349 = CARTESIAN_POINT ( 'NONE',  ( 0.000000000000000000, 3.061616997868383043E-15, -25.00000000000000000 ) ) ;
#350 =( GEOMETRIC_REPRESENTATION_CONTEXT ( 3 ) GLOBAL_UNCERTAINTY_ASSIGNED_CONTEXT ( ( #311 ) ) GLOBAL_UNIT_ASSIGNED_CONTEXT ( ( #95, #25, #161 ) ) REPRESENTATION_CONTEXT ( 'NONE', 'WORKASPACE' ) );
#351 = LINE ( 'NONE', #222, #100 ) ;
#352 = PLANE ( 'NONE',  #340 ) ;
#353 = EDGE_CURVE ( 'NONE', #77, #354, #221, .T. ) ;
#354 = VERTEX_POINT ( 'NONE', #360 ) ;
#355 = APPROVAL_ROLE ( '' ) ;
#356 = VERTEX_POINT ( 'NONE', #329 ) ;
#357 = DIRECTION ( 'NONE',  ( 0.000000000000000000, 0.000000000000000000, 1.000000000000000000 ) ) ;
#358 = EDGE_CURVE ( 'NONE', #242, #294, #267, .T. ) ;
#359 = CARTESIAN_POINT ( 'NONE',  ( 1.000000000000000888, 0.000000000000000000, -25.00000000000000000 ) ) ;
#360 = CARTESIAN_POINT ( 'NONE',  ( 12.00000000000000000, 3.692310099429270397E-15, -30.14999999999999858 ) ) ;
#361 = VERTEX_POINT ( 'NONE', #260 ) ;
#362 = CC_DESIGN_PERSON_AND_ORGANIZATION_ASSIGNMENT ( #24, #158, ( #227 ) ) ;
#363 = PERSON_AND_ORGANIZATION ( #365, #29 ) ;
#364 = AXIS2_PLACEMENT_3D ( 'NONE', #197, #21, #389 ) ;
#365 = PERSON ( 'UNSPECIFIED', 'UNSPECIFIED', 'UNSPECIFIED', ('UNSPECIFIED'), ('UNSPECIFIED'), ('UNSPECIFIED') ) ;
#366 = VERTEX_POINT ( 'NONE', #192 ) ;
#367 = CARTESIAN_POINT ( 'NONE',  ( -16.64708581120227038, 0.000000000000000000, 0.000000000000000000 ) ) ;
#368 = EDGE_CURVE ( 'NONE', #294, #242, #160, .T. ) ;
#369 = EDGE_LOOP ( 'NONE', ( #393, #345 ) ) ;
#370 = PERSON_AND_ORGANIZATION ( #365, #29 ) ;
#371 = CARTESIAN_POINT ( 'NONE',  ( 0.000000000000000000, 0.000000000000000000, 0.000000000000000000 ) ) ;
#372 = EDGE_LOOP ( 'NONE', ( #233, #379, #98, #133 ) ) ;
#373 = APPROVAL_DATE_TIME ( #1, #154 ) ;
#374 = DIRECTION ( 'NONE',  ( -1.000000000000000000, -0.000000000000000000, -0.000000000000000000 ) ) ;
#375 = AXIS2_PLACEMENT_3D ( 'NONE', #187, #391, #295 ) ;
#376 = ORIENTED_EDGE ( 'NONE', *, *, #144, .T. ) ;
#377 = EDGE_CURVE ( 'NONE', #366, #400, #244, .T. ) ;
#378 = CYLINDRICAL_SURFACE ( 'NONE', #190, 25.00000000000000000 ) ;
#379 = ORIENTED_EDGE ( 'NONE', *, *, #144, .F. ) ;
#380 = CARTESIAN_POINT ( 'NONE',  ( 28.00000000000000355, 0.000000000000000000, 0.000000000000000000 ) ) ;
#381 = VECTOR ( 'NONE', #226, 1000.000000000000114 ) ;
#382 = CARTESIAN_POINT ( 'NONE',  ( -16.64708581120227038, 0.000000000000000000, 0.000000000000000000 ) ) ;
#383 = LINE ( 'NONE', #384, #198 ) ;
#384 = CARTESIAN_POINT ( 'NONE',  ( 12.00000000000000000, 4.225031457058368922E-15, 34.50000000000000000 ) ) ;
#385 = CARTESIAN_POINT ( 'NONE',  ( 28.00000000000000000, 30.14999999999999858, 0.000000000000000000 ) ) ;
#386 = ORIENTED_EDGE ( 'NONE', *, *, #417, .F. ) ;
#387 = CARTESIAN_POINT ( 'NONE',  ( -16.64708581120227038, 0.000000000000000000, 0.000000000000000000 ) ) ;
#388 = VECTOR ( 'NONE', #309, 1000.000000000000000 ) ;
#389 = DIRECTION ( 'NONE',  ( 0.000000000000000000, 0.000000000000000000, 1.000000000000000000 ) ) ;
#390 = CC_DESIGN_APPROVAL ( #10, ( #290 ) ) ;
#391 = DIRECTION ( 'NONE',  ( -1.000000000000000000, -0.000000000000000000, -0.000000000000000000 ) ) ;
#392 = CARTESIAN_POINT ( 'NONE',  ( -3.469446951953614189E-15, 0.000000000000000000, -31.28460969082651033 ) ) ;
#393 = ORIENTED_EDGE ( 'NONE', *, *, #200, .T. ) ;
#394 = EDGE_LOOP ( 'NONE', ( #63, #128, #39, #130 ) ) ;
#395 = PERSON_AND_ORGANIZATION ( #365, #29 ) ;
#396 = MANIFOLD_SOLID_BREP ( 'Rotation1', #323 ) ;
#397 = EDGE_CURVE ( 'NONE', #354, #77, #149, .T. ) ;
#398 = FACE_OUTER_BOUND ( 'NONE', #236, .T. ) ;
#399 = AXIS2_PLACEMENT_3D ( 'NONE', #237, #374, #11 ) ;
#400 = VERTEX_POINT ( 'NONE', #331 ) ;
#401 = CARTESIAN_POINT ( 'NONE',  ( 1.000000000000000888, 0.000000000000000000, -25.00000000000000000 ) ) ;
#402 = CC_DESIGN_PERSON_AND_ORGANIZATION_ASSIGNMENT ( #363, #195, ( #167 ) ) ;
#403 = CARTESIAN_POINT ( 'NONE',  ( 28.00000000000000355, 0.000000000000000000, 0.000000000000000000 ) ) ;
#404 = VERTEX_POINT ( 'NONE', #392 ) ;
#405 = ADVANCED_FACE ( 'NONE', ( #153 ), #189, .T. ) ;
#406 = DIRECTION ( 'NONE',  ( 0.000000000000000000, 0.000000000000000000, 1.000000000000000000 ) ) ;
#407 = CONICAL_SURFACE ( 'NONE', #116, 34.50000000000000000, 0.2617993877991507956 ) ;
#408 = ORIENTED_EDGE ( 'NONE', *, *, #83, .T. ) ;
#409 = DIRECTION ( 'NONE',  ( 0.000000000000000000, 0.000000000000000000, 1.000000000000000000 ) ) ;
#410 = DIRECTION ( 'NONE',  ( 0.000000000000000000, 0.000000000000000000, 1.000000000000000000 ) ) ;
#411 = ORIENTED_EDGE ( 'NONE', *, *, #30, .T. ) ;
#412 = CARTESIAN_POINT ( 'NONE',  ( 28.00000000000000355, 0.000000000000000000, 30.14999999999999858 ) ) ;
#413 = AXIS2_PLACEMENT_3D ( 'NONE', #111, #74, #239 ) ;
#414 = LOCAL_TIME ( 11, 22, 33.00000000000000000, #297 ) ;
#415 = DIRECTION ( 'NONE',  ( -1.000000000000000000, -0.000000000000000000, -0.000000000000000000 ) ) ;
#416 = DIRECTION ( 'NONE',  ( -1.000000000000000000, -0.000000000000000000, -0.000000000000000000 ) ) ;
#417 = EDGE_CURVE ( 'NONE', #356, #366, #296, .T. ) ;
#418 = LINE ( 'NONE', #119, #54 ) ;
#419 = ORIENTED_EDGE ( 'NONE', *, *, #353, .T. ) ;
#420 = AXIS2_PLACEMENT_3D ( 'NONE', #55, #255, #316 ) ;
#421 = DIRECTION ( 'NONE',  ( 0.000000000000000000, 0.000000000000000000, 1.000000000000000000 ) ) ;
#422 = ORIENTED_EDGE ( 'NONE', *, *, #262, .T. ) ;
#423 = DIRECTION ( 'NONE',  ( 0.000000000000000000, 0.000000000000000000, 1.000000000000000000 ) ) ;
#424 = CALENDAR_DATE ( 2024, 5, 9 ) ;
#425 = AXIS2_PLACEMENT_3D ( 'NONE', #8, #265, #306 ) ;
#426 = PERSON_AND_ORGANIZATION ( #365, #29 ) ;
#427 = PERSON_AND_ORGANIZATION_ROLE ( 'creator' ) ;
#428 = DIRECTION ( 'NONE',  ( -1.000000000000000000, -0.000000000000000000, -0.000000000000000000 ) ) ;
#429 = EDGE_LOOP ( 'NONE', ( #110, #302, #32, #96 ) ) ;
ENDSEC;
END-ISO-10303-21;
