ISO-10303-21;
HEADER;
FILE_DESCRIPTION (( 'STEP AP203' ),
    '1' );
FILE_NAME ('3D_M2230P_65_174172050.STEP',
    '2024-09-05T14:18:18',
    ( '' ),
    ( '' ),
    'SwSTEP 2.0',
    'SolidWorks 2024',
    '' );
FILE_SCHEMA (( 'CONFIG_CONTROL_DESIGN' ));
ENDSEC;

DATA;
#1 = APPROVAL_ROLE ( '' ) ;
#2 = VERTEX_POINT ( 'NONE', #243 ) ;
#3 = ORIENTED_EDGE ( 'NONE', *, *, #30, .F. ) ;
#4 = ADVANCED_FACE ( 'NONE', ( #84 ), #171, .T. ) ;
#5 = ORIENTED_EDGE ( 'NONE', *, *, #17, .F. ) ;
#6 = AXIS2_PLACEMENT_3D ( 'NONE', #90, #182, #164 ) ;
#7 = ORIENTED_EDGE ( 'NONE', *, *, #67, .F. ) ;
#8 = ORIENTED_EDGE ( 'NONE', *, *, #162, .T. ) ;
#9 = PLANE ( 'NONE',  #23 ) ;
#10 = APPROVAL_PERSON_ORGANIZATION ( #22, #63, #1 ) ;
#11 = DIRECTION ( 'NONE',  ( 0.000000000000000000, 0.000000000000000000, 1.000000000000000000 ) ) ;
#12 = PLANE ( 'NONE',  #102 ) ;
#13 = EDGE_CURVE ( 'NONE', #241, #2, #211, .T. ) ;
#14 = DIRECTION ( 'NONE',  ( -1.000000000000000000, -0.000000000000000000, -0.000000000000000000 ) ) ;
#15 = SECURITY_CLASSIFICATION ( '', '', #238 ) ;
#16 = DIRECTION ( 'NONE',  ( 0.000000000000000000, 0.000000000000000000, 1.000000000000000000 ) ) ;
#17 = EDGE_CURVE ( 'NONE', #2, #241, #132, .T. ) ;
#18 =( NAMED_UNIT ( * ) PLANE_ANGLE_UNIT ( ) SI_UNIT ( $, .RADIAN. ) );
#19 = AXIS2_PLACEMENT_3D ( 'NONE', #123, #186, #246 ) ;
#20 = COORDINATED_UNIVERSAL_TIME_OFFSET ( 1, 0, .AHEAD. ) ;
#21 = APPLICATION_PROTOCOL_DEFINITION ( 'international standard', 'config_control_design', 1994, #169 ) ;
#22 = PERSON_AND_ORGANIZATION ( #237, #97 ) ;
#23 = AXIS2_PLACEMENT_3D ( 'NONE', #225, #250, #189 ) ;
#24 = DIRECTION ( 'NONE',  ( 0.000000000000000000, 0.000000000000000000, 1.000000000000000000 ) ) ;
#25 = ORIENTED_EDGE ( 'NONE', *, *, #13, .F. ) ;
#26 = COORDINATED_UNIVERSAL_TIME_OFFSET ( 1, 0, .AHEAD. ) ;
#27 = ORIENTED_EDGE ( 'NONE', *, *, #72, .T. ) ;
#28 = VERTEX_POINT ( 'NONE', #228 ) ;
#29 = CC_DESIGN_APPROVAL ( #239, ( #109 ) ) ;
#30 = EDGE_CURVE ( 'NONE', #160, #142, #70, .T. ) ;
#31 = DIRECTION ( 'NONE',  ( 1.000000000000000000, 0.000000000000000000, 0.000000000000000000 ) ) ;
#32 = CARTESIAN_POINT ( 'NONE',  ( -59.78395978395975874, 4.837354856632044663E-15, -39.49999999999999289 ) ) ;
#33 = DIRECTION ( 'NONE',  ( 0.000000000000000000, 0.000000000000000000, -1.000000000000000000 ) ) ;
#34 = CARTESIAN_POINT ( 'NONE',  ( -4.000000000000003553, 5.265981236333616893E-15, 42.99999999999999289 ) ) ;
#35 = FACE_OUTER_BOUND ( 'NONE', #62, .T. ) ;
#36 = CIRCLE ( 'NONE', #6, 42.99999999999999289 ) ;
#37 = PERSON_AND_ORGANIZATION ( #237, #97 ) ;
#38 = AXIS2_PLACEMENT_3D ( 'NONE', #48, #206, #248 ) ;
#39 = APPLICATION_PROTOCOL_DEFINITION ( 'international standard', 'config_control_design', 1994, #178 ) ;
#40 = PERSON_AND_ORGANIZATION ( #237, #97 ) ;
#41 = EDGE_CURVE ( 'NONE', #141, #223, #197, .T. ) ;
#42 = LOCAL_TIME ( 16, 18, 18.00000000000000000, #26 ) ;
#43 = EDGE_LOOP ( 'NONE', ( #103, #25, #8, #101 ) ) ;
#44 = DIRECTION ( 'NONE',  ( 0.000000000000000000, 0.000000000000000000, -1.000000000000000000 ) ) ;
#45 = APPROVAL_PERSON_ORGANIZATION ( #210, #137, #61 ) ;
#46 = CARTESIAN_POINT ( 'NONE',  ( -4.000000000000003553, 0.000000000000000000, 0.000000000000000000 ) ) ;
#47 = EDGE_CURVE ( 'NONE', #142, #223, #104, .T. ) ;
#48 = CARTESIAN_POINT ( 'NONE',  ( -16.00000000000000000, 39.78460969082660625, 0.000000000000000000 ) ) ;
#49 = LOCAL_TIME ( 16, 18, 18.00000000000000000, #20 ) ;
#50 = CARTESIAN_POINT ( 'NONE',  ( -4.000000000000003553, 0.000000000000000000, 0.000000000000000000 ) ) ;
#51 = DIRECTION ( 'NONE',  ( 0.000000000000000000, 0.000000000000000000, 1.000000000000000000 ) ) ;
#52 = CARTESIAN_POINT ( 'NONE',  ( -59.78395978395975874, 0.000000000000000000, 39.49999999999999289 ) ) ;
#53 = CC_DESIGN_PERSON_AND_ORGANIZATION_ASSIGNMENT ( #135, #77, ( #89 ) ) ;
#54 = APPROVAL_PERSON_ORGANIZATION ( #193, #239, #214 ) ;
#55 = COORDINATED_UNIVERSAL_TIME_OFFSET ( 1, 0, .AHEAD. ) ;
#56 = ADVANCED_FACE ( 'NONE', ( #147 ), #247, .T. ) ;
#57 = PERSON_AND_ORGANIZATION_ROLE ( 'design_owner' ) ;
#58 = CLOSED_SHELL ( 'NONE', ( #242, #4, #117, #184, #176, #191, #56 ) ) ;
#59 = COORDINATED_UNIVERSAL_TIME_OFFSET ( 1, 0, .AHEAD. ) ;
#60 = AXIS2_PLACEMENT_3D ( 'NONE', #124, #86, #165 ) ;
#61 = APPROVAL_ROLE ( '' ) ;
#62 = EDGE_LOOP ( 'NONE', ( #217, #121 ) ) ;
#63 = APPROVAL ( #116, 'UNSPECIFIED' ) ;
#64 = ORIENTED_EDGE ( 'NONE', *, *, #67, .T. ) ;
#65 = EDGE_LOOP ( 'NONE', ( #64, #119 ) ) ;
#66 = DIRECTION ( 'NONE',  ( 0.000000000000000000, 0.000000000000000000, 1.000000000000000000 ) ) ;
#67 = EDGE_CURVE ( 'NONE', #223, #141, #244, .T. ) ;
#68 = FACE_BOUND ( 'NONE', #65, .T. ) ;
#69 = CARTESIAN_POINT ( 'NONE',  ( -4.000000000000003553, 5.265981236333616893E-15, 42.99999999999999289 ) ) ;
#70 = CIRCLE ( 'NONE', #60, 39.49999999999999289 ) ;
#71 = LINE ( 'NONE', #32, #92 ) ;
#72 = EDGE_CURVE ( 'NONE', #202, #28, #131, .T. ) ;
#73 = LINE ( 'NONE', #204, #120 ) ;
#74 = CALENDAR_DATE ( 2024, 5, 9 ) ;
#75 = AXIS2_PLACEMENT_3D ( 'NONE', #98, #249, #66 ) ;
#76 = APPROVAL_STATUS ( 'not_yet_approved' ) ;
#77 = PERSON_AND_ORGANIZATION_ROLE ( 'design_supplier' ) ;
#78 = LOCAL_TIME ( 16, 18, 18.00000000000000000, #55 ) ;
#79 = DATE_AND_TIME ( #216, #155 ) ;
#80 = ORIENTED_EDGE ( 'NONE', *, *, #232, .T. ) ;
#81 = AXIS2_PLACEMENT_3D ( 'NONE', #50, #14, #51 ) ;
#82 = ORIENTED_EDGE ( 'NONE', *, *, #30, .T. ) ;
#83 = ORIENTED_EDGE ( 'NONE', *, *, #13, .T. ) ;
#84 = FACE_OUTER_BOUND ( 'NONE', #161, .T. ) ;
#85 = DIRECTION ( 'NONE',  ( 0.000000000000000000, 0.000000000000000000, 1.000000000000000000 ) ) ;
#86 = DIRECTION ( 'NONE',  ( -1.000000000000000000, -0.000000000000000000, -0.000000000000000000 ) ) ;
#87 = DIRECTION ( 'NONE',  ( -1.000000000000000000, 0.000000000000000000, -0.000000000000000000 ) ) ;
#88 = DIRECTION ( 'NONE',  ( 0.9659258262890700886, 3.169619151431687904E-17, 0.2588190451025144112 ) ) ;
#89 = PRODUCT_DEFINITION_FORMATION_WITH_SPECIFIED_SOURCE ( 'ANY', '', #230, .NOT_KNOWN. ) ;
#90 = CARTESIAN_POINT ( 'NONE',  ( -4.000000000000003553, 0.000000000000000000, 0.000000000000000000 ) ) ;
#91 =( NAMED_UNIT ( * ) SI_UNIT ( $, .STERADIAN. ) SOLID_ANGLE_UNIT ( ) );
#92 = VECTOR ( 'NONE', #168, 1000.000000000000000 ) ;
#93 = COORDINATED_UNIVERSAL_TIME_OFFSET ( 1, 0, .AHEAD. ) ;
#94 = PRODUCT_DEFINITION_SHAPE ( 'NONE', 'NONE',  #109 ) ;
#95 = FACE_OUTER_BOUND ( 'NONE', #100, .T. ) ;
#96 = EDGE_CURVE ( 'NONE', #28, #202, #36, .T. ) ;
#97 = ORGANIZATION ( 'UNSPECIFIED', 'UNSPECIFIED', '' ) ;
#98 = CARTESIAN_POINT ( 'NONE',  ( -16.00000000000000000, 0.000000000000000000, 0.000000000000000000 ) ) ;
#99 = CALENDAR_DATE ( 2024, 5, 9 ) ;
#100 = EDGE_LOOP ( 'NONE', ( #181, #199, #7, #219 ) ) ;
#101 = ORIENTED_EDGE ( 'NONE', *, *, #96, .T. ) ;
#102 = AXIS2_PLACEMENT_3D ( 'NONE', #151, #87, #166 ) ;
#103 = ORIENTED_EDGE ( 'NONE', *, *, #232, .F. ) ;
#104 = LINE ( 'NONE', #52, #222 ) ;
#105 = FACE_OUTER_BOUND ( 'NONE', #221, .T. ) ;
#106 =( GEOMETRIC_REPRESENTATION_CONTEXT ( 3 ) GLOBAL_UNCERTAINTY_ASSIGNED_CONTEXT ( ( #187 ) ) GLOBAL_UNIT_ASSIGNED_CONTEXT ( ( #234, #18, #91 ) ) REPRESENTATION_CONTEXT ( 'NONE', 'WORKASPACE' ) );
#107 = FACE_OUTER_BOUND ( 'NONE', #143, .T. ) ;
#108 = DIRECTION ( 'NONE',  ( 0.9659258262890700886, 0.000000000000000000, -0.2588190451025144112 ) ) ;
#109 = PRODUCT_DEFINITION ( 'UNKNOWN', '', #89, #126 ) ;
#110 = CARTESIAN_POINT ( 'NONE',  ( -4.000000000000003553, 4.837354856632044663E-15, -39.49999999999999289 ) ) ;
#111 = PERSON_AND_ORGANIZATION_ROLE ( 'creator' ) ;
#112 = DIRECTION ( 'NONE',  ( 0.000000000000000000, 0.000000000000000000, 1.000000000000000000 ) ) ;
#113 = DATE_AND_TIME ( #74, #136 ) ;
#114 = AXIS2_PLACEMENT_3D ( 'NONE', #46, #208, #11 ) ;
#115 = DIRECTION ( 'NONE',  ( 0.000000000000000000, 0.000000000000000000, 1.000000000000000000 ) ) ;
#116 = APPROVAL_STATUS ( 'not_yet_approved' ) ;
#117 = ADVANCED_FACE ( 'NONE', ( #35, #68 ), #9, .F. ) ;
#118 = ORIENTED_EDGE ( 'NONE', *, *, #146, .F. ) ;
#119 = ORIENTED_EDGE ( 'NONE', *, *, #41, .T. ) ;
#120 = VECTOR ( 'NONE', #108, 999.9999999999998863 ) ;
#121 = ORIENTED_EDGE ( 'NONE', *, *, #72, .F. ) ;
#122 = CARTESIAN_POINT ( 'NONE',  ( -16.00000000000000000, 0.000000000000000000, 0.000000000000000000 ) ) ;
#123 = CARTESIAN_POINT ( 'NONE',  ( -59.78395978395975874, 0.000000000000000000, 0.000000000000000000 ) ) ;
#124 = CARTESIAN_POINT ( 'NONE',  ( -6.938893903907228378E-15, 0.000000000000000000, 0.000000000000000000 ) ) ;
#125 = ADVANCED_BREP_SHAPE_REPRESENTATION ( '3D_M2230P_65_174172050', ( #138, #190 ), #106 ) ;
#126 = DESIGN_CONTEXT ( 'detailed design', #169, 'design' ) ;
#127 = PRODUCT_RELATED_PRODUCT_CATEGORY ( 'detail', '', ( #230 ) ) ;
#128 = CARTESIAN_POINT ( 'NONE',  ( -4.000000000000003553, 0.000000000000000000, 0.000000000000000000 ) ) ;
#129 = CARTESIAN_POINT ( 'NONE',  ( -6.938893903907228378E-15, 4.837354856632044663E-15, -39.49999999999999289 ) ) ;
#130 = DATE_TIME_ROLE ( 'classification_date' ) ;
#131 = CIRCLE ( 'NONE', #114, 42.99999999999999289 ) ;
#132 = CIRCLE ( 'NONE', #75, 39.78460969082660625 ) ;
#133 = CC_DESIGN_PERSON_AND_ORGANIZATION_ASSIGNMENT ( #235, #174, ( #15 ) ) ;
#134 = CYLINDRICAL_SURFACE ( 'NONE', #144, 39.49999999999999289 ) ;
#135 = PERSON_AND_ORGANIZATION ( #237, #97 ) ;
#136 = LOCAL_TIME ( 16, 18, 18.00000000000000000, #93 ) ;
#137 = APPROVAL ( #212, 'UNSPECIFIED' ) ;
#138 = MANIFOLD_SOLID_BREP ( 'Rotation1', #58 ) ;
#139 = SHAPE_DEFINITION_REPRESENTATION ( #94, #125 ) ;
#140 = ORIENTED_EDGE ( 'NONE', *, *, #162, .F. ) ;
#141 = VERTEX_POINT ( 'NONE', #110 ) ;
#142 = VERTEX_POINT ( 'NONE', #185 ) ;
#143 = EDGE_LOOP ( 'NONE', ( #118, #3 ) ) ;
#144 = AXIS2_PLACEMENT_3D ( 'NONE', #215, #192, #112 ) ;
#145 = DIRECTION ( 'NONE',  ( 1.000000000000000000, 0.000000000000000000, 0.000000000000000000 ) ) ;
#146 = EDGE_CURVE ( 'NONE', #142, #160, #245, .T. ) ;
#147 = FACE_OUTER_BOUND ( 'NONE', #220, .T. ) ;
#148 = DIRECTION ( 'NONE',  ( -1.000000000000000000, -0.000000000000000000, -0.000000000000000000 ) ) ;
#149 = CARTESIAN_POINT ( 'NONE',  ( -4.000000000000003553, 0.000000000000000000, 39.49999999999999289 ) ) ;
#150 = AXIS2_PLACEMENT_3D ( 'NONE', #188, #224, #85 ) ;
#151 = CARTESIAN_POINT ( 'NONE',  ( -3.469446951953614189E-15, 39.49999999999999289, 0.000000000000000000 ) ) ;
#152 = PLANE ( 'NONE',  #38 ) ;
#153 = CC_DESIGN_DATE_AND_TIME_ASSIGNMENT ( #79, #130, ( #15 ) ) ;
#154 = CALENDAR_DATE ( 2024, 5, 9 ) ;
#155 = LOCAL_TIME ( 16, 18, 18.00000000000000000, #59 ) ;
#156 = PERSON_AND_ORGANIZATION_ROLE ( 'creator' ) ;
#157 = CONICAL_SURFACE ( 'NONE', #240, 42.99999999999999289, 0.2617993877991428575 ) ;
#158 = CARTESIAN_POINT ( 'NONE',  ( 0.000000000000000000, 0.000000000000000000, 0.000000000000000000 ) ) ;
#159 = DATE_AND_TIME ( #99, #42 ) ;
#160 = VERTEX_POINT ( 'NONE', #129 ) ;
#161 = EDGE_LOOP ( 'NONE', ( #5, #80, #27, #140 ) ) ;
#162 = EDGE_CURVE ( 'NONE', #241, #28, #73, .T. ) ;
#163 = ORIENTED_EDGE ( 'NONE', *, *, #47, .T. ) ;
#164 = DIRECTION ( 'NONE',  ( 0.000000000000000000, 0.000000000000000000, 1.000000000000000000 ) ) ;
#165 = DIRECTION ( 'NONE',  ( 0.000000000000000000, 0.000000000000000000, 1.000000000000000000 ) ) ;
#166 = DIRECTION ( 'NONE',  ( -0.000000000000000000, 0.000000000000000000, 1.000000000000000000 ) ) ;
#167 = CARTESIAN_POINT ( 'NONE',  ( -16.00000000000000000, 0.000000000000000000, -39.78460969082660625 ) ) ;
#168 = DIRECTION ( 'NONE',  ( -1.000000000000000000, -0.000000000000000000, -0.000000000000000000 ) ) ;
#169 = APPLICATION_CONTEXT ( 'configuration controlled 3d designs of mechanical parts and assemblies' ) ;
#170 = EDGE_CURVE ( 'NONE', #160, #141, #71, .T. ) ;
#171 = CONICAL_SURFACE ( 'NONE', #205, 42.99999999999999289, 0.2617993877991428575 ) ;
#172 = DATE_AND_TIME ( #194, #49 ) ;
#173 = APPROVAL_DATE_TIME ( #172, #63 ) ;
#174 = PERSON_AND_ORGANIZATION_ROLE ( 'classification_officer' ) ;
#175 = AXIS2_PLACEMENT_3D ( 'NONE', #122, #200, #24 ) ;
#176 = ADVANCED_FACE ( 'NONE', ( #105 ), #152, .F. ) ;
#177 = ORIENTED_EDGE ( 'NONE', *, *, #17, .T. ) ;
#178 = APPLICATION_CONTEXT ( 'configuration controlled 3d designs of mechanical parts and assemblies' ) ;
#179 = CARTESIAN_POINT ( 'NONE',  ( -4.000000000000003553, 0.000000000000000000, 0.000000000000000000 ) ) ;
#180 = ORIENTED_EDGE ( 'NONE', *, *, #41, .F. ) ;
#181 = ORIENTED_EDGE ( 'NONE', *, *, #146, .T. ) ;
#182 = DIRECTION ( 'NONE',  ( -1.000000000000000000, -0.000000000000000000, -0.000000000000000000 ) ) ;
#183 = CC_DESIGN_APPROVAL ( #137, ( #15 ) ) ;
#184 = ADVANCED_FACE ( 'NONE', ( #229 ), #157, .T. ) ;
#185 = CARTESIAN_POINT ( 'NONE',  ( -6.938893903907228378E-15, 0.000000000000000000, 39.49999999999999289 ) ) ;
#186 = DIRECTION ( 'NONE',  ( -1.000000000000000000, -0.000000000000000000, -0.000000000000000000 ) ) ;
#187 = UNCERTAINTY_MEASURE_WITH_UNIT (LENGTH_MEASURE( 1.000000000000000082E-05 ), #234, 'distance_accuracy_value', 'NONE');
#188 = CARTESIAN_POINT ( 'NONE',  ( -6.938893903907228378E-15, 0.000000000000000000, 0.000000000000000000 ) ) ;
#189 = DIRECTION ( 'NONE',  ( -0.000000000000000000, 0.000000000000000000, 1.000000000000000000 ) ) ;
#190 = AXIS2_PLACEMENT_3D ( 'NONE', #158, #115, #251 ) ;
#191 = ADVANCED_FACE ( 'NONE', ( #107 ), #12, .F. ) ;
#192 = DIRECTION ( 'NONE',  ( -1.000000000000000000, -0.000000000000000000, -0.000000000000000000 ) ) ;
#193 = PERSON_AND_ORGANIZATION ( #237, #97 ) ;
#194 = CALENDAR_DATE ( 2024, 5, 9 ) ;
#195 = CC_DESIGN_PERSON_AND_ORGANIZATION_ASSIGNMENT ( #253, #156, ( #89 ) ) ;
#196 = APPROVAL_DATE_TIME ( #159, #137 ) ;
#197 = CIRCLE ( 'NONE', #81, 39.49999999999999289 ) ;
#198 = ORIENTED_EDGE ( 'NONE', *, *, #170, .F. ) ;
#199 = ORIENTED_EDGE ( 'NONE', *, *, #170, .T. ) ;
#200 = DIRECTION ( 'NONE',  ( -1.000000000000000000, -0.000000000000000000, -0.000000000000000000 ) ) ;
#201 = VECTOR ( 'NONE', #88, 999.9999999999998863 ) ;
#202 = VERTEX_POINT ( 'NONE', #69 ) ;
#203 = CARTESIAN_POINT ( 'NONE',  ( -4.000000000000003553, 0.000000000000000000, 0.000000000000000000 ) ) ;
#204 = CARTESIAN_POINT ( 'NONE',  ( -4.000000000000003553, 0.000000000000000000, -42.99999999999999289 ) ) ;
#205 = AXIS2_PLACEMENT_3D ( 'NONE', #179, #145, #44 ) ;
#206 = DIRECTION ( 'NONE',  ( 1.000000000000000000, 0.000000000000000000, 0.000000000000000000 ) ) ;
#207 = LINE ( 'NONE', #34, #201 ) ;
#208 = DIRECTION ( 'NONE',  ( -1.000000000000000000, -0.000000000000000000, -0.000000000000000000 ) ) ;
#209 = CC_DESIGN_PERSON_AND_ORGANIZATION_ASSIGNMENT ( #40, #111, ( #109 ) ) ;
#210 = PERSON_AND_ORGANIZATION ( #237, #97 ) ;
#211 = CIRCLE ( 'NONE', #175, 39.78460969082660625 ) ;
#212 = APPROVAL_STATUS ( 'not_yet_approved' ) ;
#213 = CC_DESIGN_PERSON_AND_ORGANIZATION_ASSIGNMENT ( #37, #57, ( #230 ) ) ;
#214 = APPROVAL_ROLE ( '' ) ;
#215 = CARTESIAN_POINT ( 'NONE',  ( -59.78395978395975874, 0.000000000000000000, 0.000000000000000000 ) ) ;
#216 = CALENDAR_DATE ( 2024, 5, 9 ) ;
#217 = ORIENTED_EDGE ( 'NONE', *, *, #96, .F. ) ;
#218 = CC_DESIGN_SECURITY_CLASSIFICATION ( #15, ( #89 ) ) ;
#219 = ORIENTED_EDGE ( 'NONE', *, *, #47, .F. ) ;
#220 = EDGE_LOOP ( 'NONE', ( #198, #82, #163, #180 ) ) ;
#221 = EDGE_LOOP ( 'NONE', ( #83, #177 ) ) ;
#222 = VECTOR ( 'NONE', #148, 1000.000000000000000 ) ;
#223 = VERTEX_POINT ( 'NONE', #149 ) ;
#224 = DIRECTION ( 'NONE',  ( -1.000000000000000000, -0.000000000000000000, -0.000000000000000000 ) ) ;
#225 = CARTESIAN_POINT ( 'NONE',  ( -4.000000000000001776, 39.49999999999999289, 0.000000000000000000 ) ) ;
#226 = AXIS2_PLACEMENT_3D ( 'NONE', #128, #227, #16 ) ;
#227 = DIRECTION ( 'NONE',  ( -1.000000000000000000, -0.000000000000000000, -0.000000000000000000 ) ) ;
#228 = CARTESIAN_POINT ( 'NONE',  ( -4.000000000000003553, 0.000000000000000000, -42.99999999999999289 ) ) ;
#229 = FACE_OUTER_BOUND ( 'NONE', #43, .T. ) ;
#230 = PRODUCT ( '3D_M2230P_65_174172050', '3D_M2230P_65_174172050', '', ( #252 ) ) ;
#231 = DATE_TIME_ROLE ( 'creation_date' ) ;
#232 = EDGE_CURVE ( 'NONE', #2, #202, #207, .T. ) ;
#233 = APPROVAL_DATE_TIME ( #113, #239 ) ;
#234 =( LENGTH_UNIT ( ) NAMED_UNIT ( * ) SI_UNIT ( .MILLI., .METRE. ) );
#235 = PERSON_AND_ORGANIZATION ( #237, #97 ) ;
#236 = CC_DESIGN_APPROVAL ( #63, ( #89 ) ) ;
#237 = PERSON ( 'UNSPECIFIED', 'UNSPECIFIED', 'UNSPECIFIED', ('UNSPECIFIED'), ('UNSPECIFIED'), ('UNSPECIFIED') ) ;
#238 = SECURITY_CLASSIFICATION_LEVEL ( 'unclassified' ) ;
#239 = APPROVAL ( #76, 'UNSPECIFIED' ) ;
#240 = AXIS2_PLACEMENT_3D ( 'NONE', #203, #31, #33 ) ;
#241 = VERTEX_POINT ( 'NONE', #167 ) ;
#242 = ADVANCED_FACE ( 'NONE', ( #95 ), #134, .T. ) ;
#243 = CARTESIAN_POINT ( 'NONE',  ( -16.00000000000000000, 5.069095363826687258E-15, 39.78460969082660625 ) ) ;
#244 = CIRCLE ( 'NONE', #226, 39.49999999999999289 ) ;
#245 = CIRCLE ( 'NONE', #150, 39.49999999999999289 ) ;
#246 = DIRECTION ( 'NONE',  ( 0.000000000000000000, 0.000000000000000000, 1.000000000000000000 ) ) ;
#247 = CYLINDRICAL_SURFACE ( 'NONE', #19, 39.49999999999999289 ) ;
#248 = DIRECTION ( 'NONE',  ( 0.000000000000000000, 0.000000000000000000, -1.000000000000000000 ) ) ;
#249 = DIRECTION ( 'NONE',  ( -1.000000000000000000, -0.000000000000000000, -0.000000000000000000 ) ) ;
#250 = DIRECTION ( 'NONE',  ( -1.000000000000000000, 0.000000000000000000, -0.000000000000000000 ) ) ;
#251 = DIRECTION ( 'NONE',  ( 1.000000000000000000, 0.000000000000000000, 0.000000000000000000 ) ) ;
#252 = MECHANICAL_CONTEXT ( 'NONE', #178, 'mechanical' ) ;
#253 = PERSON_AND_ORGANIZATION ( #237, #97 ) ;
#254 = DATE_AND_TIME ( #154, #78 ) ;
#255 = CC_DESIGN_DATE_AND_TIME_ASSIGNMENT ( #254, #231, ( #109 ) ) ;
ENDSEC;
END-ISO-10303-21;
