ISO-10303-21;
HEADER;
FILE_DESCRIPTION (( 'STEP AP203' ),
    '1' );
FILE_NAME ('3D_R365_84x2_173371140.STEP',
    '2024-07-16T06:34:51',
    ( '' ),
    ( '' ),
    'SwSTEP 2.0',
    'SolidWorks 2024',
    '' );
FILE_SCHEMA (( 'CONFIG_CONTROL_DESIGN' ));
ENDSEC;

DATA;
#1 = CARTESIAN_POINT ( 'NONE',  ( -4.437773246151374569E-34, -9.653664494334720165E-17, 0.000000000000000000 ) ) ;
#2 = DESIGN_CONTEXT ( 'detailed design', #26, 'design' ) ;
#3 = CC_DESIGN_APPROVAL ( #259, ( #57 ) ) ;
#4 = FACE_OUTER_BOUND ( 'NONE', #332, .T. ) ;
#5 = CIRCLE ( 'NONE', #49, 63.20000000000000284 ) ;
#6 = FACE_OUTER_BOUND ( 'NONE', #310, .T. ) ;
#7 = ORIENTED_EDGE ( 'NONE', *, *, #17, .T. ) ;
#8 = CC_DESIGN_PERSON_AND_ORGANIZATION_ASSIGNMENT ( #357, #94, ( #246 ) ) ;
#9 = DIRECTION ( 'NONE',  ( 1.000000000000000000, 0.000000000000000000, 0.000000000000000000 ) ) ;
#10 = ORIENTED_EDGE ( 'NONE', *, *, #117, .F. ) ;
#11 = PERSON_AND_ORGANIZATION ( #347, #83 ) ;
#12 = FACE_OUTER_BOUND ( 'NONE', #265, .T. ) ;
#13 = CALENDAR_DATE ( 2024, 16, 7 ) ;
#14 = CARTESIAN_POINT ( 'NONE',  ( 1.293088151477994354E-31, 1.467661680459635631, 0.000000000000000000 ) ) ;
#15 = ORIENTED_EDGE ( 'NONE', *, *, #192, .T. ) ;
#16 = AXIS2_PLACEMENT_3D ( 'NONE', #245, #398, #372 ) ;
#17 = EDGE_CURVE ( 'NONE', #304, #163, #151, .T. ) ;
#18 = AXIS2_PLACEMENT_3D ( 'NONE', #312, #88, #224 ) ;
#19 = DIRECTION ( 'NONE',  ( 4.596983092540343816E-18, 1.000000000000000000, -0.000000000000000000 ) ) ;
#20 = ORIENTED_EDGE ( 'NONE', *, *, #52, .F. ) ;
#21 = DIRECTION ( 'NONE',  ( 4.596983092540343816E-18, 1.000000000000000000, -0.000000000000000000 ) ) ;
#22 = ADVANCED_FACE ( 'NONE', ( #12 ), #387, .T. ) ;
#23 = CARTESIAN_POINT ( 'NONE',  ( 0.000000000000000000, 1.467661680459607432, 0.000000000000000000 ) ) ;
#24 = CIRCLE ( 'NONE', #368, 63.20000000000000284 ) ;
#25 = AXIS2_PLACEMENT_3D ( 'NONE', #258, #307, #402 ) ;
#26 = APPLICATION_CONTEXT ( 'configuration controlled 3d designs of mechanical parts and assemblies' ) ;
#27 = AXIS2_PLACEMENT_3D ( 'NONE', #143, #212, #215 ) ;
#28 = PRODUCT_DEFINITION ( 'UNKNOWN', '', #57, #2 ) ;
#29 = DIRECTION ( 'NONE',  ( 4.596983092540343816E-18, 1.000000000000000000, -0.000000000000000000 ) ) ;
#30 = LINE ( 'NONE', #157, #381 ) ;
#31 = EDGE_CURVE ( 'NONE', #163, #304, #275, .T. ) ;
#32 = DATE_AND_TIME ( #13, #324 ) ;
#33 = VERTEX_POINT ( 'NONE', #234 ) ;
#34 = ORIENTED_EDGE ( 'NONE', *, *, #131, .F. ) ;
#35 = AXIS2_PLACEMENT_3D ( 'NONE', #303, #331, #79 ) ;
#36 = DATE_TIME_ROLE ( 'creation_date' ) ;
#37 = VERTEX_POINT ( 'NONE', #354 ) ;
#38 = CARTESIAN_POINT ( 'NONE',  ( 0.000000000000000000, 0.000000000000000000, 0.000000000000000000 ) ) ;
#39 = DIRECTION ( 'NONE',  ( -1.000000000000000000, 0.000000000000000000, 0.000000000000000000 ) ) ;
#40 = DIRECTION ( 'NONE',  ( 1.000000000000000000, 0.000000000000000000, 1.224646799147353207E-16 ) ) ;
#41 = DIRECTION ( 'NONE',  ( 4.596983092540343816E-18, 1.000000000000000000, -0.000000000000000000 ) ) ;
#42 = LOCAL_TIME ( 8, 34, 51.00000000000000000, #227 ) ;
#43 = EDGE_CURVE ( 'NONE', #195, #304, #364, .T. ) ;
#44 = EDGE_LOOP ( 'NONE', ( #394, #125, #296, #180 ) ) ;
#45 = CARTESIAN_POINT ( 'NONE',  ( 7.433606070824454732E-15, -43.20000000000000995, 0.000000000000000000 ) ) ;
#46 = ORIENTED_EDGE ( 'NONE', *, *, #87, .F. ) ;
#47 = CARTESIAN_POINT ( 'NONE',  ( -39.99999999999999289, 1.838793237016137280E-16, 0.000000000000000000 ) ) ;
#48 = CARTESIAN_POINT ( 'NONE',  ( 40.00000000000000000, 1.467661680459635409, 4.898587196589413026E-15 ) ) ;
#49 = AXIS2_PLACEMENT_3D ( 'NONE', #203, #330, #40 ) ;
#50 = TOROIDAL_SURFACE ( 'NONE', #341, 31.40000000000000568, 8.599999999999994316 ) ;
#51 = DIRECTION ( 'NONE',  ( 1.000000000000000000, -4.596983092540343816E-18, 0.000000000000000000 ) ) ;
#52 = EDGE_CURVE ( 'NONE', #358, #286, #5, .T. ) ;
#53 = DIRECTION ( 'NONE',  ( -1.000000000000000000, 0.000000000000000000, 0.000000000000000000 ) ) ;
#54 = DIRECTION ( 'NONE',  ( -1.000000000000000000, 0.000000000000000000, 0.000000000000000000 ) ) ;
#55 = DIRECTION ( 'NONE',  ( 4.596983092540343816E-18, 1.000000000000000000, -0.000000000000000000 ) ) ;
#56 = EDGE_CURVE ( 'NONE', #304, #391, #385, .T. ) ;
#57 = PRODUCT_DEFINITION_FORMATION_WITH_SPECIFIED_SOURCE ( 'ANY', '', #246, .NOT_KNOWN. ) ;
#58 = SHAPE_DEFINITION_REPRESENTATION ( #308, #121 ) ;
#59 = DIRECTION ( 'NONE',  ( 4.596983092540343816E-18, 1.000000000000000000, -0.000000000000000000 ) ) ;
#60 = APPROVAL_ROLE ( '' ) ;
#61 = APPROVAL ( #196, 'UNSPECIFIED' ) ;
#62 = CIRCLE ( 'NONE', #400, 36.34578754578752324 ) ;
#63 = ORIENTED_EDGE ( 'NONE', *, *, #238, .F. ) ;
#64 = DIRECTION ( 'NONE',  ( 4.596983092540343816E-18, 1.000000000000000000, -0.000000000000000000 ) ) ;
#65 = CALENDAR_DATE ( 2024, 16, 7 ) ;
#66 = ORIENTED_EDGE ( 'NONE', *, *, #138, .F. ) ;
#67 = APPROVAL_DATE_TIME ( #32, #259 ) ;
#68 = CC_DESIGN_SECURITY_CLASSIFICATION ( #232, ( #57 ) ) ;
#69 = ORIENTED_EDGE ( 'NONE', *, *, #299, .F. ) ;
#70 = APPROVAL_ROLE ( '' ) ;
#71 = VECTOR ( 'NONE', #73, 1000.000000000000000 ) ;
#72 = ORIENTED_EDGE ( 'NONE', *, *, #383, .F. ) ;
#73 = DIRECTION ( 'NONE',  ( 4.596983092540343816E-18, 1.000000000000000000, -0.000000000000000000 ) ) ;
#74 = AXIS2_PLACEMENT_3D ( 'NONE', #185, #282, #315 ) ;
#75 = DIRECTION ( 'NONE',  ( -1.000000000000000000, 0.000000000000000000, 0.000000000000000000 ) ) ;
#76 = EDGE_CURVE ( 'NONE', #195, #261, #174, .T. ) ;
#77 = ORIENTED_EDGE ( 'NONE', *, *, #76, .T. ) ;
#78 = DIRECTION ( 'NONE',  ( 4.596983092540343816E-18, 1.000000000000000000, -0.000000000000000000 ) ) ;
#79 = DIRECTION ( 'NONE',  ( 1.000000000000000000, -4.596983092540343816E-18, 0.000000000000000000 ) ) ;
#80 = ORIENTED_EDGE ( 'NONE', *, *, #343, .T. ) ;
#81 = CARTESIAN_POINT ( 'NONE',  ( 41.99999999999999289, -1.930732898866944033E-16, 5.143516556418882533E-15 ) ) ;
#82 = DIRECTION ( 'NONE',  ( 4.596983092540343816E-18, 1.000000000000000000, -0.000000000000000000 ) ) ;
#83 = ORGANIZATION ( 'UNSPECIFIED', 'UNSPECIFIED', '' ) ;
#84 = DIRECTION ( 'NONE',  ( -1.000000000000000000, 0.000000000000000000, 0.000000000000000000 ) ) ;
#85 = CIRCLE ( 'NONE', #176, 10.59999999999999076 ) ;
#86 = DIRECTION ( 'NONE',  ( 4.596983092540343816E-18, 1.000000000000000000, -0.000000000000000000 ) ) ;
#87 = EDGE_CURVE ( 'NONE', #103, #33, #294, .T. ) ;
#88 = DIRECTION ( 'NONE',  ( 4.596983092540343816E-18, 1.000000000000000000, -0.000000000000000000 ) ) ;
#89 = AXIS2_PLACEMENT_3D ( 'NONE', #218, #411, #346 ) ;
#90 = CARTESIAN_POINT ( 'NONE',  ( 1.387778780781445676E-14, 2817.965330118411202, 0.000000000000000000 ) ) ;
#91 = PRODUCT_RELATED_PRODUCT_CATEGORY ( 'detail', '', ( #246 ) ) ;
#92 = EDGE_CURVE ( 'NONE', #33, #37, #113, .T. ) ;
#93 = DIRECTION ( 'NONE',  ( -1.000000000000000000, 4.596983092540343816E-18, 0.000000000000000000 ) ) ;
#94 = PERSON_AND_ORGANIZATION_ROLE ( 'design_owner' ) ;
#95 = ORIENTED_EDGE ( 'NONE', *, *, #383, .T. ) ;
#96 = DIRECTION ( 'NONE',  ( 0.000000000000000000, 0.000000000000000000, 1.000000000000000000 ) ) ;
#97 = EDGE_LOOP ( 'NONE', ( #20, #403, #241 ) ) ;
#98 = DIRECTION ( 'NONE',  ( -0.000000000000000000, 0.000000000000000000, -1.000000000000000000 ) ) ;
#99 = APPLICATION_PROTOCOL_DEFINITION ( 'international standard', 'config_control_design', 1994, #351 ) ;
#100 = ORIENTED_EDGE ( 'NONE', *, *, #92, .T. ) ;
#101 = CARTESIAN_POINT ( 'NONE',  ( -39.99999999999997868, 2817.965330118411202, 0.000000000000000000 ) ) ;
#102 = APPROVAL ( #360, 'UNSPECIFIED' ) ;
#103 = VERTEX_POINT ( 'NONE', #108 ) ;
#104 = CARTESIAN_POINT ( 'NONE',  ( 1.293088151477994354E-31, 1.467661680459635631, 0.000000000000000000 ) ) ;
#105 = PERSON_AND_ORGANIZATION ( #347, #83 ) ;
#106 = AXIS2_PLACEMENT_3D ( 'NONE', #170, #98, #292 ) ;
#107 = ADVANCED_FACE ( 'NONE', ( #236 ), #288, .F. ) ;
#108 = CARTESIAN_POINT ( 'NONE',  ( -42.00000000000000000, 1.467661680459642293, 0.000000000000000000 ) ) ;
#109 = DIRECTION ( 'NONE',  ( -1.000000000000000000, 4.596983092540343816E-18, 0.000000000000000000 ) ) ;
#110 = ORIENTED_EDGE ( 'NONE', *, *, #280, .T. ) ;
#111 = CARTESIAN_POINT ( 'NONE',  ( 9.702595056537483623E-16, 10.13940552318626231, 0.000000000000000000 ) ) ;
#112 = ORIENTED_EDGE ( 'NONE', *, *, #280, .F. ) ;
#113 = CIRCLE ( 'NONE', #211, 10.59999999999999076 ) ;
#114 = DIRECTION ( 'NONE',  ( 4.596983092540343816E-18, 1.000000000000000000, -0.000000000000000000 ) ) ;
#115 = ORIENTED_EDGE ( 'NONE', *, *, #250, .T. ) ;
#116 = CARTESIAN_POINT ( 'NONE',  ( 7.671284933194307036E-15, 8.503227439652892627, 0.000000000000000000 ) ) ;
#117 = EDGE_CURVE ( 'NONE', #142, #397, #313, .T. ) ;
#118 = AXIS2_PLACEMENT_3D ( 'NONE', #373, #21, #147 ) ;
#119 = CIRCLE ( 'NONE', #314, 42.00000000000000000 ) ;
#120 = SPHERICAL_SURFACE ( 'NONE', #290, 65.20000000000000284 ) ;
#121 = ADVANCED_BREP_SHAPE_REPRESENTATION ( '3D_R365_84x2_173371140', ( #137, #247 ), #283 ) ;
#122 = CARTESIAN_POINT ( 'NONE',  ( 7.433606070824454732E-15, -43.20000000000000995, 0.000000000000000000 ) ) ;
#123 = DIRECTION ( 'NONE',  ( 4.596983092540343816E-18, 1.000000000000000000, -0.000000000000000000 ) ) ;
#124 = PERSON_AND_ORGANIZATION_ROLE ( 'design_supplier' ) ;
#125 = ORIENTED_EDGE ( 'NONE', *, *, #17, .F. ) ;
#126 = DATE_AND_TIME ( #65, #181 ) ;
#127 = ORIENTED_EDGE ( 'NONE', *, *, #131, .T. ) ;
#128 = DIRECTION ( 'NONE',  ( 4.596983092540343816E-18, 1.000000000000000000, -0.000000000000000000 ) ) ;
#129 = CIRCLE ( 'NONE', #35, 39.99999999999999289 ) ;
#130 = APPROVAL_STATUS ( 'not_yet_approved' ) ;
#131 = EDGE_CURVE ( 'NONE', #37, #204, #223, .T. ) ;
#132 = ORIENTED_EDGE ( 'NONE', *, *, #52, .T. ) ;
#133 = PERSON_AND_ORGANIZATION ( #347, #83 ) ;
#134 = DIRECTION ( 'NONE',  ( -1.000000000000000000, 5.162867488026211737E-18, 0.000000000000000000 ) ) ;
#135 = ORIENTED_EDGE ( 'NONE', *, *, #87, .T. ) ;
#136 = ORIENTED_EDGE ( 'NONE', *, *, #250, .F. ) ;
#137 = MANIFOLD_SOLID_BREP ( 'Wandung1', #348 ) ;
#138 = EDGE_CURVE ( 'NONE', #397, #142, #355, .T. ) ;
#139 = DIRECTION ( 'NONE',  ( -1.000000000000000000, 5.421010862427522170E-18, 0.000000000000000000 ) ) ;
#140 = DIRECTION ( 'NONE',  ( -0.000000000000000000, 0.000000000000000000, -1.000000000000000000 ) ) ;
#141 = TOROIDAL_SURFACE ( 'NONE', #388, 31.40000000000000568, 10.59999999999999432 ) ;
#142 = VERTEX_POINT ( 'NONE', #81 ) ;
#143 = CARTESIAN_POINT ( 'NONE',  ( 7.433606070824454732E-15, -43.20000000000000995, 0.000000000000000000 ) ) ;
#144 = DIRECTION ( 'NONE',  ( -1.000000000000000000, 0.000000000000000000, 0.000000000000000000 ) ) ;
#145 = ADVANCED_FACE ( 'NONE', ( #338 ), #396, .F. ) ;
#146 = LINE ( 'NONE', #340, #217 ) ;
#147 = DIRECTION ( 'NONE',  ( -1.000000000000000000, 0.000000000000000000, 0.000000000000000000 ) ) ;
#148 = ADVANCED_FACE ( 'NONE', ( #213 ), #152, .F. ) ;
#149 = CARTESIAN_POINT ( 'NONE',  ( 9.303956458258940662E-16, 1.467661680459642071, 0.000000000000000000 ) ) ;
#150 = CYLINDRICAL_SURFACE ( 'NONE', #18, 39.99999999999999289 ) ;
#151 = CIRCLE ( 'NONE', #235, 40.00000000000000000 ) ;
#152 = TOROIDAL_SURFACE ( 'NONE', #376, 31.40000000000000568, 8.599999999999994316 ) ;
#153 = CARTESIAN_POINT ( 'NONE',  ( -36.34578754578751614, 8.503227439652892627, 0.000000000000000000 ) ) ;
#154 = UNCERTAINTY_MEASURE_WITH_UNIT (LENGTH_MEASURE( 1.000000000000000082E-05 ), #342, 'distance_accuracy_value', 'NONE');
#155 = CARTESIAN_POINT ( 'NONE',  ( 36.34578754578753035, 8.503227439652892627, 4.674831217316628154E-15 ) ) ;
#156 = APPROVAL_PERSON_ORGANIZATION ( #260, #61, #202 ) ;
#157 = CARTESIAN_POINT ( 'NONE',  ( 42.00000000000000711, 2817.965330118411202, 5.143516556418882533E-15 ) ) ;
#158 = PERSON_AND_ORGANIZATION ( #347, #83 ) ;
#159 = DIRECTION ( 'NONE',  ( -1.000000000000000000, 5.421010862427522170E-18, 0.000000000000000000 ) ) ;
#160 = EDGE_CURVE ( 'NONE', #103, #204, #85, .T. ) ;
#161 = EDGE_LOOP ( 'NONE', ( #329, #267, #46, #197 ) ) ;
#162 = DATE_AND_TIME ( #321, #278 ) ;
#163 = VERTEX_POINT ( 'NONE', #48 ) ;
#164 = CARTESIAN_POINT ( 'NONE',  ( 31.40000000000000568, 1.467661680459607210, 3.845390949322689332E-15 ) ) ;
#165 = AXIS2_PLACEMENT_3D ( 'NONE', #309, #190, #84 ) ;
#166 = AXIS2_PLACEMENT_3D ( 'NONE', #191, #114, #109 ) ;
#167 = PERSON_AND_ORGANIZATION_ROLE ( 'creator' ) ;
#168 = EDGE_CURVE ( 'NONE', #204, #37, #317, .T. ) ;
#169 = APPROVAL_DATE_TIME ( #162, #61 ) ;
#170 = CARTESIAN_POINT ( 'NONE',  ( -31.40000000000000568, 1.467661680459607654, 0.000000000000000000 ) ) ;
#171 = ORIENTED_EDGE ( 'NONE', *, *, #160, .F. ) ;
#172 = LINE ( 'NONE', #349, #345 ) ;
#173 = ORIENTED_EDGE ( 'NONE', *, *, #31, .T. ) ;
#174 = CIRCLE ( 'NONE', #229, 39.99999999999999289 ) ;
#175 = DIRECTION ( 'NONE',  ( 4.596983092540343816E-18, 1.000000000000000000, -0.000000000000000000 ) ) ;
#176 = AXIS2_PLACEMENT_3D ( 'NONE', #237, #208, #271 ) ;
#177 = ORIENTED_EDGE ( 'NONE', *, *, #92, .F. ) ;
#178 = ADVANCED_FACE ( 'NONE', ( #367 ), #306, .F. ) ;
#179 = FACE_OUTER_BOUND ( 'NONE', #201, .T. ) ;
#180 = ORIENTED_EDGE ( 'NONE', *, *, #399, .T. ) ;
#181 = LOCAL_TIME ( 8, 34, 51.00000000000000000, #382 ) ;
#182 = DIRECTION ( 'NONE',  ( -1.000000000000000000, 0.000000000000000000, 0.000000000000000000 ) ) ;
#183 = CARTESIAN_POINT ( 'NONE',  ( 7.433606070824454732E-15, -43.20000000000000995, 0.000000000000000000 ) ) ;
#184 =( NAMED_UNIT ( * ) PLANE_ANGLE_UNIT ( ) SI_UNIT ( $, .RADIAN. ) );
#185 = CARTESIAN_POINT ( 'NONE',  ( 7.433606070824454732E-15, -43.20000000000000995, 0.000000000000000000 ) ) ;
#186 = CC_DESIGN_DATE_AND_TIME_ASSIGNMENT ( #325, #233, ( #232 ) ) ;
#187 = DIRECTION ( 'NONE',  ( 4.596983092540343816E-18, 1.000000000000000000, -0.000000000000000000 ) ) ;
#188 = CARTESIAN_POINT ( 'NONE',  ( 3.854251516967368203E-15, 19.99999999999999645, 0.000000000000000000 ) ) ;
#189 = CIRCLE ( 'NONE', #165, 36.34578754578752324 ) ;
#190 = DIRECTION ( 'NONE',  ( 4.596983092540343816E-18, 1.000000000000000000, -0.000000000000000000 ) ) ;
#191 = CARTESIAN_POINT ( 'NONE',  ( 9.236488298952508525E-16, 0.000000000000000000, 0.000000000000000000 ) ) ;
#192 = EDGE_CURVE ( 'NONE', #397, #103, #146, .T. ) ;
#193 = CIRCLE ( 'NONE', #248, 65.20000000000000284 ) ;
#194 = COORDINATED_UNIVERSAL_TIME_OFFSET ( 1, 0, .AHEAD. ) ;
#195 = VERTEX_POINT ( 'NONE', #47 ) ;
#196 = APPROVAL_STATUS ( 'not_yet_approved' ) ;
#197 = ORIENTED_EDGE ( 'NONE', *, *, #192, .F. ) ;
#198 = CARTESIAN_POINT ( 'NONE',  ( 9.236488298952508525E-16, 0.000000000000000000, 0.000000000000000000 ) ) ;
#199 = CC_DESIGN_PERSON_AND_ORGANIZATION_ASSIGNMENT ( #105, #124, ( #57 ) ) ;
#200 = COORDINATED_UNIVERSAL_TIME_OFFSET ( 1, 0, .AHEAD. ) ;
#201 = EDGE_LOOP ( 'NONE', ( #326, #127, #206 ) ) ;
#202 = APPROVAL_ROLE ( '' ) ;
#203 = CARTESIAN_POINT ( 'NONE',  ( 7.433606070824454732E-15, -43.20000000000000995, 0.000000000000000000 ) ) ;
#204 = VERTEX_POINT ( 'NONE', #405 ) ;
#205 = CARTESIAN_POINT ( 'NONE',  ( 39.99999999999999289, -1.838793237016137280E-16, 4.898587196589412237E-15 ) ) ;
#206 = ORIENTED_EDGE ( 'NONE', *, *, #238, .T. ) ;
#207 = APPROVAL_PERSON_ORGANIZATION ( #133, #102, #70 ) ;
#208 = DIRECTION ( 'NONE',  ( -0.000000000000000000, 0.000000000000000000, -1.000000000000000000 ) ) ;
#209 = ADVANCED_FACE ( 'NONE', ( #301 ), #141, .T. ) ;
#210 = EDGE_LOOP ( 'NONE', ( #136, #132, #287 ) ) ;
#211 = AXIS2_PLACEMENT_3D ( 'NONE', #164, #298, #395 ) ;
#212 = DIRECTION ( 'NONE',  ( 0.000000000000000000, 0.000000000000000000, 1.000000000000000000 ) ) ;
#213 = FACE_OUTER_BOUND ( 'NONE', #44, .T. ) ;
#214 = LOCAL_TIME ( 8, 34, 51.00000000000000000, #200 ) ;
#215 = DIRECTION ( 'NONE',  ( -1.000000000000000000, 0.000000000000000000, 0.000000000000000000 ) ) ;
#216 = DIRECTION ( 'NONE',  ( 0.000000000000000000, 0.000000000000000000, 1.000000000000000000 ) ) ;
#217 = VECTOR ( 'NONE', #41, 1000.000000000000000 ) ;
#218 = CARTESIAN_POINT ( 'NONE',  ( 31.40000000000000568, 1.467661680459607210, 3.845390949322689332E-15 ) ) ;
#219 = CIRCLE ( 'NONE', #89, 8.599999999999996092 ) ;
#220 = CARTESIAN_POINT ( 'NONE',  ( 0.000000000000000000, 1.467661680459607432, 0.000000000000000000 ) ) ;
#221 = ADVANCED_FACE ( 'NONE', ( #179 ), #305, .T. ) ;
#222 = CYLINDRICAL_SURFACE ( 'NONE', #272, 41.99999999999999289 ) ;
#223 = CIRCLE ( 'NONE', #335, 37.49597069597069776 ) ;
#224 = DIRECTION ( 'NONE',  ( -1.000000000000000000, 0.000000000000000000, 0.000000000000000000 ) ) ;
#225 = SECURITY_CLASSIFICATION_LEVEL ( 'unclassified' ) ;
#226 = EDGE_LOOP ( 'NONE', ( #112, #361, #274, #7 ) ) ;
#227 = COORDINATED_UNIVERSAL_TIME_OFFSET ( 1, 0, .AHEAD. ) ;
#228 = DIRECTION ( 'NONE',  ( 4.596983092540343816E-18, 1.000000000000000000, -0.000000000000000000 ) ) ;
#229 = AXIS2_PLACEMENT_3D ( 'NONE', #198, #64, #359 ) ;
#230 = AXIS2_PLACEMENT_3D ( 'NONE', #111, #19, #182 ) ;
#231 = PERSON_AND_ORGANIZATION_ROLE ( 'classification_officer' ) ;
#232 = SECURITY_CLASSIFICATION ( '', '', #225 ) ;
#233 = DATE_TIME_ROLE ( 'classification_date' ) ;
#234 = CARTESIAN_POINT ( 'NONE',  ( 42.00000000000000000, 1.467661680459641849, 5.143516556418883322E-15 ) ) ;
#235 = AXIS2_PLACEMENT_3D ( 'NONE', #104, #228, #139 ) ;
#236 = FACE_OUTER_BOUND ( 'NONE', #210, .T. ) ;
#237 = CARTESIAN_POINT ( 'NONE',  ( -31.40000000000000568, 1.467661680459607654, 0.000000000000000000 ) ) ;
#238 = EDGE_CURVE ( 'NONE', #204, #369, #193, .T. ) ;
#239 = ORIENTED_EDGE ( 'NONE', *, *, #268, .F. ) ;
#240 = DIRECTION ( 'NONE',  ( 0.000000000000000000, 0.000000000000000000, 1.000000000000000000 ) ) ;
#241 = ORIENTED_EDGE ( 'NONE', *, *, #256, .T. ) ;
#242 = AXIS2_PLACEMENT_3D ( 'NONE', #323, #59, #134 ) ;
#243 = DIRECTION ( 'NONE',  ( -1.000000000000000000, 0.000000000000000000, 0.000000000000000000 ) ) ;
#244 = EDGE_LOOP ( 'NONE', ( #409, #334, #115, #302 ) ) ;
#245 = CARTESIAN_POINT ( 'NONE',  ( 9.236488298952508525E-16, 0.000000000000000000, 0.000000000000000000 ) ) ;
#246 = PRODUCT ( '3D_R365_84x2_173371140', '3D_R365_84x2_173371140', '', ( #353 ) ) ;
#247 = AXIS2_PLACEMENT_3D ( 'NONE', #38, #96, #9 ) ;
#248 = AXIS2_PLACEMENT_3D ( 'NONE', #366, #277, #407 ) ;
#249 = CARTESIAN_POINT ( 'NONE',  ( 0.000000000000000000, 1.467661680459607432, 0.000000000000000000 ) ) ;
#250 = EDGE_CURVE ( 'NONE', #358, #391, #62, .T. ) ;
#251 = CARTESIAN_POINT ( 'NONE',  ( -40.00000000000000000, 1.467661680459635853, 0.000000000000000000 ) ) ;
#252 = CC_DESIGN_APPROVAL ( #61, ( #232 ) ) ;
#253 = FACE_OUTER_BOUND ( 'NONE', #161, .T. ) ;
#254 = AXIS2_PLACEMENT_3D ( 'NONE', #262, #266, #39 ) ;
#255 = CIRCLE ( 'NONE', #74, 65.20000000000000284 ) ;
#256 = EDGE_CURVE ( 'NONE', #391, #286, #24, .T. ) ;
#257 = EDGE_LOOP ( 'NONE', ( #77, #386 ) ) ;
#258 = CARTESIAN_POINT ( 'NONE',  ( 7.433606070824454732E-15, -43.20000000000000995, 0.000000000000000000 ) ) ;
#259 = APPROVAL ( #130, 'UNSPECIFIED' ) ;
#260 = PERSON_AND_ORGANIZATION ( #347, #83 ) ;
#261 = VERTEX_POINT ( 'NONE', #205 ) ;
#262 = CARTESIAN_POINT ( 'NONE',  ( 1.387778780781445676E-14, 2817.965330118411202, 0.000000000000000000 ) ) ;
#263 = PERSON_AND_ORGANIZATION ( #347, #83 ) ;
#264 = CALENDAR_DATE ( 2024, 16, 7 ) ;
#265 = EDGE_LOOP ( 'NONE', ( #69, #291, #15, #72 ) ) ;
#266 = DIRECTION ( 'NONE',  ( 4.596983092540343816E-18, 1.000000000000000000, -0.000000000000000000 ) ) ;
#267 = ORIENTED_EDGE ( 'NONE', *, *, #299, .T. ) ;
#268 = EDGE_CURVE ( 'NONE', #261, #195, #129, .T. ) ;
#269 = CARTESIAN_POINT ( 'NONE',  ( 0.000000000000000000, 1.467661680459607432, 0.000000000000000000 ) ) ;
#270 = ORIENTED_EDGE ( 'NONE', *, *, #168, .F. ) ;
#271 = DIRECTION ( 'NONE',  ( -1.000000000000000000, 0.000000000000000000, 0.000000000000000000 ) ) ;
#272 = AXIS2_PLACEMENT_3D ( 'NONE', #90, #123, #54 ) ;
#273 = DIRECTION ( 'NONE',  ( 4.596983092540343816E-18, 1.000000000000000000, -0.000000000000000000 ) ) ;
#274 = ORIENTED_EDGE ( 'NONE', *, *, #43, .T. ) ;
#275 = CIRCLE ( 'NONE', #365, 40.00000000000000000 ) ;
#276 = CARTESIAN_POINT ( 'NONE',  ( 9.702595056537483623E-16, 10.13940552318626231, 0.000000000000000000 ) ) ;
#277 = DIRECTION ( 'NONE',  ( -0.000000000000000000, 0.000000000000000000, -1.000000000000000000 ) ) ;
#278 = LOCAL_TIME ( 8, 34, 51.00000000000000000, #384 ) ;
#279 = FACE_BOUND ( 'NONE', #257, .T. ) ;
#280 = EDGE_CURVE ( 'NONE', #261, #163, #172, .T. ) ;
#281 = DIRECTION ( 'NONE',  ( -1.000000000000000000, 4.596983092540343816E-18, 0.000000000000000000 ) ) ;
#282 = DIRECTION ( 'NONE',  ( -1.224646799147353207E-16, 5.629680630014033300E-34, 1.000000000000000000 ) ) ;
#283 =( GEOMETRIC_REPRESENTATION_CONTEXT ( 3 ) GLOBAL_UNCERTAINTY_ASSIGNED_CONTEXT ( ( #154 ) ) GLOBAL_UNIT_ASSIGNED_CONTEXT ( ( #342, #184, #377 ) ) REPRESENTATION_CONTEXT ( 'NONE', 'WORKASPACE' ) );
#284 = CC_DESIGN_DATE_AND_TIME_ASSIGNMENT ( #352, #36, ( #28 ) ) ;
#285 = DIRECTION ( 'NONE',  ( 4.596983092540343816E-18, 1.000000000000000000, -0.000000000000000000 ) ) ;
#286 = VERTEX_POINT ( 'NONE', #188 ) ;
#287 = ORIENTED_EDGE ( 'NONE', *, *, #256, .F. ) ;
#288 = SPHERICAL_SURFACE ( 'NONE', #25, 63.20000000000000284 ) ;
#289 = CC_DESIGN_PERSON_AND_ORGANIZATION_ASSIGNMENT ( #11, #231, ( #232 ) ) ;
#290 = AXIS2_PLACEMENT_3D ( 'NONE', #122, #216, #53 ) ;
#291 = ORIENTED_EDGE ( 'NONE', *, *, #117, .T. ) ;
#292 = DIRECTION ( 'NONE',  ( -1.000000000000000000, 0.000000000000000000, 0.000000000000000000 ) ) ;
#293 = ADVANCED_FACE ( 'NONE', ( #253 ), #222, .T. ) ;
#294 = CIRCLE ( 'NONE', #242, 42.00000000000000000 ) ;
#295 = CALENDAR_DATE ( 2024, 16, 7 ) ;
#296 = ORIENTED_EDGE ( 'NONE', *, *, #56, .T. ) ;
#297 = CC_DESIGN_PERSON_AND_ORGANIZATION_ASSIGNMENT ( #263, #392, ( #57 ) ) ;
#298 = DIRECTION ( 'NONE',  ( -1.224646799147353207E-16, 5.629680630014033300E-34, 1.000000000000000000 ) ) ;
#299 = EDGE_CURVE ( 'NONE', #142, #33, #30, .T. ) ;
#300 = EDGE_LOOP ( 'NONE', ( #319, #80, #63 ) ) ;
#301 = FACE_OUTER_BOUND ( 'NONE', #322, .T. ) ;
#302 = ORIENTED_EDGE ( 'NONE', *, *, #56, .F. ) ;
#303 = CARTESIAN_POINT ( 'NONE',  ( 9.236488298952508525E-16, 0.000000000000000000, 0.000000000000000000 ) ) ;
#304 = VERTEX_POINT ( 'NONE', #251 ) ;
#305 = SPHERICAL_SURFACE ( 'NONE', #410, 65.20000000000000284 ) ;
#306 = CYLINDRICAL_SURFACE ( 'NONE', #118, 39.99999999999999289 ) ;
#307 = DIRECTION ( 'NONE',  ( 0.000000000000000000, 0.000000000000000000, 1.000000000000000000 ) ) ;
#308 = PRODUCT_DEFINITION_SHAPE ( 'NONE', 'NONE',  #28 ) ;
#309 = CARTESIAN_POINT ( 'NONE',  ( 7.671284933194307036E-15, 8.503227439652892627, 0.000000000000000000 ) ) ;
#310 = EDGE_LOOP ( 'NONE', ( #66, #10 ) ) ;
#311 = EDGE_CURVE ( 'NONE', #163, #358, #219, .T. ) ;
#312 = CARTESIAN_POINT ( 'NONE',  ( 1.387778780781445676E-14, 2817.965330118411202, 0.000000000000000000 ) ) ;
#313 = CIRCLE ( 'NONE', #166, 41.99999999999999289 ) ;
#314 = AXIS2_PLACEMENT_3D ( 'NONE', #149, #86, #350 ) ;
#315 = DIRECTION ( 'NONE',  ( 1.000000000000000000, 0.000000000000000000, 1.224646799147353207E-16 ) ) ;
#316 = PLANE ( 'NONE',  #327 ) ;
#317 = CIRCLE ( 'NONE', #230, 37.49597069597069776 ) ;
#318 = ORIENTED_EDGE ( 'NONE', *, *, #160, .T. ) ;
#319 = ORIENTED_EDGE ( 'NONE', *, *, #168, .T. ) ;
#320 = ADVANCED_FACE ( 'NONE', ( #279, #6 ), #316, .T. ) ;
#321 = CALENDAR_DATE ( 2024, 16, 7 ) ;
#322 = EDGE_LOOP ( 'NONE', ( #135, #100, #270, #171 ) ) ;
#323 = CARTESIAN_POINT ( 'NONE',  ( 9.303956458258940662E-16, 1.467661680459642071, 0.000000000000000000 ) ) ;
#324 = LOCAL_TIME ( 8, 34, 51.00000000000000000, #194 ) ;
#325 = DATE_AND_TIME ( #264, #214 ) ;
#326 = ORIENTED_EDGE ( 'NONE', *, *, #343, .F. ) ;
#327 = AXIS2_PLACEMENT_3D ( 'NONE', #1, #379, #51 ) ;
#328 = PERSON_AND_ORGANIZATION ( #347, #83 ) ;
#329 = ORIENTED_EDGE ( 'NONE', *, *, #138, .T. ) ;
#330 = DIRECTION ( 'NONE',  ( -1.224646799147353207E-16, 5.629680630014033300E-34, 1.000000000000000000 ) ) ;
#331 = DIRECTION ( 'NONE',  ( 4.596983092540343816E-18, 1.000000000000000000, -0.000000000000000000 ) ) ;
#332 = EDGE_LOOP ( 'NONE', ( #177, #95, #318, #34 ) ) ;
#333 = DIRECTION ( 'NONE',  ( -1.000000000000000000, 4.596983092540343816E-18, 0.000000000000000000 ) ) ;
#334 = ORIENTED_EDGE ( 'NONE', *, *, #311, .T. ) ;
#335 = AXIS2_PLACEMENT_3D ( 'NONE', #276, #273, #243 ) ;
#336 = DIRECTION ( 'NONE',  ( -1.000000000000000000, 4.596983092540343816E-18, 0.000000000000000000 ) ) ;
#337 = ORIENTED_EDGE ( 'NONE', *, *, #43, .F. ) ;
#338 = FACE_OUTER_BOUND ( 'NONE', #97, .T. ) ;
#339 = CC_DESIGN_APPROVAL ( #102, ( #28 ) ) ;
#340 = CARTESIAN_POINT ( 'NONE',  ( -41.99999999999997868, 2817.965330118411202, 0.000000000000000000 ) ) ;
#341 = AXIS2_PLACEMENT_3D ( 'NONE', #220, #55, #281 ) ;
#342 =( LENGTH_UNIT ( ) NAMED_UNIT ( * ) SI_UNIT ( .MILLI., .METRE. ) );
#343 = EDGE_CURVE ( 'NONE', #37, #369, #255, .T. ) ;
#344 = CARTESIAN_POINT ( 'NONE',  ( -41.99999999999999289, 1.930732898866944033E-16, 0.000000000000000000 ) ) ;
#345 = VECTOR ( 'NONE', #187, 1000.000000000000000 ) ;
#346 = DIRECTION ( 'NONE',  ( 1.000000000000000000, 0.000000000000000000, 1.224646799147352961E-16 ) ) ;
#347 = PERSON ( 'UNSPECIFIED', 'UNSPECIFIED', 'UNSPECIFIED', ('UNSPECIFIED'), ('UNSPECIFIED'), ('UNSPECIFIED') ) ;
#348 = CLOSED_SHELL ( 'NONE', ( #107, #356, #178, #406, #209, #293, #320, #22, #363, #221, #374, #148, #145 ) ) ;
#349 = CARTESIAN_POINT ( 'NONE',  ( 40.00000000000000711, 2817.965330118411202, 4.898587196589412237E-15 ) ) ;
#350 = DIRECTION ( 'NONE',  ( -1.000000000000000000, 5.162867488026211737E-18, 0.000000000000000000 ) ) ;
#351 = APPLICATION_CONTEXT ( 'configuration controlled 3d designs of mechanical parts and assemblies' ) ;
#352 = DATE_AND_TIME ( #295, #42 ) ;
#353 = MECHANICAL_CONTEXT ( 'NONE', #351, 'mechanical' ) ;
#354 = CARTESIAN_POINT ( 'NONE',  ( 37.49597069597069776, 10.13940552318626231, 4.867724302896616146E-15 ) ) ;
#355 = CIRCLE ( 'NONE', #16, 41.99999999999999289 ) ;
#356 = ADVANCED_FACE ( 'NONE', ( #408 ), #50, .F. ) ;
#357 = PERSON_AND_ORGANIZATION ( #347, #83 ) ;
#358 = VERTEX_POINT ( 'NONE', #155 ) ;
#359 = DIRECTION ( 'NONE',  ( 1.000000000000000000, -4.596983092540343816E-18, 0.000000000000000000 ) ) ;
#360 = APPROVAL_STATUS ( 'not_yet_approved' ) ;
#361 = ORIENTED_EDGE ( 'NONE', *, *, #76, .F. ) ;
#362 = APPROVAL_DATE_TIME ( #126, #102 ) ;
#363 = ADVANCED_FACE ( 'NONE', ( #4 ), #404, .T. ) ;
#364 = LINE ( 'NONE', #101, #71 ) ;
#365 = AXIS2_PLACEMENT_3D ( 'NONE', #14, #128, #159 ) ;
#366 = CARTESIAN_POINT ( 'NONE',  ( 7.433606070824454732E-15, -43.20000000000000995, 0.000000000000000000 ) ) ;
#367 = FACE_OUTER_BOUND ( 'NONE', #401, .T. ) ;
#368 = AXIS2_PLACEMENT_3D ( 'NONE', #45, #140, #75 ) ;
#369 = VERTEX_POINT ( 'NONE', #375 ) ;
#370 = DIRECTION ( 'NONE',  ( -1.000000000000000000, 0.000000000000000000, 0.000000000000000000 ) ) ;
#371 = CC_DESIGN_PERSON_AND_ORGANIZATION_ASSIGNMENT ( #158, #167, ( #28 ) ) ;
#372 = DIRECTION ( 'NONE',  ( -1.000000000000000000, 4.596983092540343816E-18, 0.000000000000000000 ) ) ;
#373 = CARTESIAN_POINT ( 'NONE',  ( 1.387778780781445676E-14, 2817.965330118411202, 0.000000000000000000 ) ) ;
#374 = ADVANCED_FACE ( 'NONE', ( #380 ), #150, .F. ) ;
#375 = CARTESIAN_POINT ( 'NONE',  ( 3.740980803237713287E-15, 22.00000000000000000, 0.000000000000000000 ) ) ;
#376 = AXIS2_PLACEMENT_3D ( 'NONE', #23, #78, #336 ) ;
#377 =( NAMED_UNIT ( * ) SI_UNIT ( $, .STERADIAN. ) SOLID_ANGLE_UNIT ( ) );
#378 = FACE_OUTER_BOUND ( 'NONE', #300, .T. ) ;
#379 = DIRECTION ( 'NONE',  ( -4.596983092540343816E-18, -1.000000000000000000, 0.000000000000000000 ) ) ;
#380 = FACE_OUTER_BOUND ( 'NONE', #226, .T. ) ;
#381 = VECTOR ( 'NONE', #285, 1000.000000000000000 ) ;
#382 = COORDINATED_UNIVERSAL_TIME_OFFSET ( 1, 0, .AHEAD. ) ;
#383 = EDGE_CURVE ( 'NONE', #33, #103, #119, .T. ) ;
#384 = COORDINATED_UNIVERSAL_TIME_OFFSET ( 1, 0, .AHEAD. ) ;
#385 = CIRCLE ( 'NONE', #106, 8.599999999999996092 ) ;
#386 = ORIENTED_EDGE ( 'NONE', *, *, #268, .T. ) ;
#387 = CYLINDRICAL_SURFACE ( 'NONE', #254, 41.99999999999999289 ) ;
#388 = AXIS2_PLACEMENT_3D ( 'NONE', #269, #82, #333 ) ;
#389 = AXIS2_PLACEMENT_3D ( 'NONE', #249, #29, #93 ) ;
#390 = APPLICATION_PROTOCOL_DEFINITION ( 'international standard', 'config_control_design', 1994, #26 ) ;
#391 = VERTEX_POINT ( 'NONE', #153 ) ;
#392 = PERSON_AND_ORGANIZATION_ROLE ( 'creator' ) ;
#393 = APPROVAL_PERSON_ORGANIZATION ( #328, #259, #60 ) ;
#394 = ORIENTED_EDGE ( 'NONE', *, *, #311, .F. ) ;
#395 = DIRECTION ( 'NONE',  ( 1.000000000000000000, 0.000000000000000000, 1.224646799147353947E-16 ) ) ;
#396 = SPHERICAL_SURFACE ( 'NONE', #27, 63.20000000000000284 ) ;
#397 = VERTEX_POINT ( 'NONE', #344 ) ;
#398 = DIRECTION ( 'NONE',  ( 4.596983092540343816E-18, 1.000000000000000000, -0.000000000000000000 ) ) ;
#399 = EDGE_CURVE ( 'NONE', #391, #358, #189, .T. ) ;
#400 = AXIS2_PLACEMENT_3D ( 'NONE', #116, #175, #370 ) ;
#401 = EDGE_LOOP ( 'NONE', ( #239, #110, #173, #337 ) ) ;
#402 = DIRECTION ( 'NONE',  ( -1.000000000000000000, 0.000000000000000000, 0.000000000000000000 ) ) ;
#403 = ORIENTED_EDGE ( 'NONE', *, *, #399, .F. ) ;
#404 = TOROIDAL_SURFACE ( 'NONE', #389, 31.40000000000000568, 10.59999999999999432 ) ;
#405 = CARTESIAN_POINT ( 'NONE',  ( -37.49597069597069776, 10.13940552318626231, 0.000000000000000000 ) ) ;
#406 = ADVANCED_FACE ( 'NONE', ( #378 ), #120, .T. ) ;
#407 = DIRECTION ( 'NONE',  ( -1.000000000000000000, 0.000000000000000000, 0.000000000000000000 ) ) ;
#408 = FACE_OUTER_BOUND ( 'NONE', #244, .T. ) ;
#409 = ORIENTED_EDGE ( 'NONE', *, *, #31, .F. ) ;
#410 = AXIS2_PLACEMENT_3D ( 'NONE', #183, #240, #144 ) ;
#411 = DIRECTION ( 'NONE',  ( -1.224646799147353207E-16, 5.629680630014033300E-34, 1.000000000000000000 ) ) ;
ENDSEC;
END-ISO-10303-21;
