ISO-10303-21;
HEADER;
/* Generated by software containing ST-Developer
 * from STEP Tools, Inc. (www.steptools.com) 
 */

FILE_DESCRIPTION(
/* description */ (''),
/* implementation_level */ '2;1');

FILE_NAME(
/* name */ 
'C:\\Users\\cad\\Desktop\\Zeichnungen neu von Ralph\\3D_Kupplung_R666-
G\\3D_R666-G-DN15-DN25_17113520.stp',
/* time_stamp */ '2021-06-21T14:22:30+02:00',
/* author */ ('cad'),
/* organization */ (''),
/* preprocessor_version */ 'ST-DEVELOPER v18.1',
/* originating_system */ 'Autodesk Inventor 2022',
/* authorisation */ '');

FILE_SCHEMA (('AUTOMOTIVE_DESIGN { 1 0 10303 214 3 1 1 }'));
ENDSEC;

DATA;
#10=MECHANICAL_DESIGN_GEOMETRIC_PRESENTATION_REPRESENTATION('',(#13),#581);
#11=SHAPE_REPRESENTATION_RELATIONSHIP('SRR','None',#588,#12);
#12=ADVANCED_BREP_SHAPE_REPRESENTATION('',(#14),#580);
#13=STYLED_ITEM('',(#597),#14);
#14=MANIFOLD_SOLID_BREP('Volumenk\X\F6rper1',#313);
#15=TOROIDAL_SURFACE('',#359,13.75,0.5);
#16=FACE_BOUND('',#81,.T.);
#17=FACE_BOUND('',#90,.T.);
#18=CONICAL_SURFACE('',#345,13.1,0.785398163397456);
#19=CONICAL_SURFACE('',#347,8.8,0.785398163397448);
#20=CONICAL_SURFACE('',#351,13.1,0.785398163397456);
#21=CONICAL_SURFACE('',#355,10.0655,0.78539816339745);
#22=CONICAL_SURFACE('',#363,13.9,1.20362249297668);
#23=CONICAL_SURFACE('',#366,15.55,0.785398163397448);
#24=CONICAL_SURFACE('',#372,15.55,0.785398163397448);
#25=CIRCLE('',#340,13.25);
#26=CIRCLE('',#341,13.25);
#27=CIRCLE('',#342,13.25);
#28=CIRCLE('',#343,13.25);
#29=CIRCLE('',#344,13.25);
#30=CIRCLE('',#346,12.95);
#31=CIRCLE('',#348,9.8);
#32=CIRCLE('',#349,9.3155);
#33=CIRCLE('',#350,9.3155);
#34=CIRCLE('',#352,12.95);
#35=CIRCLE('',#354,10.8155);
#36=CIRCLE('',#356,9.3155);
#37=CIRCLE('',#357,9.3155);
#38=CIRCLE('',#360,0.5);
#39=CIRCLE('',#361,13.5705104603456);
#40=CIRCLE('',#362,13.5705104603456);
#41=CIRCLE('',#364,14.55);
#42=CIRCLE('',#365,14.55);
#43=CIRCLE('',#367,16.55);
#44=CIRCLE('',#368,16.55);
#45=CIRCLE('',#370,16.55);
#46=CIRCLE('',#371,16.55);
#47=CIRCLE('',#373,14.55);
#48=CYLINDRICAL_SURFACE('',#339,13.25);
#49=CYLINDRICAL_SURFACE('',#358,9.3155);
#50=CYLINDRICAL_SURFACE('',#369,16.55);
#51=(
BOUNDED_CURVE()
B_SPLINE_CURVE(2,(#487,#488,#489),.UNSPECIFIED.,.F.,.F.)
B_SPLINE_CURVE_WITH_KNOTS((3,3),(0.,0.10541768597061),.UNSPECIFIED.)
CURVE()
GEOMETRIC_REPRESENTATION_ITEM()
RATIONAL_B_SPLINE_CURVE((1.,1.00074452164598,1.))
REPRESENTATION_ITEM('')
);
#52=(
BOUNDED_CURVE()
B_SPLINE_CURVE(2,(#493,#494,#495),.UNSPECIFIED.,.F.,.F.)
B_SPLINE_CURVE_WITH_KNOTS((3,3),(0.,0.10541768597061),.UNSPECIFIED.)
CURVE()
GEOMETRIC_REPRESENTATION_ITEM()
RATIONAL_B_SPLINE_CURVE((1.,1.00074452164645,1.))
REPRESENTATION_ITEM('')
);
#53=(
BOUNDED_CURVE()
B_SPLINE_CURVE(2,(#506,#507,#508),.UNSPECIFIED.,.F.,.F.)
B_SPLINE_CURVE_WITH_KNOTS((3,3),(0.,0.105417685970609),.UNSPECIFIED.)
CURVE()
GEOMETRIC_REPRESENTATION_ITEM()
RATIONAL_B_SPLINE_CURVE((1.,1.00074452164553,1.))
REPRESENTATION_ITEM('')
);
#54=(
BOUNDED_CURVE()
B_SPLINE_CURVE(2,(#512,#513,#514),.UNSPECIFIED.,.F.,.F.)
B_SPLINE_CURVE_WITH_KNOTS((3,3),(0.,0.105417685970609),.UNSPECIFIED.)
CURVE()
GEOMETRIC_REPRESENTATION_ITEM()
RATIONAL_B_SPLINE_CURVE((1.,1.00074452164553,1.))
REPRESENTATION_ITEM('')
);
#55=FACE_OUTER_BOUND('',#72,.T.);
#56=FACE_OUTER_BOUND('',#73,.T.);
#57=FACE_OUTER_BOUND('',#74,.T.);
#58=FACE_OUTER_BOUND('',#75,.T.);
#59=FACE_OUTER_BOUND('',#76,.T.);
#60=FACE_OUTER_BOUND('',#77,.T.);
#61=FACE_OUTER_BOUND('',#78,.T.);
#62=FACE_OUTER_BOUND('',#79,.T.);
#63=FACE_OUTER_BOUND('',#80,.T.);
#64=FACE_OUTER_BOUND('',#82,.T.);
#65=FACE_OUTER_BOUND('',#83,.T.);
#66=FACE_OUTER_BOUND('',#84,.T.);
#67=FACE_OUTER_BOUND('',#85,.T.);
#68=FACE_OUTER_BOUND('',#86,.T.);
#69=FACE_OUTER_BOUND('',#87,.T.);
#70=FACE_OUTER_BOUND('',#88,.T.);
#71=FACE_OUTER_BOUND('',#89,.T.);
#72=EDGE_LOOP('',(#200,#201));
#73=EDGE_LOOP('',(#202,#203,#204,#205,#206,#207));
#74=EDGE_LOOP('',(#208,#209));
#75=EDGE_LOOP('',(#210,#211,#212,#213,#214,#215));
#76=EDGE_LOOP('',(#216,#217,#218,#219,#220,#221,#222,#223,#224,#225,#226,
#227,#228));
#77=EDGE_LOOP('',(#229,#230,#231,#232,#233));
#78=EDGE_LOOP('',(#234,#235,#236,#237,#238));
#79=EDGE_LOOP('',(#239,#240,#241,#242));
#80=EDGE_LOOP('',(#243,#244,#245,#246));
#81=EDGE_LOOP('',(#247));
#82=EDGE_LOOP('',(#248,#249,#250,#251,#252));
#83=EDGE_LOOP('',(#253,#254,#255,#256,#257,#258));
#84=EDGE_LOOP('',(#259,#260,#261,#262,#263,#264));
#85=EDGE_LOOP('',(#265,#266,#267,#268,#269,#270));
#86=EDGE_LOOP('',(#271,#272,#273,#274,#275,#276));
#87=EDGE_LOOP('',(#277,#278,#279,#280,#281,#282));
#88=EDGE_LOOP('',(#283,#284,#285,#286,#287));
#89=EDGE_LOOP('',(#288));
#90=EDGE_LOOP('',(#289));
#91=LINE('',#482,#107);
#92=LINE('',#485,#108);
#93=LINE('',#491,#109);
#94=LINE('',#496,#110);
#95=LINE('',#501,#111);
#96=LINE('',#504,#112);
#97=LINE('',#510,#113);
#98=LINE('',#515,#114);
#99=LINE('',#521,#115);
#100=LINE('',#532,#116);
#101=LINE('',#543,#117);
#102=LINE('',#548,#118);
#103=LINE('',#560,#119);
#104=LINE('',#566,#120);
#105=LINE('',#572,#121);
#106=LINE('',#576,#122);
#107=VECTOR('',#381,10.);
#108=VECTOR('',#384,10.);
#109=VECTOR('',#385,10.);
#110=VECTOR('',#386,10.);
#111=VECTOR('',#391,10.);
#112=VECTOR('',#394,10.);
#113=VECTOR('',#395,10.);
#114=VECTOR('',#396,10.);
#115=VECTOR('',#401,13.25);
#116=VECTOR('',#418,8.8);
#117=VECTOR('',#433,10.0655);
#118=VECTOR('',#440,9.3155);
#119=VECTOR('',#455,13.9);
#120=VECTOR('',#462,15.55);
#121=VECTOR('',#469,16.55);
#122=VECTOR('',#474,15.55);
#123=ELLIPSE('',#334,18.7383297014435,13.25);
#124=ELLIPSE('',#337,18.7383297014435,13.25);
#125=VERTEX_POINT('',#479);
#126=VERTEX_POINT('',#480);
#127=VERTEX_POINT('',#484);
#128=VERTEX_POINT('',#486);
#129=VERTEX_POINT('',#490);
#130=VERTEX_POINT('',#492);
#131=VERTEX_POINT('',#498);
#132=VERTEX_POINT('',#499);
#133=VERTEX_POINT('',#503);
#134=VERTEX_POINT('',#505);
#135=VERTEX_POINT('',#509);
#136=VERTEX_POINT('',#511);
#137=VERTEX_POINT('',#517);
#138=VERTEX_POINT('',#518);
#139=VERTEX_POINT('',#520);
#140=VERTEX_POINT('',#529);
#141=VERTEX_POINT('',#531);
#142=VERTEX_POINT('',#533);
#143=VERTEX_POINT('',#539);
#144=VERTEX_POINT('',#542);
#145=VERTEX_POINT('',#544);
#146=VERTEX_POINT('',#550);
#147=VERTEX_POINT('',#552);
#148=VERTEX_POINT('',#556);
#149=VERTEX_POINT('',#557);
#150=VERTEX_POINT('',#562);
#151=VERTEX_POINT('',#563);
#152=VERTEX_POINT('',#568);
#153=VERTEX_POINT('',#569);
#154=VERTEX_POINT('',#574);
#155=EDGE_CURVE('',#125,#126,#123,.T.);
#156=EDGE_CURVE('',#126,#125,#91,.T.);
#157=EDGE_CURVE('',#127,#125,#92,.T.);
#158=EDGE_CURVE('',#128,#127,#51,.T.);
#159=EDGE_CURVE('',#129,#128,#93,.T.);
#160=EDGE_CURVE('',#130,#129,#52,.T.);
#161=EDGE_CURVE('',#126,#130,#94,.T.);
#162=EDGE_CURVE('',#131,#132,#124,.T.);
#163=EDGE_CURVE('',#132,#131,#95,.T.);
#164=EDGE_CURVE('',#133,#131,#96,.T.);
#165=EDGE_CURVE('',#134,#133,#53,.T.);
#166=EDGE_CURVE('',#135,#134,#97,.T.);
#167=EDGE_CURVE('',#136,#135,#54,.T.);
#168=EDGE_CURVE('',#132,#136,#98,.T.);
#169=EDGE_CURVE('',#137,#138,#25,.T.);
#170=EDGE_CURVE('',#137,#139,#99,.T.);
#171=EDGE_CURVE('',#133,#139,#26,.T.);
#172=EDGE_CURVE('',#127,#136,#27,.T.);
#173=EDGE_CURVE('',#139,#130,#28,.T.);
#174=EDGE_CURVE('',#138,#137,#29,.T.);
#175=EDGE_CURVE('',#129,#134,#30,.T.);
#176=EDGE_CURVE('',#140,#140,#31,.T.);
#177=EDGE_CURVE('',#140,#141,#100,.T.);
#178=EDGE_CURVE('',#142,#141,#32,.T.);
#179=EDGE_CURVE('',#141,#142,#33,.T.);
#180=EDGE_CURVE('',#135,#128,#34,.T.);
#181=EDGE_CURVE('',#143,#143,#35,.T.);
#182=EDGE_CURVE('',#143,#144,#101,.T.);
#183=EDGE_CURVE('',#144,#145,#36,.T.);
#184=EDGE_CURVE('',#145,#144,#37,.T.);
#185=EDGE_CURVE('',#145,#142,#102,.T.);
#186=EDGE_CURVE('',#138,#146,#38,.T.);
#187=EDGE_CURVE('',#146,#147,#39,.T.);
#188=EDGE_CURVE('',#147,#146,#40,.T.);
#189=EDGE_CURVE('',#148,#149,#41,.T.);
#190=EDGE_CURVE('',#149,#148,#42,.T.);
#191=EDGE_CURVE('',#149,#147,#103,.T.);
#192=EDGE_CURVE('',#150,#151,#43,.T.);
#193=EDGE_CURVE('',#151,#150,#44,.T.);
#194=EDGE_CURVE('',#150,#148,#104,.T.);
#195=EDGE_CURVE('',#152,#153,#45,.T.);
#196=EDGE_CURVE('',#153,#152,#46,.T.);
#197=EDGE_CURVE('',#153,#151,#105,.T.);
#198=EDGE_CURVE('',#154,#154,#47,.T.);
#199=EDGE_CURVE('',#154,#152,#106,.T.);
#200=ORIENTED_EDGE('',*,*,#155,.F.);
#201=ORIENTED_EDGE('',*,*,#156,.F.);
#202=ORIENTED_EDGE('',*,*,#157,.F.);
#203=ORIENTED_EDGE('',*,*,#158,.F.);
#204=ORIENTED_EDGE('',*,*,#159,.F.);
#205=ORIENTED_EDGE('',*,*,#160,.F.);
#206=ORIENTED_EDGE('',*,*,#161,.F.);
#207=ORIENTED_EDGE('',*,*,#156,.T.);
#208=ORIENTED_EDGE('',*,*,#162,.F.);
#209=ORIENTED_EDGE('',*,*,#163,.F.);
#210=ORIENTED_EDGE('',*,*,#164,.F.);
#211=ORIENTED_EDGE('',*,*,#165,.F.);
#212=ORIENTED_EDGE('',*,*,#166,.F.);
#213=ORIENTED_EDGE('',*,*,#167,.F.);
#214=ORIENTED_EDGE('',*,*,#168,.F.);
#215=ORIENTED_EDGE('',*,*,#163,.T.);
#216=ORIENTED_EDGE('',*,*,#169,.F.);
#217=ORIENTED_EDGE('',*,*,#170,.T.);
#218=ORIENTED_EDGE('',*,*,#171,.F.);
#219=ORIENTED_EDGE('',*,*,#164,.T.);
#220=ORIENTED_EDGE('',*,*,#162,.T.);
#221=ORIENTED_EDGE('',*,*,#168,.T.);
#222=ORIENTED_EDGE('',*,*,#172,.F.);
#223=ORIENTED_EDGE('',*,*,#157,.T.);
#224=ORIENTED_EDGE('',*,*,#155,.T.);
#225=ORIENTED_EDGE('',*,*,#161,.T.);
#226=ORIENTED_EDGE('',*,*,#173,.F.);
#227=ORIENTED_EDGE('',*,*,#170,.F.);
#228=ORIENTED_EDGE('',*,*,#174,.F.);
#229=ORIENTED_EDGE('',*,*,#160,.T.);
#230=ORIENTED_EDGE('',*,*,#175,.T.);
#231=ORIENTED_EDGE('',*,*,#165,.T.);
#232=ORIENTED_EDGE('',*,*,#171,.T.);
#233=ORIENTED_EDGE('',*,*,#173,.T.);
#234=ORIENTED_EDGE('',*,*,#176,.F.);
#235=ORIENTED_EDGE('',*,*,#177,.T.);
#236=ORIENTED_EDGE('',*,*,#178,.F.);
#237=ORIENTED_EDGE('',*,*,#179,.F.);
#238=ORIENTED_EDGE('',*,*,#177,.F.);
#239=ORIENTED_EDGE('',*,*,#158,.T.);
#240=ORIENTED_EDGE('',*,*,#172,.T.);
#241=ORIENTED_EDGE('',*,*,#167,.T.);
#242=ORIENTED_EDGE('',*,*,#180,.T.);
#243=ORIENTED_EDGE('',*,*,#159,.T.);
#244=ORIENTED_EDGE('',*,*,#180,.F.);
#245=ORIENTED_EDGE('',*,*,#166,.T.);
#246=ORIENTED_EDGE('',*,*,#175,.F.);
#247=ORIENTED_EDGE('',*,*,#181,.F.);
#248=ORIENTED_EDGE('',*,*,#181,.T.);
#249=ORIENTED_EDGE('',*,*,#182,.T.);
#250=ORIENTED_EDGE('',*,*,#183,.T.);
#251=ORIENTED_EDGE('',*,*,#184,.T.);
#252=ORIENTED_EDGE('',*,*,#182,.F.);
#253=ORIENTED_EDGE('',*,*,#183,.F.);
#254=ORIENTED_EDGE('',*,*,#184,.F.);
#255=ORIENTED_EDGE('',*,*,#185,.T.);
#256=ORIENTED_EDGE('',*,*,#178,.T.);
#257=ORIENTED_EDGE('',*,*,#179,.T.);
#258=ORIENTED_EDGE('',*,*,#185,.F.);
#259=ORIENTED_EDGE('',*,*,#169,.T.);
#260=ORIENTED_EDGE('',*,*,#186,.T.);
#261=ORIENTED_EDGE('',*,*,#187,.T.);
#262=ORIENTED_EDGE('',*,*,#188,.T.);
#263=ORIENTED_EDGE('',*,*,#186,.F.);
#264=ORIENTED_EDGE('',*,*,#174,.T.);
#265=ORIENTED_EDGE('',*,*,#189,.F.);
#266=ORIENTED_EDGE('',*,*,#190,.F.);
#267=ORIENTED_EDGE('',*,*,#191,.T.);
#268=ORIENTED_EDGE('',*,*,#187,.F.);
#269=ORIENTED_EDGE('',*,*,#188,.F.);
#270=ORIENTED_EDGE('',*,*,#191,.F.);
#271=ORIENTED_EDGE('',*,*,#192,.T.);
#272=ORIENTED_EDGE('',*,*,#193,.T.);
#273=ORIENTED_EDGE('',*,*,#194,.T.);
#274=ORIENTED_EDGE('',*,*,#189,.T.);
#275=ORIENTED_EDGE('',*,*,#190,.T.);
#276=ORIENTED_EDGE('',*,*,#194,.F.);
#277=ORIENTED_EDGE('',*,*,#195,.F.);
#278=ORIENTED_EDGE('',*,*,#196,.F.);
#279=ORIENTED_EDGE('',*,*,#197,.T.);
#280=ORIENTED_EDGE('',*,*,#192,.F.);
#281=ORIENTED_EDGE('',*,*,#193,.F.);
#282=ORIENTED_EDGE('',*,*,#197,.F.);
#283=ORIENTED_EDGE('',*,*,#198,.T.);
#284=ORIENTED_EDGE('',*,*,#199,.T.);
#285=ORIENTED_EDGE('',*,*,#195,.T.);
#286=ORIENTED_EDGE('',*,*,#196,.T.);
#287=ORIENTED_EDGE('',*,*,#199,.F.);
#288=ORIENTED_EDGE('',*,*,#198,.F.);
#289=ORIENTED_EDGE('',*,*,#176,.T.);
#290=PLANE('',#333);
#291=PLANE('',#335);
#292=PLANE('',#336);
#293=PLANE('',#338);
#294=PLANE('',#353);
#295=PLANE('',#374);
#296=ADVANCED_FACE('',(#55),#290,.F.);
#297=ADVANCED_FACE('',(#56),#291,.F.);
#298=ADVANCED_FACE('',(#57),#292,.F.);
#299=ADVANCED_FACE('',(#58),#293,.F.);
#300=ADVANCED_FACE('',(#59),#48,.T.);
#301=ADVANCED_FACE('',(#60),#18,.T.);
#302=ADVANCED_FACE('',(#61),#19,.F.);
#303=ADVANCED_FACE('',(#62),#20,.T.);
#304=ADVANCED_FACE('',(#63,#16),#294,.T.);
#305=ADVANCED_FACE('',(#64),#21,.F.);
#306=ADVANCED_FACE('',(#65),#49,.F.);
#307=ADVANCED_FACE('',(#66),#15,.F.);
#308=ADVANCED_FACE('',(#67),#22,.T.);
#309=ADVANCED_FACE('',(#68),#23,.T.);
#310=ADVANCED_FACE('',(#69),#50,.T.);
#311=ADVANCED_FACE('',(#70),#24,.T.);
#312=ADVANCED_FACE('',(#71,#17),#295,.T.);
#313=CLOSED_SHELL('',(#296,#297,#298,#299,#300,#301,#302,#303,#304,#305,
#306,#307,#308,#309,#310,#311,#312));
#314=DERIVED_UNIT_ELEMENT(#316,1.);
#315=DERIVED_UNIT_ELEMENT(#583,-3.);
#316=(
MASS_UNIT()
NAMED_UNIT(*)
SI_UNIT($,.GRAM.)
);
#317=DERIVED_UNIT((#314,#315));
#318=MEASURE_REPRESENTATION_ITEM('density measure',
POSITIVE_RATIO_MEASURE(1.),#317);
#319=PROPERTY_DEFINITION_REPRESENTATION(#324,#321);
#320=PROPERTY_DEFINITION_REPRESENTATION(#325,#322);
#321=REPRESENTATION('material name',(#323),#580);
#322=REPRESENTATION('density',(#318),#580);
#323=DESCRIPTIVE_REPRESENTATION_ITEM('Generisch','Generisch');
#324=PROPERTY_DEFINITION('material property','material name',#590);
#325=PROPERTY_DEFINITION('material property','density of part',#590);
#326=DATE_TIME_ROLE('creation_date');
#327=APPLIED_DATE_AND_TIME_ASSIGNMENT(#328,#326,(#590));
#328=DATE_AND_TIME(#329,#330);
#329=CALENDAR_DATE(2021,21,6);
#330=LOCAL_TIME(0,0,0.,#331);
#331=COORDINATED_UNIVERSAL_TIME_OFFSET(0,0,.BEHIND.);
#332=AXIS2_PLACEMENT_3D('placement',#477,#375,#376);
#333=AXIS2_PLACEMENT_3D('',#478,#377,#378);
#334=AXIS2_PLACEMENT_3D('',#481,#379,#380);
#335=AXIS2_PLACEMENT_3D('',#483,#382,#383);
#336=AXIS2_PLACEMENT_3D('',#497,#387,#388);
#337=AXIS2_PLACEMENT_3D('',#500,#389,#390);
#338=AXIS2_PLACEMENT_3D('',#502,#392,#393);
#339=AXIS2_PLACEMENT_3D('',#516,#397,#398);
#340=AXIS2_PLACEMENT_3D('',#519,#399,#400);
#341=AXIS2_PLACEMENT_3D('',#522,#402,#403);
#342=AXIS2_PLACEMENT_3D('',#523,#404,#405);
#343=AXIS2_PLACEMENT_3D('',#524,#406,#407);
#344=AXIS2_PLACEMENT_3D('',#525,#408,#409);
#345=AXIS2_PLACEMENT_3D('',#526,#410,#411);
#346=AXIS2_PLACEMENT_3D('',#527,#412,#413);
#347=AXIS2_PLACEMENT_3D('',#528,#414,#415);
#348=AXIS2_PLACEMENT_3D('',#530,#416,#417);
#349=AXIS2_PLACEMENT_3D('',#534,#419,#420);
#350=AXIS2_PLACEMENT_3D('',#535,#421,#422);
#351=AXIS2_PLACEMENT_3D('',#536,#423,#424);
#352=AXIS2_PLACEMENT_3D('',#537,#425,#426);
#353=AXIS2_PLACEMENT_3D('',#538,#427,#428);
#354=AXIS2_PLACEMENT_3D('',#540,#429,#430);
#355=AXIS2_PLACEMENT_3D('',#541,#431,#432);
#356=AXIS2_PLACEMENT_3D('',#545,#434,#435);
#357=AXIS2_PLACEMENT_3D('',#546,#436,#437);
#358=AXIS2_PLACEMENT_3D('',#547,#438,#439);
#359=AXIS2_PLACEMENT_3D('',#549,#441,#442);
#360=AXIS2_PLACEMENT_3D('',#551,#443,#444);
#361=AXIS2_PLACEMENT_3D('',#553,#445,#446);
#362=AXIS2_PLACEMENT_3D('',#554,#447,#448);
#363=AXIS2_PLACEMENT_3D('',#555,#449,#450);
#364=AXIS2_PLACEMENT_3D('',#558,#451,#452);
#365=AXIS2_PLACEMENT_3D('',#559,#453,#454);
#366=AXIS2_PLACEMENT_3D('',#561,#456,#457);
#367=AXIS2_PLACEMENT_3D('',#564,#458,#459);
#368=AXIS2_PLACEMENT_3D('',#565,#460,#461);
#369=AXIS2_PLACEMENT_3D('',#567,#463,#464);
#370=AXIS2_PLACEMENT_3D('',#570,#465,#466);
#371=AXIS2_PLACEMENT_3D('',#571,#467,#468);
#372=AXIS2_PLACEMENT_3D('',#573,#470,#471);
#373=AXIS2_PLACEMENT_3D('',#575,#472,#473);
#374=AXIS2_PLACEMENT_3D('',#577,#475,#476);
#375=DIRECTION('axis',(0.,0.,1.));
#376=DIRECTION('refdir',(1.,0.,0.));
#377=DIRECTION('center_axis',(0.707106781186548,7.59332284069374E-17,-0.707106781186548));
#378=DIRECTION('ref_axis',(-0.707106781186548,-3.14525730409274E-17,-0.707106781186548));
#379=DIRECTION('center_axis',(0.707106781186548,7.59332284069374E-17,-0.707106781186548));
#380=DIRECTION('ref_axis',(0.707106781186548,0.,0.707106781186548));
#381=DIRECTION('',(0.,1.,1.07385801447865E-16));
#382=DIRECTION('center_axis',(0.,1.07385801447865E-16,-1.));
#383=DIRECTION('ref_axis',(0.,1.,1.07385801447865E-16));
#384=DIRECTION('',(1.,0.,0.));
#385=DIRECTION('',(0.,1.,1.07385801447865E-16));
#386=DIRECTION('',(-1.,0.,0.));
#387=DIRECTION('center_axis',(0.707106781186548,0.,0.707106781186548));
#388=DIRECTION('ref_axis',(0.707106781186548,0.,-0.707106781186548));
#389=DIRECTION('center_axis',(0.707106781186548,0.,0.707106781186548));
#390=DIRECTION('ref_axis',(-0.707106781186548,0.,0.707106781186548));
#391=DIRECTION('',(0.,-1.,0.));
#392=DIRECTION('center_axis',(0.,0.,1.));
#393=DIRECTION('ref_axis',(0.,-1.,0.));
#394=DIRECTION('',(1.,0.,0.));
#395=DIRECTION('',(0.,-1.,0.));
#396=DIRECTION('',(-1.,0.,0.));
#397=DIRECTION('center_axis',(1.,0.,0.));
#398=DIRECTION('ref_axis',(0.,1.,0.));
#399=DIRECTION('center_axis',(1.,0.,0.));
#400=DIRECTION('ref_axis',(0.,-1.,1.83697019872103E-16));
#401=DIRECTION('',(-1.,0.,0.));
#402=DIRECTION('center_axis',(-1.,0.,0.));
#403=DIRECTION('ref_axis',(0.,-1.,0.));
#404=DIRECTION('center_axis',(-1.,0.,0.));
#405=DIRECTION('ref_axis',(0.,-1.,0.));
#406=DIRECTION('center_axis',(-1.,0.,0.));
#407=DIRECTION('ref_axis',(0.,-1.,0.));
#408=DIRECTION('center_axis',(1.,0.,0.));
#409=DIRECTION('ref_axis',(0.,-1.,1.83697019872103E-16));
#410=DIRECTION('center_axis',(1.,0.,0.));
#411=DIRECTION('ref_axis',(0.,-1.,0.));
#412=DIRECTION('center_axis',(1.,0.,0.));
#413=DIRECTION('ref_axis',(0.,-1.,0.));
#414=DIRECTION('center_axis',(1.,0.,0.));
#415=DIRECTION('ref_axis',(0.,1.,0.));
#416=DIRECTION('center_axis',(-1.,0.,0.));
#417=DIRECTION('ref_axis',(0.,1.,0.));
#418=DIRECTION('',(-0.707106781186548,0.707106781186547,-8.65956056235493E-17));
#419=DIRECTION('center_axis',(1.,0.,0.));
#420=DIRECTION('ref_axis',(0.,0.,1.));
#421=DIRECTION('center_axis',(1.,0.,0.));
#422=DIRECTION('ref_axis',(0.,0.,1.));
#423=DIRECTION('center_axis',(1.,0.,0.));
#424=DIRECTION('ref_axis',(0.,1.,1.22464679914735E-16));
#425=DIRECTION('center_axis',(1.,0.,0.));
#426=DIRECTION('ref_axis',(0.,-1.,0.));
#427=DIRECTION('center_axis',(-1.,0.,0.));
#428=DIRECTION('ref_axis',(0.,0.,1.));
#429=DIRECTION('center_axis',(-1.,0.,0.));
#430=DIRECTION('ref_axis',(0.,0.,-1.));
#431=DIRECTION('center_axis',(-1.,0.,0.));
#432=DIRECTION('ref_axis',(0.,0.,-1.));
#433=DIRECTION('',(0.707106781186546,-8.65956056235495E-17,-0.707106781186548));
#434=DIRECTION('center_axis',(1.,0.,0.));
#435=DIRECTION('ref_axis',(0.,0.,-1.));
#436=DIRECTION('center_axis',(1.,0.,0.));
#437=DIRECTION('ref_axis',(0.,0.,-1.));
#438=DIRECTION('center_axis',(-1.,0.,0.));
#439=DIRECTION('ref_axis',(0.,0.,1.));
#440=DIRECTION('',(1.,0.,0.));
#441=DIRECTION('center_axis',(1.,0.,0.));
#442=DIRECTION('ref_axis',(0.,0.,-1.));
#443=DIRECTION('center_axis',(0.,-1.,-1.22464679914735E-16));
#444=DIRECTION('ref_axis',(0.,-1.22464679914735E-16,1.));
#445=DIRECTION('center_axis',(-1.,0.,0.));
#446=DIRECTION('ref_axis',(0.,-1.,3.06161699786838E-17));
#447=DIRECTION('center_axis',(-1.,0.,0.));
#448=DIRECTION('ref_axis',(0.,-1.,3.06161699786838E-17));
#449=DIRECTION('center_axis',(1.,0.,0.));
#450=DIRECTION('ref_axis',(0.,1.,0.));
#451=DIRECTION('center_axis',(1.,0.,0.));
#452=DIRECTION('ref_axis',(0.,0.,-1.));
#453=DIRECTION('center_axis',(1.,0.,0.));
#454=DIRECTION('ref_axis',(0.,0.,-1.));
#455=DIRECTION('',(-0.358979079308871,0.933345606203059,1.14301870913482E-16));
#456=DIRECTION('center_axis',(1.,0.,0.));
#457=DIRECTION('ref_axis',(0.,-1.,0.));
#458=DIRECTION('center_axis',(-1.,0.,0.));
#459=DIRECTION('ref_axis',(0.,-1.,0.));
#460=DIRECTION('center_axis',(-1.,0.,0.));
#461=DIRECTION('ref_axis',(0.,-1.,0.));
#462=DIRECTION('',(-0.707106781186548,-0.707106781186547,-8.65956056235493E-17));
#463=DIRECTION('center_axis',(1.,0.,0.));
#464=DIRECTION('ref_axis',(0.,1.,0.));
#465=DIRECTION('center_axis',(1.,0.,0.));
#466=DIRECTION('ref_axis',(0.,-1.,0.));
#467=DIRECTION('center_axis',(1.,0.,0.));
#468=DIRECTION('ref_axis',(0.,-1.,0.));
#469=DIRECTION('',(-1.,0.,0.));
#470=DIRECTION('center_axis',(-1.,0.,0.));
#471=DIRECTION('ref_axis',(0.,-1.,0.));
#472=DIRECTION('center_axis',(-1.,0.,0.));
#473=DIRECTION('ref_axis',(0.,-1.,0.));
#474=DIRECTION('',(-0.707106781186548,0.707106781186547,8.65956056235493E-17));
#475=DIRECTION('center_axis',(1.,0.,0.));
#476=DIRECTION('ref_axis',(0.,0.,-1.));
#477=CARTESIAN_POINT('',(0.,0.,0.));
#478=CARTESIAN_POINT('Origin',(-9.80335874379692,-0.296504361030801,16.1966412562031));
#479=CARTESIAN_POINT('',(-13.5,4.39459895781171,12.5));
#480=CARTESIAN_POINT('',(-13.5,-4.39459895781172,12.5));
#481=CARTESIAN_POINT('Origin',(-26.,0.,0.));
#482=CARTESIAN_POINT('',(-13.5,20.3807734476963,12.5));
#483=CARTESIAN_POINT('Origin',(-24.,-20.9737821697579,12.5));
#484=CARTESIAN_POINT('',(-23.7,4.39459895781172,12.5));
#485=CARTESIAN_POINT('',(-17.,4.39459895781172,12.5));
#486=CARTESIAN_POINT('',(-24.,3.38415425180352,12.5));
#487=CARTESIAN_POINT('Ctrl Pts',(-24.,3.38415425180353,12.5));
#488=CARTESIAN_POINT('Ctrl Pts',(-23.8694847042729,3.88359161603279,12.5));
#489=CARTESIAN_POINT('Ctrl Pts',(-23.7,4.39459895781173,12.5));
#490=CARTESIAN_POINT('',(-24.,-3.38415425180352,12.5));
#491=CARTESIAN_POINT('',(-24.,-3.86189108487897,12.5));
#492=CARTESIAN_POINT('',(-23.7,-4.39459895781172,12.5));
#493=CARTESIAN_POINT('Ctrl Pts',(-23.7,-4.39459895781174,12.5));
#494=CARTESIAN_POINT('Ctrl Pts',(-23.8694847042729,-3.88359161603281,12.5));
#495=CARTESIAN_POINT('Ctrl Pts',(-24.,-3.38415425180353,12.5));
#496=CARTESIAN_POINT('',(-17.,-4.39459895781172,12.5));
#497=CARTESIAN_POINT('Origin',(-8.96471774238966,-0.2965043610308,-17.0352822576103));
#498=CARTESIAN_POINT('',(-13.5,-4.39459895781173,-12.5));
#499=CARTESIAN_POINT('',(-13.5,4.39459895781173,-12.5));
#500=CARTESIAN_POINT('Origin',(-26.,0.,0.));
#501=CARTESIAN_POINT('',(-13.5,-20.9737821697579,-12.5));
#502=CARTESIAN_POINT('Origin',(-24.,20.3807734476963,-12.5));
#503=CARTESIAN_POINT('',(-23.7,-4.39459895781173,-12.5));
#504=CARTESIAN_POINT('',(-17.,-4.39459895781173,-12.5));
#505=CARTESIAN_POINT('',(-24.,-3.38415425180353,-12.5));
#506=CARTESIAN_POINT('Ctrl Pts',(-24.,-3.38415425180353,-12.5));
#507=CARTESIAN_POINT('Ctrl Pts',(-23.8694847042729,-3.88359161603278,-12.5));
#508=CARTESIAN_POINT('Ctrl Pts',(-23.7,-4.39459895781174,-12.5));
#509=CARTESIAN_POINT('',(-24.,3.38415425180353,-12.5));
#510=CARTESIAN_POINT('',(-24.,16.8153867238481,-12.5));
#511=CARTESIAN_POINT('',(-23.7,4.39459895781173,-12.5));
#512=CARTESIAN_POINT('Ctrl Pts',(-23.7,4.39459895781174,-12.5));
#513=CARTESIAN_POINT('Ctrl Pts',(-23.8694847042729,3.88359161603278,-12.5));
#514=CARTESIAN_POINT('Ctrl Pts',(-24.,3.38415425180353,-12.5));
#515=CARTESIAN_POINT('',(-17.,4.39459895781173,-12.5));
#516=CARTESIAN_POINT('Origin',(-17.,0.,0.));
#517=CARTESIAN_POINT('',(-10.3433995491225,-13.25,-1.62265700887024E-15));
#518=CARTESIAN_POINT('',(-10.3433995491225,-1.62265700887024E-15,13.25));
#519=CARTESIAN_POINT('Origin',(-10.3433995491225,0.,0.));
#520=CARTESIAN_POINT('',(-23.7,-13.25,-1.62265700887024E-15));
#521=CARTESIAN_POINT('',(-17.,-13.25,-1.62265700887024E-15));
#522=CARTESIAN_POINT('Origin',(-23.7,0.,0.));
#523=CARTESIAN_POINT('Origin',(-23.7,0.,0.));
#524=CARTESIAN_POINT('Origin',(-23.7,0.,0.));
#525=CARTESIAN_POINT('Origin',(-10.3433995491225,0.,0.));
#526=CARTESIAN_POINT('Origin',(-23.85,0.,0.));
#527=CARTESIAN_POINT('Origin',(-24.,0.,0.));
#528=CARTESIAN_POINT('Origin',(-1.,0.,0.));
#529=CARTESIAN_POINT('',(0.,-9.8,1.20015386316441E-15));
#530=CARTESIAN_POINT('Origin',(0.,0.,0.));
#531=CARTESIAN_POINT('',(-0.4845,-9.3155,1.14081972574572E-15));
#532=CARTESIAN_POINT('',(-1.,-8.8,1.07768918324967E-15));
#533=CARTESIAN_POINT('',(-0.484499999999999,1.14081972574572E-15,-9.3155));
#534=CARTESIAN_POINT('Origin',(-0.484499999999999,0.,0.));
#535=CARTESIAN_POINT('Origin',(-0.484499999999999,0.,0.));
#536=CARTESIAN_POINT('Origin',(-23.85,0.,0.));
#537=CARTESIAN_POINT('Origin',(-24.,0.,0.));
#538=CARTESIAN_POINT('Origin',(-24.,13.25,0.));
#539=CARTESIAN_POINT('',(-24.,1.32451674561782E-15,10.8155));
#540=CARTESIAN_POINT('Origin',(-24.,0.,0.));
#541=CARTESIAN_POINT('Origin',(-23.25,0.,0.));
#542=CARTESIAN_POINT('',(-22.5,-1.14081972574572E-15,9.3155));
#543=CARTESIAN_POINT('',(-23.25,1.23266823568177E-15,10.0655));
#544=CARTESIAN_POINT('',(-22.5,-1.14081972574572E-15,-9.3155));
#545=CARTESIAN_POINT('Origin',(-22.5,0.,0.));
#546=CARTESIAN_POINT('Origin',(-22.5,0.,0.));
#547=CARTESIAN_POINT('Origin',(28.6043724418418,0.,0.));
#548=CARTESIAN_POINT('',(28.6043724418418,-1.14081972574572E-15,-9.3155));
#549=CARTESIAN_POINT('Origin',(-10.3433995491225,0.,0.));
#550=CARTESIAN_POINT('',(-9.87672674602094,-1.66190821980579E-15,13.5705104603456));
#551=CARTESIAN_POINT('Origin',(-10.3433995491225,-1.68388934882761E-15,
13.75));
#552=CARTESIAN_POINT('',(-9.87672674602094,-13.5705104603456,-1.66190821980579E-15));
#553=CARTESIAN_POINT('Origin',(-9.87672674602094,0.,-2.07738527475723E-15));
#554=CARTESIAN_POINT('Origin',(-9.87672674602094,0.,-2.07738527475723E-15));
#555=CARTESIAN_POINT('Origin',(-9.75,0.,0.));
#556=CARTESIAN_POINT('',(-9.5,14.55,0.));
#557=CARTESIAN_POINT('',(-9.5,-14.55,-1.7818610927594E-15));
#558=CARTESIAN_POINT('Origin',(-9.5,0.,0.));
#559=CARTESIAN_POINT('Origin',(-9.5,0.,0.));
#560=CARTESIAN_POINT('',(-9.75,-13.9,-1.70225905081482E-15));
#561=CARTESIAN_POINT('Origin',(-8.5,0.,0.));
#562=CARTESIAN_POINT('',(-7.5,16.55,-2.02679045258887E-15));
#563=CARTESIAN_POINT('',(-7.5,-16.55,-2.02679045258887E-15));
#564=CARTESIAN_POINT('Origin',(-7.5,0.,0.));
#565=CARTESIAN_POINT('Origin',(-7.5,0.,0.));
#566=CARTESIAN_POINT('',(-8.5,15.55,1.90432577267413E-15));
#567=CARTESIAN_POINT('Origin',(-4.75,0.,0.));
#568=CARTESIAN_POINT('',(-2.,16.55,2.02679045258887E-15));
#569=CARTESIAN_POINT('',(-2.,-16.55,-2.02679045258887E-15));
#570=CARTESIAN_POINT('Origin',(-2.,0.,0.));
#571=CARTESIAN_POINT('Origin',(-2.,0.,0.));
#572=CARTESIAN_POINT('',(-4.75,-16.55,-2.02679045258887E-15));
#573=CARTESIAN_POINT('Origin',(-1.,0.,0.));
#574=CARTESIAN_POINT('',(0.,14.55,-1.7818610927594E-15));
#575=CARTESIAN_POINT('Origin',(0.,0.,0.));
#576=CARTESIAN_POINT('',(-1.,15.55,1.90432577267413E-15));
#577=CARTESIAN_POINT('Origin',(0.,0.,0.));
#578=UNCERTAINTY_MEASURE_WITH_UNIT(LENGTH_MEASURE(0.01),#582,
'DISTANCE_ACCURACY_VALUE',
'Maximum model space distance between geometric entities at asserted c
onnectivities');
#579=UNCERTAINTY_MEASURE_WITH_UNIT(LENGTH_MEASURE(0.01),#582,
'DISTANCE_ACCURACY_VALUE',
'Maximum model space distance between geometric entities at asserted c
onnectivities');
#580=(
GEOMETRIC_REPRESENTATION_CONTEXT(3)
GLOBAL_UNCERTAINTY_ASSIGNED_CONTEXT((#578))
GLOBAL_UNIT_ASSIGNED_CONTEXT((#582,#584,#585))
REPRESENTATION_CONTEXT('','3D')
);
#581=(
GEOMETRIC_REPRESENTATION_CONTEXT(3)
GLOBAL_UNCERTAINTY_ASSIGNED_CONTEXT((#579))
GLOBAL_UNIT_ASSIGNED_CONTEXT((#582,#584,#585))
REPRESENTATION_CONTEXT('','3D')
);
#582=(
LENGTH_UNIT()
NAMED_UNIT(*)
SI_UNIT(.MILLI.,.METRE.)
);
#583=(
LENGTH_UNIT()
NAMED_UNIT(*)
SI_UNIT(.CENTI.,.METRE.)
);
#584=(
NAMED_UNIT(*)
PLANE_ANGLE_UNIT()
SI_UNIT($,.RADIAN.)
);
#585=(
NAMED_UNIT(*)
SI_UNIT($,.STERADIAN.)
SOLID_ANGLE_UNIT()
);
#586=SHAPE_DEFINITION_REPRESENTATION(#587,#588);
#587=PRODUCT_DEFINITION_SHAPE('',$,#590);
#588=SHAPE_REPRESENTATION('',(#332),#580);
#589=PRODUCT_DEFINITION_CONTEXT('part definition',#594,'design');
#590=PRODUCT_DEFINITION('3D_R666-G-DN15-DN25_17113520',
'3D_R666-G-DN15-DN25_17113520',#591,#589);
#591=PRODUCT_DEFINITION_FORMATION('',$,#596);
#592=PRODUCT_RELATED_PRODUCT_CATEGORY('3D_R666-G-DN15-DN25_17113520',
'3D_R666-G-DN15-DN25_17113520',(#596));
#593=APPLICATION_PROTOCOL_DEFINITION('international standard',
'automotive_design',2009,#594);
#594=APPLICATION_CONTEXT(
'Core Data for Automotive Mechanical Design Process');
#595=PRODUCT_CONTEXT('part definition',#594,'mechanical');
#596=PRODUCT('3D_R666-G-DN15-DN25_17113520',
'3D_R666-G-DN15-DN25_17113520',$,(#595));
#597=PRESENTATION_STYLE_ASSIGNMENT((#598));
#598=SURFACE_STYLE_USAGE(.BOTH.,#601);
#599=SURFACE_STYLE_RENDERING_WITH_PROPERTIES($,#605,(#600));
#600=SURFACE_STYLE_TRANSPARENT(0.);
#601=SURFACE_SIDE_STYLE('',(#602,#599));
#602=SURFACE_STYLE_FILL_AREA(#603);
#603=FILL_AREA_STYLE('',(#604));
#604=FILL_AREA_STYLE_COLOUR('',#605);
#605=COLOUR_RGB('',0.749019607843137,0.749019607843137,0.749019607843137);
ENDSEC;
END-ISO-10303-21;
