ISO-10303-21;
HEADER;
FILE_DESCRIPTION (( 'STEP AP203' ),
    '1' );
FILE_NAME ('3D_M-2030P_40_174774040.STEP',
    '2024-09-10T06:57:55',
    ( '' ),
    ( '' ),
    'SwSTEP 2.0',
    'SolidWorks 2024',
    '' );
FILE_SCHEMA (( 'CONFIG_CONTROL_DESIGN' ));
ENDSEC;

DATA;
#1 = CARTESIAN_POINT ( 'NONE',  ( -108.2865231617622612, 0.000000000000000000, 0.000000000000000000 ) ) ;
#2 = CARTESIAN_POINT ( 'NONE',  ( -2.999999999999988898, 0.000000000000000000, 0.000000000000000000 ) ) ;
#3 = APPROVAL_PERSON_ORGANIZATION ( #30, #94, #171 ) ;
#4 = ORIENTED_EDGE ( 'NONE', *, *, #83, .F. ) ;
#5 = LINE ( 'NONE', #61, #55 ) ;
#6 = DIRECTION ( 'NONE',  ( 0.000000000000000000, 0.000000000000000000, 1.000000000000000000 ) ) ;
#7 = DIRECTION ( 'NONE',  ( 1.000000000000000000, 0.000000000000000000, 0.000000000000000000 ) ) ;
#8 = AXIS2_PLACEMENT_3D ( 'NONE', #66, #11, #147 ) ;
#9 = LINE ( 'NONE', #68, #32 ) ;
#10 = CC_DESIGN_PERSON_AND_ORGANIZATION_ASSIGNMENT ( #137, #194, ( #192 ) ) ;
#11 = DIRECTION ( 'NONE',  ( -1.000000000000000000, -0.000000000000000000, -0.000000000000000000 ) ) ;
#12 = AXIS2_PLACEMENT_3D ( 'NONE', #162, #237, #65 ) ;
#13 = ORIENTED_EDGE ( 'NONE', *, *, #225, .F. ) ;
#14 = APPROVAL_DATE_TIME ( #121, #18 ) ;
#15 = VERTEX_POINT ( 'NONE', #163 ) ;
#16 = PERSON_AND_ORGANIZATION_ROLE ( 'creator' ) ;
#17 = ADVANCED_FACE ( 'NONE', ( #181 ), #100, .T. ) ;
#18 = APPROVAL ( #34, 'UNSPECIFIED' ) ;
#19 = CARTESIAN_POINT ( 'NONE',  ( -2.999999999999988898, 0.000000000000000000, 0.000000000000000000 ) ) ;
#20 =( GEOMETRIC_REPRESENTATION_CONTEXT ( 3 ) GLOBAL_UNCERTAINTY_ASSIGNED_CONTEXT ( ( #99 ) ) GLOBAL_UNIT_ASSIGNED_CONTEXT ( ( #131, #88, #133 ) ) REPRESENTATION_CONTEXT ( 'NONE', 'WORKASPACE' ) );
#21 = DIRECTION ( 'NONE',  ( -0.000000000000000000, 0.000000000000000000, 1.000000000000000000 ) ) ;
#22 = ORIENTED_EDGE ( 'NONE', *, *, #210, .F. ) ;
#23 = PERSON ( 'UNSPECIFIED', 'UNSPECIFIED', 'UNSPECIFIED', ('UNSPECIFIED'), ('UNSPECIFIED'), ('UNSPECIFIED') ) ;
#24 = DIRECTION ( 'NONE',  ( -1.000000000000000000, -0.000000000000000000, -0.000000000000000000 ) ) ;
#25 = CARTESIAN_POINT ( 'NONE',  ( -2.999999999999988898, 0.000000000000000000, -27.99999999999996803 ) ) ;
#26 = CARTESIAN_POINT ( 'NONE',  ( 0.000000000000000000, 0.000000000000000000, 0.000000000000000000 ) ) ;
#27 = DIRECTION ( 'NONE',  ( 0.000000000000000000, 0.000000000000000000, 1.000000000000000000 ) ) ;
#28 = CARTESIAN_POINT ( 'NONE',  ( -2.999999999999988898, 0.000000000000000000, 23.99999999999996447 ) ) ;
#29 = CARTESIAN_POINT ( 'NONE',  ( -108.2865231617622612, 0.000000000000000000, 0.000000000000000000 ) ) ;
#30 = PERSON_AND_ORGANIZATION ( #23, #167 ) ;
#31 = APPROVAL_ROLE ( '' ) ;
#32 = VECTOR ( 'NONE', #241, 1000.000000000000000 ) ;
#33 = ORIENTED_EDGE ( 'NONE', *, *, #207, .F. ) ;
#34 = APPROVAL_STATUS ( 'not_yet_approved' ) ;
#35 = ADVANCED_FACE ( 'NONE', ( #124 ), #123, .F. ) ;
#36 = APPROVAL_ROLE ( '' ) ;
#37 = CARTESIAN_POINT ( 'NONE',  ( -2.999999999999988898, 0.000000000000000000, -27.99999999999996803 ) ) ;
#38 = DIRECTION ( 'NONE',  ( 0.000000000000000000, 0.000000000000000000, 1.000000000000000000 ) ) ;
#39 = DIRECTION ( 'NONE',  ( -1.000000000000000000, 0.000000000000000000, -0.000000000000000000 ) ) ;
#40 = CC_DESIGN_APPROVAL ( #18, ( #192 ) ) ;
#41 = FACE_OUTER_BOUND ( 'NONE', #96, .T. ) ;
#42 = EDGE_CURVE ( 'NONE', #102, #120, #142, .T. ) ;
#43 = ORIENTED_EDGE ( 'NONE', *, *, #138, .F. ) ;
#44 = LOCAL_TIME ( 8, 57, 55.00000000000000000, #249 ) ;
#45 = CONICAL_SURFACE ( 'NONE', #12, 27.99999999999996803, 0.3490658503988634531 ) ;
#46 = CALENDAR_DATE ( 2024, 10, 9 ) ;
#47 = APPLICATION_PROTOCOL_DEFINITION ( 'international standard', 'config_control_design', 1994, #219 ) ;
#48 = DIRECTION ( 'NONE',  ( -1.000000000000000000, -0.000000000000000000, -0.000000000000000000 ) ) ;
#49 = CARTESIAN_POINT ( 'NONE',  ( -2.999999999999988898, 0.000000000000000000, 0.000000000000000000 ) ) ;
#50 = CARTESIAN_POINT ( 'NONE',  ( 0.000000000000000000, 0.000000000000000000, 0.000000000000000000 ) ) ;
#51 = CC_DESIGN_PERSON_AND_ORGANIZATION_ASSIGNMENT ( #213, #136, ( #115 ) ) ;
#52 = PERSON_AND_ORGANIZATION ( #23, #167 ) ;
#53 = APPROVAL_PERSON_ORGANIZATION ( #56, #227, #31 ) ;
#54 = EDGE_LOOP ( 'NONE', ( #22, #140, #234, #58 ) ) ;
#55 = VECTOR ( 'NONE', #240, 1000.000000000000000 ) ;
#56 = PERSON_AND_ORGANIZATION ( #23, #167 ) ;
#57 = EDGE_CURVE ( 'NONE', #15, #248, #245, .T. ) ;
#58 = ORIENTED_EDGE ( 'NONE', *, *, #57, .F. ) ;
#59 = VECTOR ( 'NONE', #238, 1000.000000000000227 ) ;
#60 = CARTESIAN_POINT ( 'NONE',  ( -12.99999999999998401, 0.000000000000000000, -24.36029765733797348 ) ) ;
#61 = CARTESIAN_POINT ( 'NONE',  ( -108.2865231617622612, 0.000000000000000000, 23.99999999999996447 ) ) ;
#62 = CARTESIAN_POINT ( 'NONE',  ( -12.99999999999999112, -3.315318599521195210E-14, 0.000000000000000000 ) ) ;
#63 = EDGE_CURVE ( 'NONE', #78, #122, #203, .T. ) ;
#64 = ORIENTED_EDGE ( 'NONE', *, *, #149, .T. ) ;
#65 = DIRECTION ( 'NONE',  ( 0.000000000000000000, 0.000000000000000000, -1.000000000000000000 ) ) ;
#66 = CARTESIAN_POINT ( 'NONE',  ( -12.99999999999998401, 0.000000000000000000, 0.000000000000000000 ) ) ;
#67 = PERSON_AND_ORGANIZATION ( #23, #167 ) ;
#68 = CARTESIAN_POINT ( 'NONE',  ( -108.2865231617622612, 2.939152317953643556E-15, -23.99999999999996447 ) ) ;
#69 = ADVANCED_BREP_SHAPE_REPRESENTATION ( '3D_M-2030P_40_174774040', ( #108, #187 ), #20 ) ;
#70 = ADVANCED_FACE ( 'NONE', ( #80 ), #236, .F. ) ;
#71 = AXIS2_PLACEMENT_3D ( 'NONE', #188, #244, #6 ) ;
#72 = MECHANICAL_CONTEXT ( 'NONE', #219, 'mechanical' ) ;
#73 = CALENDAR_DATE ( 2024, 10, 9 ) ;
#74 = CC_DESIGN_SECURITY_CLASSIFICATION ( #192, ( #97 ) ) ;
#75 = PERSON_AND_ORGANIZATION ( #23, #167 ) ;
#76 = EDGE_LOOP ( 'NONE', ( #158, #154 ) ) ;
#77 = PERSON_AND_ORGANIZATION ( #23, #167 ) ;
#78 = VERTEX_POINT ( 'NONE', #60 ) ;
#79 = CLOSED_SHELL ( 'NONE', ( #17, #103, #70, #251, #101, #184, #35 ) ) ;
#80 = FACE_OUTER_BOUND ( 'NONE', #91, .T. ) ;
#81 = CARTESIAN_POINT ( 'NONE',  ( -2.999999999999989786, 27.99999999999996803, 0.000000000000000000 ) ) ;
#82 = DIRECTION ( 'NONE',  ( 0.000000000000000000, 0.000000000000000000, 1.000000000000000000 ) ) ;
#83 = EDGE_CURVE ( 'NONE', #214, #122, #204, .T. ) ;
#84 = ORIENTED_EDGE ( 'NONE', *, *, #159, .T. ) ;
#85 = DIRECTION ( 'NONE',  ( -1.000000000000000000, -0.000000000000000000, -0.000000000000000000 ) ) ;
#86 = VECTOR ( 'NONE', #206, 1000.000000000000227 ) ;
#87 = FACE_OUTER_BOUND ( 'NONE', #54, .T. ) ;
#88 =( NAMED_UNIT ( * ) PLANE_ANGLE_UNIT ( ) SI_UNIT ( $, .RADIAN. ) );
#89 = CC_DESIGN_APPROVAL ( #227, ( #97 ) ) ;
#90 = PERSON_AND_ORGANIZATION_ROLE ( 'design_owner' ) ;
#91 = EDGE_LOOP ( 'NONE', ( #179, #220 ) ) ;
#92 = EDGE_LOOP ( 'NONE', ( #128, #175 ) ) ;
#93 = SECURITY_CLASSIFICATION_LEVEL ( 'unclassified' ) ;
#94 = APPROVAL ( #114, 'UNSPECIFIED' ) ;
#95 = EDGE_LOOP ( 'NONE', ( #144, #13, #139, #84 ) ) ;
#96 = EDGE_LOOP ( 'NONE', ( #218, #4 ) ) ;
#97 = PRODUCT_DEFINITION_FORMATION_WITH_SPECIFIED_SOURCE ( 'ANY', '', #155, .NOT_KNOWN. ) ;
#98 = AXIS2_PLACEMENT_3D ( 'NONE', #126, #39, #21 ) ;
#99 = UNCERTAINTY_MEASURE_WITH_UNIT (LENGTH_MEASURE( 1.000000000000000082E-05 ), #131, 'distance_accuracy_value', 'NONE');
#100 = CYLINDRICAL_SURFACE ( 'NONE', #215, 23.99999999999996447 ) ;
#101 = ADVANCED_FACE ( 'NONE', ( #41, #127 ), #200, .F. ) ;
#102 = VERTEX_POINT ( 'NONE', #185 ) ;
#103 = ADVANCED_FACE ( 'NONE', ( #196 ), #45, .T. ) ;
#104 = DIRECTION ( 'NONE',  ( -0.000000000000000000, 0.000000000000000000, 1.000000000000000000 ) ) ;
#105 = AXIS2_PLACEMENT_3D ( 'NONE', #2, #85, #82 ) ;
#106 = DIRECTION ( 'NONE',  ( 0.000000000000000000, 0.000000000000000000, -1.000000000000000000 ) ) ;
#107 = CC_DESIGN_PERSON_AND_ORGANIZATION_ASSIGNMENT ( #67, #90, ( #155 ) ) ;
#108 = MANIFOLD_SOLID_BREP ( 'Rotation1', #79 ) ;
#109 = CARTESIAN_POINT ( 'NONE',  ( -12.99999999999998401, 3.206143546423078471E-15, 24.36029765733797348 ) ) ;
#110 = FACE_OUTER_BOUND ( 'NONE', #95, .T. ) ;
#111 = LOCAL_TIME ( 8, 57, 55.00000000000000000, #208 ) ;
#112 = DIRECTION ( 'NONE',  ( -1.000000000000000000, -0.000000000000000000, -0.000000000000000000 ) ) ;
#113 = EDGE_CURVE ( 'NONE', #120, #248, #5, .T. ) ;
#114 = APPROVAL_STATUS ( 'not_yet_approved' ) ;
#115 = PRODUCT_DEFINITION ( 'UNKNOWN', '', #97, #161 ) ;
#116 = DATE_AND_TIME ( #174, #221 ) ;
#117 = APPROVAL_STATUS ( 'not_yet_approved' ) ;
#118 = ORIENTED_EDGE ( 'NONE', *, *, #210, .T. ) ;
#119 = AXIS2_PLACEMENT_3D ( 'NONE', #168, #246, #27 ) ;
#120 = VERTEX_POINT ( 'NONE', #141 ) ;
#121 = DATE_AND_TIME ( #73, #111 ) ;
#122 = VERTEX_POINT ( 'NONE', #37 ) ;
#123 = PLANE ( 'NONE',  #98 ) ;
#124 = FACE_OUTER_BOUND ( 'NONE', #92, .T. ) ;
#125 = AXIS2_PLACEMENT_3D ( 'NONE', #26, #112, #130 ) ;
#126 = CARTESIAN_POINT ( 'NONE',  ( 3.035766082959412415E-15, 23.99999999999996447, 0.000000000000000000 ) ) ;
#127 = FACE_BOUND ( 'NONE', #76, .T. ) ;
#128 = ORIENTED_EDGE ( 'NONE', *, *, #176, .F. ) ;
#129 = CIRCLE ( 'NONE', #197, 23.99999999999996447 ) ;
#130 = DIRECTION ( 'NONE',  ( 0.000000000000000000, 0.000000000000000000, 1.000000000000000000 ) ) ;
#131 =( LENGTH_UNIT ( ) NAMED_UNIT ( * ) SI_UNIT ( .MILLI., .METRE. ) );
#132 = DIRECTION ( 'NONE',  ( 0.000000000000000000, 0.000000000000000000, -1.000000000000000000 ) ) ;
#133 =( NAMED_UNIT ( * ) SI_UNIT ( $, .STERADIAN. ) SOLID_ANGLE_UNIT ( ) );
#134 = AXIS2_PLACEMENT_3D ( 'NONE', #164, #24, #239 ) ;
#135 = PERSON_AND_ORGANIZATION_ROLE ( 'design_supplier' ) ;
#136 = PERSON_AND_ORGANIZATION_ROLE ( 'creator' ) ;
#137 = PERSON_AND_ORGANIZATION ( #23, #167 ) ;
#138 = EDGE_CURVE ( 'NONE', #248, #15, #129, .T. ) ;
#139 = ORIENTED_EDGE ( 'NONE', *, *, #63, .T. ) ;
#140 = ORIENTED_EDGE ( 'NONE', *, *, #42, .T. ) ;
#141 = CARTESIAN_POINT ( 'NONE',  ( 0.000000000000000000, 0.000000000000000000, 23.99999999999996447 ) ) ;
#142 = CIRCLE ( 'NONE', #212, 23.99999999999996447 ) ;
#143 = DIRECTION ( 'NONE',  ( 1.000000000000000000, 0.000000000000000000, 0.000000000000000000 ) ) ;
#144 = ORIENTED_EDGE ( 'NONE', *, *, #149, .F. ) ;
#145 = ORIENTED_EDGE ( 'NONE', *, *, #176, .T. ) ;
#146 = AXIS2_PLACEMENT_3D ( 'NONE', #62, #143, #106 ) ;
#147 = DIRECTION ( 'NONE',  ( 0.000000000000000000, 0.000000000000000000, 1.000000000000000000 ) ) ;
#148 = APPLICATION_PROTOCOL_DEFINITION ( 'international standard', 'config_control_design', 1994, #243 ) ;
#149 = EDGE_CURVE ( 'NONE', #250, #214, #150, .T. ) ;
#150 = LINE ( 'NONE', #169, #86 ) ;
#151 = AXIS2_PLACEMENT_3D ( 'NONE', #49, #226, #132 ) ;
#152 = CC_DESIGN_PERSON_AND_ORGANIZATION_ASSIGNMENT ( #75, #16, ( #97 ) ) ;
#153 = APPROVAL_DATE_TIME ( #156, #227 ) ;
#154 = ORIENTED_EDGE ( 'NONE', *, *, #57, .T. ) ;
#155 = PRODUCT ( '3D_M-2030P_40_174774040', '3D_M-2030P_40_174774040', '', ( #72 ) ) ;
#156 = DATE_AND_TIME ( #230, #202 ) ;
#157 = CIRCLE ( 'NONE', #71, 27.99999999999996803 ) ;
#158 = ORIENTED_EDGE ( 'NONE', *, *, #138, .T. ) ;
#159 = EDGE_CURVE ( 'NONE', #122, #214, #157, .T. ) ;
#160 = PRODUCT_DEFINITION_SHAPE ( 'NONE', 'NONE',  #115 ) ;
#161 = DESIGN_CONTEXT ( 'detailed design', #243, 'design' ) ;
#162 = CARTESIAN_POINT ( 'NONE',  ( -2.999999999999988898, 0.000000000000000000, 0.000000000000000000 ) ) ;
#163 = CARTESIAN_POINT ( 'NONE',  ( -2.999999999999988898, 2.939152317953643556E-15, -23.99999999999996447 ) ) ;
#164 = CARTESIAN_POINT ( 'NONE',  ( -2.999999999999988898, 0.000000000000000000, 0.000000000000000000 ) ) ;
#165 = DIRECTION ( 'NONE',  ( -1.000000000000000000, 0.000000000000000000, -0.000000000000000000 ) ) ;
#166 = DIRECTION ( 'NONE',  ( -1.000000000000000000, -0.000000000000000000, -0.000000000000000000 ) ) ;
#167 = ORGANIZATION ( 'UNSPECIFIED', 'UNSPECIFIED', '' ) ;
#168 = CARTESIAN_POINT ( 'NONE',  ( -12.99999999999998401, 0.000000000000000000, 0.000000000000000000 ) ) ;
#169 = CARTESIAN_POINT ( 'NONE',  ( -2.999999999999988898, 3.429011037612585332E-15, 27.99999999999996803 ) ) ;
#170 = CC_DESIGN_DATE_AND_TIME_ASSIGNMENT ( #195, #247, ( #115 ) ) ;
#171 = APPROVAL_ROLE ( '' ) ;
#172 = APPROVAL_DATE_TIME ( #205, #94 ) ;
#173 = CALENDAR_DATE ( 2024, 10, 9 ) ;
#174 = CALENDAR_DATE ( 2024, 10, 9 ) ;
#175 = ORIENTED_EDGE ( 'NONE', *, *, #42, .F. ) ;
#176 = EDGE_CURVE ( 'NONE', #120, #102, #193, .T. ) ;
#177 = ORIENTED_EDGE ( 'NONE', *, *, #83, .T. ) ;
#178 = CIRCLE ( 'NONE', #8, 24.36029765733797348 ) ;
#179 = ORIENTED_EDGE ( 'NONE', *, *, #225, .T. ) ;
#180 = DIRECTION ( 'NONE',  ( 0.000000000000000000, 0.000000000000000000, 1.000000000000000000 ) ) ;
#181 = FACE_OUTER_BOUND ( 'NONE', #182, .T. ) ;
#182 = EDGE_LOOP ( 'NONE', ( #145, #118, #43, #252 ) ) ;
#183 = LOCAL_TIME ( 8, 57, 55.00000000000000000, #222 ) ;
#184 = ADVANCED_FACE ( 'NONE', ( #87 ), #223, .T. ) ;
#185 = CARTESIAN_POINT ( 'NONE',  ( 0.000000000000000000, 2.939152317953643556E-15, -23.99999999999996447 ) ) ;
#186 = DIRECTION ( 'NONE',  ( 0.000000000000000000, 0.000000000000000000, 1.000000000000000000 ) ) ;
#187 = AXIS2_PLACEMENT_3D ( 'NONE', #50, #191, #7 ) ;
#188 = CARTESIAN_POINT ( 'NONE',  ( -2.999999999999988898, 0.000000000000000000, 0.000000000000000000 ) ) ;
#189 = DIRECTION ( 'NONE',  ( 0.000000000000000000, 0.000000000000000000, 1.000000000000000000 ) ) ;
#190 = CC_DESIGN_DATE_AND_TIME_ASSIGNMENT ( #116, #232, ( #192 ) ) ;
#191 = DIRECTION ( 'NONE',  ( 0.000000000000000000, 0.000000000000000000, 1.000000000000000000 ) ) ;
#192 = SECURITY_CLASSIFICATION ( '', '', #93 ) ;
#193 = CIRCLE ( 'NONE', #125, 23.99999999999996447 ) ;
#194 = PERSON_AND_ORGANIZATION_ROLE ( 'classification_officer' ) ;
#195 = DATE_AND_TIME ( #173, #44 ) ;
#196 = FACE_OUTER_BOUND ( 'NONE', #198, .T. ) ;
#197 = AXIS2_PLACEMENT_3D ( 'NONE', #19, #48, #186 ) ;
#198 = EDGE_LOOP ( 'NONE', ( #33, #64, #177, #231 ) ) ;
#199 = DIRECTION ( 'NONE',  ( -1.000000000000000000, -0.000000000000000000, -0.000000000000000000 ) ) ;
#200 = PLANE ( 'NONE',  #235 ) ;
#201 = PRODUCT_RELATED_PRODUCT_CATEGORY ( 'detail', '', ( #155 ) ) ;
#202 = LOCAL_TIME ( 8, 57, 55.00000000000000000, #228 ) ;
#203 = LINE ( 'NONE', #25, #59 ) ;
#204 = CIRCLE ( 'NONE', #134, 27.99999999999996803 ) ;
#205 = DATE_AND_TIME ( #46, #183 ) ;
#206 = DIRECTION ( 'NONE',  ( 0.9396926207859092051, 4.188538737676964032E-17, 0.3420201433256663814 ) ) ;
#207 = EDGE_CURVE ( 'NONE', #250, #78, #229, .T. ) ;
#208 = COORDINATED_UNIVERSAL_TIME_OFFSET ( 1, 0, .AHEAD. ) ;
#209 = SHAPE_DEFINITION_REPRESENTATION ( #160, #69 ) ;
#210 = EDGE_CURVE ( 'NONE', #102, #15, #9, .T. ) ;
#211 = COORDINATED_UNIVERSAL_TIME_OFFSET ( 1, 0, .AHEAD. ) ;
#212 = AXIS2_PLACEMENT_3D ( 'NONE', #255, #199, #180 ) ;
#213 = PERSON_AND_ORGANIZATION ( #23, #167 ) ;
#214 = VERTEX_POINT ( 'NONE', #224 ) ;
#215 = AXIS2_PLACEMENT_3D ( 'NONE', #1, #216, #38 ) ;
#216 = DIRECTION ( 'NONE',  ( -1.000000000000000000, -0.000000000000000000, -0.000000000000000000 ) ) ;
#217 = APPROVAL_PERSON_ORGANIZATION ( #52, #18, #36 ) ;
#218 = ORIENTED_EDGE ( 'NONE', *, *, #159, .F. ) ;
#219 = APPLICATION_CONTEXT ( 'configuration controlled 3d designs of mechanical parts and assemblies' ) ;
#220 = ORIENTED_EDGE ( 'NONE', *, *, #207, .T. ) ;
#221 = LOCAL_TIME ( 8, 57, 55.00000000000000000, #211 ) ;
#222 = COORDINATED_UNIVERSAL_TIME_OFFSET ( 1, 0, .AHEAD. ) ;
#223 = CYLINDRICAL_SURFACE ( 'NONE', #254, 23.99999999999996447 ) ;
#224 = CARTESIAN_POINT ( 'NONE',  ( -2.999999999999988898, 3.429011037612585332E-15, 27.99999999999996803 ) ) ;
#225 = EDGE_CURVE ( 'NONE', #78, #250, #178, .T. ) ;
#226 = DIRECTION ( 'NONE',  ( 1.000000000000000000, 0.000000000000000000, 0.000000000000000000 ) ) ;
#227 = APPROVAL ( #117, 'UNSPECIFIED' ) ;
#228 = COORDINATED_UNIVERSAL_TIME_OFFSET ( 1, 0, .AHEAD. ) ;
#229 = CIRCLE ( 'NONE', #119, 24.36029765733797348 ) ;
#230 = CALENDAR_DATE ( 2024, 10, 9 ) ;
#231 = ORIENTED_EDGE ( 'NONE', *, *, #63, .F. ) ;
#232 = DATE_TIME_ROLE ( 'classification_date' ) ;
#233 = CC_DESIGN_PERSON_AND_ORGANIZATION_ASSIGNMENT ( #77, #135, ( #97 ) ) ;
#234 = ORIENTED_EDGE ( 'NONE', *, *, #113, .T. ) ;
#235 = AXIS2_PLACEMENT_3D ( 'NONE', #81, #165, #104 ) ;
#236 = PLANE ( 'NONE',  #146 ) ;
#237 = DIRECTION ( 'NONE',  ( 1.000000000000000000, 0.000000000000000000, 0.000000000000000000 ) ) ;
#238 = DIRECTION ( 'NONE',  ( 0.9396926207859092051, 0.000000000000000000, -0.3420201433256663814 ) ) ;
#239 = DIRECTION ( 'NONE',  ( 0.000000000000000000, 0.000000000000000000, 1.000000000000000000 ) ) ;
#240 = DIRECTION ( 'NONE',  ( -1.000000000000000000, -0.000000000000000000, -0.000000000000000000 ) ) ;
#241 = DIRECTION ( 'NONE',  ( -1.000000000000000000, -0.000000000000000000, -0.000000000000000000 ) ) ;
#242 = CONICAL_SURFACE ( 'NONE', #151, 27.99999999999996803, 0.3490658503988634531 ) ;
#243 = APPLICATION_CONTEXT ( 'configuration controlled 3d designs of mechanical parts and assemblies' ) ;
#244 = DIRECTION ( 'NONE',  ( -1.000000000000000000, -0.000000000000000000, -0.000000000000000000 ) ) ;
#245 = CIRCLE ( 'NONE', #105, 23.99999999999996447 ) ;
#246 = DIRECTION ( 'NONE',  ( -1.000000000000000000, -0.000000000000000000, -0.000000000000000000 ) ) ;
#247 = DATE_TIME_ROLE ( 'creation_date' ) ;
#248 = VERTEX_POINT ( 'NONE', #28 ) ;
#249 = COORDINATED_UNIVERSAL_TIME_OFFSET ( 1, 0, .AHEAD. ) ;
#250 = VERTEX_POINT ( 'NONE', #109 ) ;
#251 = ADVANCED_FACE ( 'NONE', ( #110 ), #242, .T. ) ;
#252 = ORIENTED_EDGE ( 'NONE', *, *, #113, .F. ) ;
#253 = CC_DESIGN_APPROVAL ( #94, ( #115 ) ) ;
#254 = AXIS2_PLACEMENT_3D ( 'NONE', #29, #166, #189 ) ;
#255 = CARTESIAN_POINT ( 'NONE',  ( 0.000000000000000000, 0.000000000000000000, 0.000000000000000000 ) ) ;
ENDSEC;
END-ISO-10303-21;
