ISO-10303-21;
HEADER;
FILE_DESCRIPTION (( 'STEP AP203' ),
    '1' );
FILE_NAME ('19-0408-10_outokumpu.step',
    '2015-08-11T09:45:08',
    ( '' ),
    ( '' ),
    'SwSTEP 2.0',
    'SolidWorks 2008',
    '' );
FILE_SCHEMA (( 'CONFIG_CONTROL_DESIGN' ));
ENDSEC;

DATA;
#1 = ORIENTED_EDGE ( 'NONE', *, *, #11, .F. ) ;
#2 = ORIENTED_EDGE ( 'NONE', *, *, #38, .F. ) ;
#3 = EDGE_LOOP ( 'NONE', ( #2, #1 ) ) ;
#4 = ADVANCED_FACE ( 'NONE', ( #125, #124 ), #134, .F. ) ;
#5 = ORIENTED_EDGE ( 'NONE', *, *, #11, .T. ) ;
#6 = ORIENTED_EDGE ( 'NONE', *, *, #138, .F. ) ;
#7 = ORIENTED_EDGE ( 'NONE', *, *, #41, .F. ) ;
#8 = EDGE_LOOP ( 'NONE', ( #7, #5, #86, #87 ) ) ;
#9 = ORIENTED_EDGE ( 'NONE', *, *, #10, .F. ) ;
#10 = EDGE_CURVE ( 'NONE', #97, #114, #132, .T. ) ;
#11 = EDGE_CURVE ( 'NONE', #39, #37, #146, .T. ) ;
#12 = EDGE_LOOP ( 'NONE', ( #58, #70 ) ) ;
#13 = ORIENTED_EDGE ( 'NONE', *, *, #15, .F. ) ;
#14 = VERTEX_POINT ( 'NONE', #142 ) ;
#15 = EDGE_CURVE ( 'NONE', #14, #126, #140, .T. ) ;
#16 = VERTEX_POINT ( 'NONE', #178 ) ;
#17 = ORIENTED_EDGE ( 'NONE', *, *, #25, .F. ) ;
#18 = ORIENTED_EDGE ( 'NONE', *, *, #43, .F. ) ;
#19 = ORIENTED_EDGE ( 'NONE', *, *, #93, .F. ) ;
#20 = ORIENTED_EDGE ( 'NONE', *, *, #21, .T. ) ;
#21 = EDGE_CURVE ( 'NONE', #92, #126, #177, .T. ) ;
#22 = ORIENTED_EDGE ( 'NONE', *, *, #138, .T. ) ;
#23 = VERTEX_POINT ( 'NONE', #173 ) ;
#24 = EDGE_CURVE ( 'NONE', #45, #117, #172, .T. ) ;
#25 = EDGE_CURVE ( 'NONE', #23, #14, #168, .T. ) ;
#26 = ORIENTED_EDGE ( 'NONE', *, *, #27, .F. ) ;
#27 = EDGE_CURVE ( 'NONE', #16, #23, #163, .T. ) ;
#28 = ADVANCED_FACE ( 'NONE', ( #159 ), #158, .F. ) ;
#29 = EDGE_LOOP ( 'NONE', ( #19, #20, #22, #9 ) ) ;
#30 = ORIENTED_EDGE ( 'NONE', *, *, #47, .F. ) ;
#31 = EDGE_LOOP ( 'NONE', ( #30, #100, #18, #17, #26 ) ) ;
#32 = ADVANCED_FACE ( 'NONE', ( #157 ), #152, .F. ) ;
#33 = ORIENTED_EDGE ( 'NONE', *, *, #50, .F. ) ;
#34 = ORIENTED_EDGE ( 'NONE', *, *, #36, .F. ) ;
#35 = VERTEX_POINT ( 'NONE', #151 ) ;
#36 = EDGE_CURVE ( 'NONE', #35, #42, #207, .T. ) ;
#37 = VERTEX_POINT ( 'NONE', #202 ) ;
#38 = EDGE_CURVE ( 'NONE', #37, #39, #201, .T. ) ;
#39 = VERTEX_POINT ( 'NONE', #196 ) ;
#40 = ORIENTED_EDGE ( 'NONE', *, *, #41, .T. ) ;
#41 = EDGE_CURVE ( 'NONE', #39, #42, #195, .T. ) ;
#42 = VERTEX_POINT ( 'NONE', #191 ) ;
#43 = EDGE_CURVE ( 'NONE', #14, #117, #190, .T. ) ;
#44 = EDGE_LOOP ( 'NONE', ( #49, #40, #34, #33 ) ) ;
#45 = VERTEX_POINT ( 'NONE', #185 ) ;
#46 = ADVANCED_FACE ( 'NONE', ( #184 ), #182, .T. ) ;
#47 = EDGE_CURVE ( 'NONE', #45, #16, #241, .T. ) ;
#48 = ORGANIZATION ( 'UNSPECIFIED', 'UNSPECIFIED', '' ) ;
#49 = ORIENTED_EDGE ( 'NONE', *, *, #38, .T. ) ;
#50 = EDGE_CURVE ( 'NONE', #37, #35, #236, .T. ) ;
#51 = ORIENTED_EDGE ( 'NONE', *, *, #43, .T. ) ;
#52 = ADVANCED_FACE ( 'NONE', ( #232 ), #231, .F. ) ;
#53 = ORIENTED_EDGE ( 'NONE', *, *, #10, .T. ) ;
#54 = ORIENTED_EDGE ( 'NONE', *, *, #25, .T. ) ;
#55 = ORIENTED_EDGE ( 'NONE', *, *, #15, .T. ) ;
#56 = ADVANCED_FACE ( 'NONE', ( #230, #225 ), #224, .F. ) ;
#57 = EDGE_LOOP ( 'NONE', ( #60, #61 ) ) ;
#58 = ORIENTED_EDGE ( 'NONE', *, *, #110, .T. ) ;
#59 = ORIENTED_EDGE ( 'NONE', *, *, #71, .F. ) ;
#60 = ORIENTED_EDGE ( 'NONE', *, *, #71, .T. ) ;
#61 = ORIENTED_EDGE ( 'NONE', *, *, #47, .T. ) ;
#62 = EDGE_LOOP ( 'NONE', ( #63, #65 ) ) ;
#63 = ORIENTED_EDGE ( 'NONE', *, *, #36, .T. ) ;
#64 = EDGE_LOOP ( 'NONE', ( #67, #68, #54, #55, #76 ) ) ;
#65 = ORIENTED_EDGE ( 'NONE', *, *, #85, .T. ) ;
#66 = ADVANCED_FACE ( 'NONE', ( #222 ), #218, .F. ) ;
#67 = ORIENTED_EDGE ( 'NONE', *, *, #113, .F. ) ;
#68 = ORIENTED_EDGE ( 'NONE', *, *, #80, .T. ) ;
#69 = EDGE_LOOP ( 'NONE', ( #78, #79, #53, #101 ) ) ;
#70 = ORIENTED_EDGE ( 'NONE', *, *, #75, .T. ) ;
#71 = EDGE_CURVE ( 'NONE', #16, #45, #217, .T. ) ;
#72 = ORIENTED_EDGE ( 'NONE', *, *, #27, .T. ) ;
#73 = EDGE_LOOP ( 'NONE', ( #74, #105, #103, #104 ) ) ;
#74 = ORIENTED_EDGE ( 'NONE', *, *, #94, .F. ) ;
#75 = EDGE_CURVE ( 'NONE', #96, #91, #272, .T. ) ;
#76 = ORIENTED_EDGE ( 'NONE', *, *, #107, .F. ) ;
#77 = ADVANCED_FACE ( 'NONE', ( #267 ), #266, .F. ) ;
#78 = ORIENTED_EDGE ( 'NONE', *, *, #21, .F. ) ;
#79 = ORIENTED_EDGE ( 'NONE', *, *, #82, .F. ) ;
#80 = EDGE_CURVE ( 'NONE', #112, #23, #261, .T. ) ;
#81 = ADVANCED_FACE ( 'NONE', ( #256 ), #255, .F. ) ;
#82 = EDGE_CURVE ( 'NONE', #97, #92, #250, .T. ) ;
#83 = ORIENTED_EDGE ( 'NONE', *, *, #80, .F. ) ;
#84 = CARTESIAN_POINT ( 'NONE',  ( -37.59199999999999900, 0.0000000000000000000, -90.15449999999999900 ) ) ;
#85 = EDGE_CURVE ( 'NONE', #42, #35, #245, .T. ) ;
#86 = ORIENTED_EDGE ( 'NONE', *, *, #50, .T. ) ;
#87 = ORIENTED_EDGE ( 'NONE', *, *, #85, .F. ) ;
#88 = ADVANCED_FACE ( 'NONE', ( #302 ), #301, .T. ) ;
#89 = ORIENTED_EDGE ( 'NONE', *, *, #115, .F. ) ;
#90 = ORIENTED_EDGE ( 'NONE', *, *, #119, .F. ) ;
#91 = VERTEX_POINT ( 'NONE', #300 ) ;
#92 = VERTEX_POINT ( 'NONE', #295 ) ;
#93 = EDGE_CURVE ( 'NONE', #92, #97, #294, .T. ) ;
#94 = EDGE_CURVE ( 'NONE', #97, #96, #289, .T. ) ;
#95 = ORIENTED_EDGE ( 'NONE', *, *, #94, .T. ) ;
#96 = VERTEX_POINT ( 'NONE', #285 ) ;
#97 = VERTEX_POINT ( 'NONE', #284 ) ;
#98 = ORIENTED_EDGE ( 'NONE', *, *, #110, .F. ) ;
#99 = ORIENTED_EDGE ( 'NONE', *, *, #93, .T. ) ;
#100 = ORIENTED_EDGE ( 'NONE', *, *, #24, .T. ) ;
#101 = ORIENTED_EDGE ( 'NONE', *, *, #107, .T. ) ;
#102 = ORIENTED_EDGE ( 'NONE', *, *, #24, .F. ) ;
#103 = ORIENTED_EDGE ( 'NONE', *, *, #119, .T. ) ;
#104 = ORIENTED_EDGE ( 'NONE', *, *, #75, .F. ) ;
#105 = ORIENTED_EDGE ( 'NONE', *, *, #82, .T. ) ;
#106 = EDGE_LOOP ( 'NONE', ( #102, #59, #72, #83, #89 ) ) ;
#107 = EDGE_CURVE ( 'NONE', #114, #126, #283, .T. ) ;
#108 = CLOSED_SHELL ( 'NONE', ( #136, #118, #46, #32, #28, #4, #81, #52, #88, #56, #66, #77 ) ) ;
#109 = ORIENTED_EDGE ( 'NONE', *, *, #115, .T. ) ;
#110 = EDGE_CURVE ( 'NONE', #91, #96, #278, .T. ) ;
#111 = ORIENTED_EDGE ( 'NONE', *, *, #113, .T. ) ;
#112 = VERTEX_POINT ( 'NONE', #273 ) ;
#113 = EDGE_CURVE ( 'NONE', #112, #114, #335, .T. ) ;
#114 = VERTEX_POINT ( 'NONE', #331 ) ;
#115 = EDGE_CURVE ( 'NONE', #117, #112, #330, .T. ) ;
#116 = EDGE_LOOP ( 'NONE', ( #109, #111, #6, #13, #51 ) ) ;
#117 = VERTEX_POINT ( 'NONE', #325 ) ;
#118 = ADVANCED_FACE ( 'NONE', ( #324 ), #322, .F. ) ;
#119 = EDGE_CURVE ( 'NONE', #92, #91, #318, .T. ) ;
#120 = DIRECTION ( 'NONE',  ( 1.000000000000000000, 0.0000000000000000000, 0.0000000000000000000 ) ) ;
#121 = DIRECTION ( 'NONE',  ( 0.0000000000000000000, -0.0000000000000000000, 1.000000000000000000 ) ) ;
#122 = CARTESIAN_POINT ( 'NONE',  ( 0.0000000000000000000, 41.00000000000000700, -120.0000000000000000 ) ) ;
#123 = AXIS2_PLACEMENT_3D ( 'NONE', #122, #121, #120 ) ;
#124 = FACE_BOUND ( 'NONE', #12, .T. ) ;
#125 = FACE_OUTER_BOUND ( 'NONE', #3, .T. ) ;
#126 = VERTEX_POINT ( 'NONE', #314 ) ;
#127 = PERSON_AND_ORGANIZATION ( #348, #48 ) ;
#128 = DIRECTION ( 'NONE',  ( -0.7882747985675397900, 0.0000000000000000000, -0.6153233637229327300 ) ) ;
#129 = DIRECTION ( 'NONE',  ( -0.0000000000000000000, -0.0000000000000000000, 1.000000000000000000 ) ) ;
#130 = VECTOR ( 'NONE', #129, 1000.000000000000000 ) ;
#131 = CARTESIAN_POINT ( 'NONE',  ( 37.59199999999999900, 0.0000000000000000000, -4.336808689942017700E-016 ) ) ;
#132 = LINE ( 'NONE', #131, #130 ) ;
#133 = VECTOR ( 'NONE', #128, 1000.000000000000000 ) ;
#134 = PLANE ( 'NONE',  #123 ) ;
#135 = MANIFOLD_SOLID_BREP ( 'NONE', #108 ) ;
#136 = ADVANCED_FACE ( 'NONE', ( #313 ), #311, .F. ) ;
#137 = EDGE_LOOP ( 'NONE', ( #99, #95, #98, #90 ) ) ;
#138 = EDGE_CURVE ( 'NONE', #126, #114, #307, .T. ) ;
#139 = DIRECTION ( 'NONE',  ( -0.0000000000000000000, -0.0000000000000000000, 1.000000000000000000 ) ) ;
#140 = LINE ( 'NONE', #84, #133 ) ;
#141 = PERSON_AND_ORGANIZATION_ROLE ( 'design_owner' ) ;
#142 = CARTESIAN_POINT ( 'NONE',  ( -36.11299999999998500, 0.0000000000000000000, -89.00000000000000000 ) ) ;
#143 = DIRECTION ( 'NONE',  ( 1.000000000000000000, 0.0000000000000000000, 0.0000000000000000000 ) ) ;
#144 = AXIS2_PLACEMENT_3D ( 'NONE', #145, #139, #143 ) ;
#145 = CARTESIAN_POINT ( 'NONE',  ( 0.0000000000000000000, 0.0000000000000000000, -120.0000000000000000 ) ) ;
#146 = CIRCLE ( 'NONE', #144, 41.00000000000000700 ) ;
#147 = CC_DESIGN_PERSON_AND_ORGANIZATION_ASSIGNMENT ( #127, #141, ( #349 ) ) ;
#148 = DIRECTION ( 'NONE',  ( -0.0000000000000000000, 3.911744792584154300E-017, -1.000000000000000000 ) ) ;
#149 = CARTESIAN_POINT ( 'NONE',  ( 0.0000000000000000000, 1.224646799147375100E-015, -120.0000000000001300 ) ) ;
#150 = AXIS2_PLACEMENT_3D ( 'NONE', #149, #148, #208 ) ;
#151 = CARTESIAN_POINT ( 'NONE',  ( 41.00000000000000000, 0.0000000000000000000, 0.0000000000000000000 ) ) ;
#152 = CYLINDRICAL_SURFACE ( 'NONE', #150, 36.11300000000000700 ) ;
#153 = DIRECTION ( 'NONE',  ( 1.000000000000000000, 0.0000000000000000000, 0.0000000000000000000 ) ) ;
#154 = DIRECTION ( 'NONE',  ( -0.0000000000000000000, -0.0000000000000000000, 1.000000000000000000 ) ) ;
#155 = CARTESIAN_POINT ( 'NONE',  ( 0.0000000000000000000, 0.0000000000000000000, -4.336808689942017700E-016 ) ) ;
#156 = AXIS2_PLACEMENT_3D ( 'NONE', #155, #154, #153 ) ;
#157 = FACE_OUTER_BOUND ( 'NONE', #31, .T. ) ;
#158 = CYLINDRICAL_SURFACE ( 'NONE', #156, 37.59199999999999900 ) ;
#159 = FACE_OUTER_BOUND ( 'NONE', #29, .T. ) ;
#160 = DIRECTION ( 'NONE',  ( -0.0000000000000000000, 3.911744792584154300E-017, -1.000000000000000000 ) ) ;
#161 = VECTOR ( 'NONE', #160, 1000.000000000000000 ) ;
#162 = CARTESIAN_POINT ( 'NONE',  ( 0.0000000000000000000, 36.11300000000000700, -120.0000000000001300 ) ) ;
#163 = LINE ( 'NONE', #162, #161 ) ;
#164 = DIRECTION ( 'NONE',  ( 1.000000000000000000, 0.0000000000000000000, 0.0000000000000000000 ) ) ;
#165 = DIRECTION ( 'NONE',  ( -0.0000000000000000000, -0.0000000000000000000, 1.000000000000000000 ) ) ;
#166 = CARTESIAN_POINT ( 'NONE',  ( 0.0000000000000000000, 0.0000000000000000000, -89.00000000000000000 ) ) ;
#167 = AXIS2_PLACEMENT_3D ( 'NONE', #166, #165, #164 ) ;
#168 = CIRCLE ( 'NONE', #167, 36.11299999999998500 ) ;
#169 = DIRECTION ( 'NONE',  ( -0.0000000000000000000, 3.911744792584154300E-017, -1.000000000000000000 ) ) ;
#170 = VECTOR ( 'NONE', #169, 1000.000000000000000 ) ;
#171 = CARTESIAN_POINT ( 'NONE',  ( 4.422420925558752200E-015, -36.11300000000000700, -120.0000000000001300 ) ) ;
#172 = LINE ( 'NONE', #171, #170 ) ;
#173 = CARTESIAN_POINT ( 'NONE',  ( 0.0000000000000000000, 36.11299999999998500, -89.00000000000000000 ) ) ;
#174 = DIRECTION ( 'NONE',  ( -0.0000000000000000000, -0.0000000000000000000, 1.000000000000000000 ) ) ;
#175 = VECTOR ( 'NONE', #174, 1000.000000000000000 ) ;
#176 = CARTESIAN_POINT ( 'NONE',  ( -37.59199999999999900, 4.603540205289080300E-015, -4.336808689942017700E-016 ) ) ;
#177 = LINE ( 'NONE', #176, #175 ) ;
#178 = CARTESIAN_POINT ( 'NONE',  ( 0.0000000000000000000, 36.11299999999998500, 1.412648396945915200E-015 ) ) ;
#179 = DIRECTION ( 'NONE',  ( 1.000000000000000000, 0.0000000000000000000, 0.0000000000000000000 ) ) ;
#180 = DIRECTION ( 'NONE',  ( -0.0000000000000000000, -0.0000000000000000000, 1.000000000000000000 ) ) ;
#181 = AXIS2_PLACEMENT_3D ( 'NONE', #183, #180, #179 ) ;
#182 = CYLINDRICAL_SURFACE ( 'NONE', #181, 41.00000000000000700 ) ;
#183 = CARTESIAN_POINT ( 'NONE',  ( 0.0000000000000000000, 0.0000000000000000000, -4.336808689942017700E-016 ) ) ;
#184 = FACE_OUTER_BOUND ( 'NONE', #44, .T. ) ;
#185 = CARTESIAN_POINT ( 'NONE',  ( 4.422420925558751400E-015, -36.11300000000000000, -1.412648396945915200E-015 ) ) ;
#186 = DIRECTION ( 'NONE',  ( 1.000000000000000000, 0.0000000000000000000, 0.0000000000000000000 ) ) ;
#187 = DIRECTION ( 'NONE',  ( -0.0000000000000000000, -0.0000000000000000000, 1.000000000000000000 ) ) ;
#188 = CARTESIAN_POINT ( 'NONE',  ( 0.0000000000000000000, 0.0000000000000000000, -89.00000000000000000 ) ) ;
#189 = AXIS2_PLACEMENT_3D ( 'NONE', #188, #187, #186 ) ;
#190 = CIRCLE ( 'NONE', #189, 36.11299999999998500 ) ;
#191 = CARTESIAN_POINT ( 'NONE',  ( -41.00000000000000000, 5.020886050671746800E-015, 0.0000000000000000000 ) ) ;
#192 = DIRECTION ( 'NONE',  ( -0.0000000000000000000, -0.0000000000000000000, 1.000000000000000000 ) ) ;
#193 = VECTOR ( 'NONE', #192, 1000.000000000000000 ) ;
#194 = CARTESIAN_POINT ( 'NONE',  ( -41.00000000000000700, 5.020886050671747500E-015, -4.336808689942017700E-016 ) ) ;
#195 = LINE ( 'NONE', #194, #193 ) ;
#196 = CARTESIAN_POINT ( 'NONE',  ( -41.00000000000000700, 5.020886050671747500E-015, -120.0000000000000000 ) ) ;
#197 = DIRECTION ( 'NONE',  ( 1.000000000000000000, 0.0000000000000000000, 0.0000000000000000000 ) ) ;
#198 = DIRECTION ( 'NONE',  ( -0.0000000000000000000, -0.0000000000000000000, 1.000000000000000000 ) ) ;
#199 = CARTESIAN_POINT ( 'NONE',  ( 0.0000000000000000000, 0.0000000000000000000, -120.0000000000000000 ) ) ;
#200 = AXIS2_PLACEMENT_3D ( 'NONE', #199, #198, #197 ) ;
#201 = CIRCLE ( 'NONE', #200, 41.00000000000000700 ) ;
#202 = CARTESIAN_POINT ( 'NONE',  ( 41.00000000000000700, 0.0000000000000000000, -120.0000000000000000 ) ) ;
#203 = DIRECTION ( 'NONE',  ( 1.000000000000000000, 0.0000000000000000000, 0.0000000000000000000 ) ) ;
#204 = DIRECTION ( 'NONE',  ( -0.0000000000000000000, -0.0000000000000000000, 1.000000000000000000 ) ) ;
#205 = CARTESIAN_POINT ( 'NONE',  ( 0.0000000000000000000, 0.0000000000000000000, 0.0000000000000000000 ) ) ;
#206 = AXIS2_PLACEMENT_3D ( 'NONE', #205, #204, #203 ) ;
#207 = CIRCLE ( 'NONE', #206, 41.00000000000000000 ) ;
#208 = DIRECTION ( 'NONE',  ( 0.0000000000000000000, 1.000000000000000000, 0.0000000000000000000 ) ) ;
#209 = DIRECTION ( 'NONE',  ( 0.0000000000000000000, 1.000000000000000000, 3.911744792584153700E-017 ) ) ;
#210 = DIRECTION ( 'NONE',  ( -0.0000000000000000000, 3.911744792584154300E-017, -1.000000000000000000 ) ) ;
#211 = CARTESIAN_POINT ( 'NONE',  ( 0.0000000000000000000, -3.469446951953615000E-015, 0.0000000000000000000 ) ) ;
#212 = AXIS2_PLACEMENT_3D ( 'NONE', #211, #210, #209 ) ;
#213 = DIRECTION ( 'NONE',  ( -1.000000000000000000, 0.0000000000000000000, 0.0000000000000000000 ) ) ;
#214 = DIRECTION ( 'NONE',  ( 0.0000000000000000000, 0.0000000000000000000, -1.000000000000000000 ) ) ;
#215 = CARTESIAN_POINT ( 'NONE',  ( 0.0000000000000000000, 0.0000000000000000000, -90.15449999999999900 ) ) ;
#216 = AXIS2_PLACEMENT_3D ( 'NONE', #215, #214, #213 ) ;
#217 = CIRCLE ( 'NONE', #212, 36.11299999999999200 ) ;
#218 = CONICAL_SURFACE ( 'NONE', #216, 37.59199999999999900, 0.9080002089392065200 ) ;
#219 = DIRECTION ( 'NONE',  ( -1.000000000000000000, 0.0000000000000000000, -0.0000000000000000000 ) ) ;
#220 = DIRECTION ( 'NONE',  ( 0.0000000000000000000, 0.0000000000000000000, -1.000000000000000000 ) ) ;
#221 = AXIS2_PLACEMENT_3D ( 'NONE', #223, #220, #219 ) ;
#222 = FACE_OUTER_BOUND ( 'NONE', #64, .T. ) ;
#223 = CARTESIAN_POINT ( 'NONE',  ( 0.0000000000000000000, 41.00000000000000000, -2.168404344971008900E-016 ) ) ;
#224 = PLANE ( 'NONE',  #221 ) ;
#225 = FACE_OUTER_BOUND ( 'NONE', #62, .T. ) ;
#226 = DIRECTION ( 'NONE',  ( 0.0000000000000000000, 1.000000000000000000, 0.0000000000000000000 ) ) ;
#227 = DIRECTION ( 'NONE',  ( -0.0000000000000000000, 3.911744792584154300E-017, -1.000000000000000000 ) ) ;
#228 = CARTESIAN_POINT ( 'NONE',  ( 0.0000000000000000000, 1.224646799147375100E-015, -120.0000000000001300 ) ) ;
#229 = AXIS2_PLACEMENT_3D ( 'NONE', #228, #227, #226 ) ;
#230 = FACE_BOUND ( 'NONE', #57, .T. ) ;
#231 = CYLINDRICAL_SURFACE ( 'NONE', #229, 36.11300000000000700 ) ;
#232 = FACE_OUTER_BOUND ( 'NONE', #106, .T. ) ;
#233 = DIRECTION ( 'NONE',  ( -0.0000000000000000000, -0.0000000000000000000, 1.000000000000000000 ) ) ;
#234 = VECTOR ( 'NONE', #233, 1000.000000000000000 ) ;
#235 = CARTESIAN_POINT ( 'NONE',  ( 41.00000000000000700, 0.0000000000000000000, -4.336808689942017700E-016 ) ) ;
#236 = LINE ( 'NONE', #235, #234 ) ;
#237 = DIRECTION ( 'NONE',  ( 0.0000000000000000000, 1.000000000000000000, 3.911744792584153700E-017 ) ) ;
#238 = DIRECTION ( 'NONE',  ( -0.0000000000000000000, 3.911744792584154300E-017, -1.000000000000000000 ) ) ;
#239 = CARTESIAN_POINT ( 'NONE',  ( 0.0000000000000000000, -3.469446951953615000E-015, 0.0000000000000000000 ) ) ;
#240 = AXIS2_PLACEMENT_3D ( 'NONE', #239, #238, #237 ) ;
#241 = CIRCLE ( 'NONE', #240, 36.11299999999999200 ) ;
#242 = DIRECTION ( 'NONE',  ( -0.0000000000000000000, -0.0000000000000000000, 1.000000000000000000 ) ) ;
#243 = CARTESIAN_POINT ( 'NONE',  ( 0.0000000000000000000, 0.0000000000000000000, 0.0000000000000000000 ) ) ;
#244 = AXIS2_PLACEMENT_3D ( 'NONE', #243, #242, #303 ) ;
#245 = CIRCLE ( 'NONE', #244, 41.00000000000000000 ) ;
#246 = DIRECTION ( 'NONE',  ( 1.000000000000000000, 0.0000000000000000000, 0.0000000000000000000 ) ) ;
#247 = DIRECTION ( 'NONE',  ( -0.0000000000000000000, -0.0000000000000000000, 1.000000000000000000 ) ) ;
#248 = CARTESIAN_POINT ( 'NONE',  ( 0.0000000000000000000, 0.0000000000000000000, -118.6872584332664600 ) ) ;
#249 = AXIS2_PLACEMENT_3D ( 'NONE', #248, #247, #246 ) ;
#250 = CIRCLE ( 'NONE', #249, 37.59199999999999900 ) ;
#251 = DIRECTION ( 'NONE',  ( 1.000000000000000000, 0.0000000000000000000, 0.0000000000000000000 ) ) ;
#252 = DIRECTION ( 'NONE',  ( -0.0000000000000000000, -0.0000000000000000000, 1.000000000000000000 ) ) ;
#253 = CARTESIAN_POINT ( 'NONE',  ( 0.0000000000000000000, 0.0000000000000000000, -4.336808689942017700E-016 ) ) ;
#254 = AXIS2_PLACEMENT_3D ( 'NONE', #253, #252, #251 ) ;
#255 = CYLINDRICAL_SURFACE ( 'NONE', #254, 37.59199999999999900 ) ;
#256 = FACE_OUTER_BOUND ( 'NONE', #69, .T. ) ;
#257 = DIRECTION ( 'NONE',  ( 1.000000000000000000, 0.0000000000000000000, 0.0000000000000000000 ) ) ;
#258 = DIRECTION ( 'NONE',  ( -0.0000000000000000000, -0.0000000000000000000, 1.000000000000000000 ) ) ;
#259 = CARTESIAN_POINT ( 'NONE',  ( 0.0000000000000000000, 0.0000000000000000000, -89.00000000000000000 ) ) ;
#260 = AXIS2_PLACEMENT_3D ( 'NONE', #259, #258, #257 ) ;
#261 = CIRCLE ( 'NONE', #260, 36.11299999999998500 ) ;
#262 = DIRECTION ( 'NONE',  ( -1.000000000000000000, 0.0000000000000000000, 0.0000000000000000000 ) ) ;
#263 = DIRECTION ( 'NONE',  ( 0.0000000000000000000, 0.0000000000000000000, -1.000000000000000000 ) ) ;
#264 = CARTESIAN_POINT ( 'NONE',  ( 0.0000000000000000000, 0.0000000000000000000, -120.0000000000000000 ) ) ;
#265 = AXIS2_PLACEMENT_3D ( 'NONE', #264, #263, #262 ) ;
#266 = CONICAL_SURFACE ( 'NONE', #265, 38.90474156673354100, 0.7853981633974536100 ) ;
#267 = FACE_OUTER_BOUND ( 'NONE', #73, .T. ) ;
#268 = DIRECTION ( 'NONE',  ( 1.000000000000000000, 0.0000000000000000000, 0.0000000000000000000 ) ) ;
#269 = DIRECTION ( 'NONE',  ( -0.0000000000000000000, -0.0000000000000000000, 1.000000000000000000 ) ) ;
#270 = CARTESIAN_POINT ( 'NONE',  ( 0.0000000000000000000, 0.0000000000000000000, -120.0000000000000000 ) ) ;
#271 = AXIS2_PLACEMENT_3D ( 'NONE', #270, #269, #268 ) ;
#272 = CIRCLE ( 'NONE', #271, 38.90474156673354100 ) ;
#273 = CARTESIAN_POINT ( 'NONE',  ( 36.11299999999998500, 4.512980565423915000E-015, -89.00000000000000000 ) ) ;
#274 = DIRECTION ( 'NONE',  ( 1.000000000000000000, 0.0000000000000000000, 0.0000000000000000000 ) ) ;
#275 = DIRECTION ( 'NONE',  ( -0.0000000000000000000, -0.0000000000000000000, 1.000000000000000000 ) ) ;
#276 = CARTESIAN_POINT ( 'NONE',  ( 0.0000000000000000000, 0.0000000000000000000, -120.0000000000000000 ) ) ;
#277 = AXIS2_PLACEMENT_3D ( 'NONE', #276, #275, #274 ) ;
#278 = CIRCLE ( 'NONE', #277, 38.90474156673354100 ) ;
#279 = DIRECTION ( 'NONE',  ( 1.000000000000000000, 0.0000000000000000000, 0.0000000000000000000 ) ) ;
#280 = DIRECTION ( 'NONE',  ( -0.0000000000000000000, -0.0000000000000000000, 1.000000000000000000 ) ) ;
#281 = CARTESIAN_POINT ( 'NONE',  ( 0.0000000000000000000, 0.0000000000000000000, -90.15449999999999900 ) ) ;
#282 = AXIS2_PLACEMENT_3D ( 'NONE', #281, #280, #279 ) ;
#283 = CIRCLE ( 'NONE', #282, 37.59199999999999900 ) ;
#284 = CARTESIAN_POINT ( 'NONE',  ( 37.59199999999999900, 0.0000000000000000000, -118.6872584332664600 ) ) ;
#285 = CARTESIAN_POINT ( 'NONE',  ( 38.90474156673354100, 4.764299371643944200E-015, -120.0000000000000000 ) ) ;
#286 = DIRECTION ( 'NONE',  ( 0.7071067811865512400, 8.659274570719402300E-017, -0.7071067811865439100 ) ) ;
#287 = VECTOR ( 'NONE', #286, 999.9999999999998900 ) ;
#288 = CARTESIAN_POINT ( 'NONE',  ( 38.90474156673354100, 4.764299371643944200E-015, -120.0000000000000000 ) ) ;
#289 = LINE ( 'NONE', #288, #287 ) ;
#290 = DIRECTION ( 'NONE',  ( 1.000000000000000000, 0.0000000000000000000, 0.0000000000000000000 ) ) ;
#291 = DIRECTION ( 'NONE',  ( -0.0000000000000000000, -0.0000000000000000000, 1.000000000000000000 ) ) ;
#292 = CARTESIAN_POINT ( 'NONE',  ( 0.0000000000000000000, 0.0000000000000000000, -118.6872584332664600 ) ) ;
#293 = AXIS2_PLACEMENT_3D ( 'NONE', #292, #291, #290 ) ;
#294 = CIRCLE ( 'NONE', #293, 37.59199999999999900 ) ;
#295 = CARTESIAN_POINT ( 'NONE',  ( -37.59199999999999900, 4.603540205289080300E-015, -118.6872584332664600 ) ) ;
#296 = DIRECTION ( 'NONE',  ( 1.000000000000000000, 0.0000000000000000000, 0.0000000000000000000 ) ) ;
#297 = DIRECTION ( 'NONE',  ( -0.0000000000000000000, -0.0000000000000000000, 1.000000000000000000 ) ) ;
#298 = CARTESIAN_POINT ( 'NONE',  ( 0.0000000000000000000, 0.0000000000000000000, -4.336808689942017700E-016 ) ) ;
#299 = AXIS2_PLACEMENT_3D ( 'NONE', #298, #297, #296 ) ;
#300 = CARTESIAN_POINT ( 'NONE',  ( -38.90474156673354100, 0.0000000000000000000, -120.0000000000000000 ) ) ;
#301 = CYLINDRICAL_SURFACE ( 'NONE', #299, 41.00000000000000700 ) ;
#302 = FACE_OUTER_BOUND ( 'NONE', #8, .T. ) ;
#303 = DIRECTION ( 'NONE',  ( 1.000000000000000000, 0.0000000000000000000, 0.0000000000000000000 ) ) ;
#304 = DIRECTION ( 'NONE',  ( -0.0000000000000000000, -0.0000000000000000000, 1.000000000000000000 ) ) ;
#305 = CARTESIAN_POINT ( 'NONE',  ( 0.0000000000000000000, 0.0000000000000000000, -90.15449999999999900 ) ) ;
#306 = AXIS2_PLACEMENT_3D ( 'NONE', #305, #304, #347 ) ;
#307 = CIRCLE ( 'NONE', #306, 37.59199999999999900 ) ;
#308 = DIRECTION ( 'NONE',  ( -1.000000000000000000, 0.0000000000000000000, 0.0000000000000000000 ) ) ;
#309 = DIRECTION ( 'NONE',  ( 0.0000000000000000000, 0.0000000000000000000, -1.000000000000000000 ) ) ;
#310 = AXIS2_PLACEMENT_3D ( 'NONE', #312, #309, #308 ) ;
#311 = CONICAL_SURFACE ( 'NONE', #310, 38.90474156673354100, 0.7853981633974536100 ) ;
#312 = CARTESIAN_POINT ( 'NONE',  ( 0.0000000000000000000, 0.0000000000000000000, -120.0000000000000000 ) ) ;
#313 = FACE_OUTER_BOUND ( 'NONE', #137, .T. ) ;
#314 = CARTESIAN_POINT ( 'NONE',  ( -37.59199999999999900, 4.603540205289080300E-015, -90.15449999999999900 ) ) ;
#315 = DIRECTION ( 'NONE',  ( -0.7071067811865512400, 0.0000000000000000000, -0.7071067811865439100 ) ) ;
#316 = VECTOR ( 'NONE', #315, 999.9999999999998900 ) ;
#317 = CARTESIAN_POINT ( 'NONE',  ( -38.90474156673354100, 0.0000000000000000000, -120.0000000000000000 ) ) ;
#318 = LINE ( 'NONE', #317, #316 ) ;
#319 = DIRECTION ( 'NONE',  ( -1.000000000000000000, 0.0000000000000000000, 0.0000000000000000000 ) ) ;
#320 = DIRECTION ( 'NONE',  ( 0.0000000000000000000, 0.0000000000000000000, -1.000000000000000000 ) ) ;
#321 = AXIS2_PLACEMENT_3D ( 'NONE', #323, #320, #319 ) ;
#322 = CONICAL_SURFACE ( 'NONE', #321, 37.59199999999999900, 0.9080002089392065200 ) ;
#323 = CARTESIAN_POINT ( 'NONE',  ( 0.0000000000000000000, 0.0000000000000000000, -90.15449999999999900 ) ) ;
#324 = FACE_OUTER_BOUND ( 'NONE', #116, .T. ) ;
#325 = CARTESIAN_POINT ( 'NONE',  ( 4.422420925558751400E-015, -36.11299999999998500, -89.00000000000000000 ) ) ;
#326 = DIRECTION ( 'NONE',  ( 1.000000000000000000, 0.0000000000000000000, 0.0000000000000000000 ) ) ;
#327 = DIRECTION ( 'NONE',  ( -0.0000000000000000000, -0.0000000000000000000, 1.000000000000000000 ) ) ;
#328 = CARTESIAN_POINT ( 'NONE',  ( 0.0000000000000000000, 0.0000000000000000000, -89.00000000000000000 ) ) ;
#329 = AXIS2_PLACEMENT_3D ( 'NONE', #328, #327, #326 ) ;
#330 = CIRCLE ( 'NONE', #329, 36.11299999999998500 ) ;
#331 = CARTESIAN_POINT ( 'NONE',  ( 37.59199999999999900, 0.0000000000000000000, -90.15449999999999900 ) ) ;
#332 = DIRECTION ( 'NONE',  ( 0.7882747985675397900, 9.653263268838637600E-017, -0.6153233637229327300 ) ) ;
#333 = VECTOR ( 'NONE', #332, 1000.000000000000000 ) ;
#334 = CARTESIAN_POINT ( 'NONE',  ( 37.59199999999999900, 4.603540205289080300E-015, -90.15449999999999900 ) ) ;
#335 = LINE ( 'NONE', #334, #333 ) ;
#336 = APPLICATION_CONTEXT ( 'configuration controlled 3d designs of mechanical parts and assemblies' ) ;
#337 = DIRECTION ( 'NONE',  ( 1.000000000000000000, 0.0000000000000000000, 0.0000000000000000000 ) ) ;
#338 = DIRECTION ( 'NONE',  ( 0.0000000000000000000, 0.0000000000000000000, 1.000000000000000000 ) ) ;
#339 = CARTESIAN_POINT ( 'NONE',  ( 0.0000000000000000000, 0.0000000000000000000, 0.0000000000000000000 ) ) ;
#340 = ADVANCED_BREP_SHAPE_REPRESENTATION ( '19-0408-10_outokumpu', ( #135, #346 ), #341 ) ;
#341 =( GEOMETRIC_REPRESENTATION_CONTEXT ( 3 ) GLOBAL_UNCERTAINTY_ASSIGNED_CONTEXT ( ( #342 ) ) GLOBAL_UNIT_ASSIGNED_CONTEXT ( ( #345, #344, #343 ) ) REPRESENTATION_CONTEXT ( 'NONE', 'WORKASPACE' ) );
#342 = UNCERTAINTY_MEASURE_WITH_UNIT (LENGTH_MEASURE( 1.000000000000000100E-005 ), #345, 'distance_accuracy_value', 'NONE');
#343 =( NAMED_UNIT ( * ) SI_UNIT ( $, .STERADIAN. ) SOLID_ANGLE_UNIT ( ) );
#344 =( NAMED_UNIT ( * ) PLANE_ANGLE_UNIT ( ) SI_UNIT ( $, .RADIAN. ) );
#345 =( LENGTH_UNIT ( ) NAMED_UNIT ( * ) SI_UNIT ( .MILLI., .METRE. ) );
#346 = AXIS2_PLACEMENT_3D ( 'NONE', #339, #338, #337 ) ;
#347 = DIRECTION ( 'NONE',  ( 1.000000000000000000, 0.0000000000000000000, 0.0000000000000000000 ) ) ;
#348 = PERSON ( 'UNSPECIFIED', 'UNSPECIFIED', 'UNSPECIFIED', ('UNSPECIFIED'), ('UNSPECIFIED'), ('UNSPECIFIED') ) ;
#349 = PRODUCT ( '19-0408-10_outokumpu', '19-0408-10_outokumpu', '', ( #350 ) ) ;
#350 = MECHANICAL_CONTEXT ( 'NONE', #336, 'mechanical' ) ;
#351 = APPLICATION_PROTOCOL_DEFINITION ( 'international standard', 'config_control_design', 1994, #336 ) ;
#352 = PERSON_AND_ORGANIZATION ( #348, #48 ) ;
#353 = SECURITY_CLASSIFICATION ( '', '', #354 ) ;
#354 = SECURITY_CLASSIFICATION_LEVEL ( 'unclassified' ) ;
#355 = CC_DESIGN_PERSON_AND_ORGANIZATION_ASSIGNMENT ( #357, #356, ( #372 ) ) ;
#356 = PERSON_AND_ORGANIZATION_ROLE ( 'design_supplier' ) ;
#357 = PERSON_AND_ORGANIZATION ( #348, #48 ) ;
#358 = CC_DESIGN_PERSON_AND_ORGANIZATION_ASSIGNMENT ( #360, #359, ( #372 ) ) ;
#359 = PERSON_AND_ORGANIZATION_ROLE ( 'creator' ) ;
#360 = PERSON_AND_ORGANIZATION ( #348, #48 ) ;
#361 = CC_DESIGN_APPROVAL ( #369, ( #372 ) ) ;
#362 = APPROVAL_DATE_TIME ( #363, #369 ) ;
#363 = DATE_AND_TIME ( #364, #365 ) ;
#364 = CALENDAR_DATE ( 2015, 11, 8 ) ;
#365 = LOCAL_TIME ( 11, 45, 8.000000000000000000, #366 ) ;
#366 = COORDINATED_UNIVERSAL_TIME_OFFSET ( 1, 0, .AHEAD. ) ;
#367 = APPROVAL_PERSON_ORGANIZATION ( #371, #369, #368 ) ;
#368 = APPROVAL_ROLE ( '' ) ;
#369 = APPROVAL ( #370, 'UNSPECIFIED' ) ;
#370 = APPROVAL_STATUS ( 'not_yet_approved' ) ;
#371 = PERSON_AND_ORGANIZATION ( #348, #48 ) ;
#372 = PRODUCT_DEFINITION_FORMATION_WITH_SPECIFIED_SOURCE ( 'ANY', '', #349, .NOT_KNOWN. ) ;
#373 = CC_DESIGN_DATE_AND_TIME_ASSIGNMENT ( #375, #374, ( #393 ) ) ;
#374 = DATE_TIME_ROLE ( 'creation_date' ) ;
#375 = DATE_AND_TIME ( #376, #377 ) ;
#376 = CALENDAR_DATE ( 2015, 11, 8 ) ;
#377 = LOCAL_TIME ( 11, 45, 8.000000000000000000, #378 ) ;
#378 = COORDINATED_UNIVERSAL_TIME_OFFSET ( 1, 0, .AHEAD. ) ;
#379 = CC_DESIGN_PERSON_AND_ORGANIZATION_ASSIGNMENT ( #381, #380, ( #393 ) ) ;
#380 = PERSON_AND_ORGANIZATION_ROLE ( 'creator' ) ;
#381 = PERSON_AND_ORGANIZATION ( #348, #48 ) ;
#382 = CC_DESIGN_APPROVAL ( #390, ( #393 ) ) ;
#383 = APPROVAL_DATE_TIME ( #384, #390 ) ;
#384 = DATE_AND_TIME ( #385, #386 ) ;
#385 = CALENDAR_DATE ( 2015, 11, 8 ) ;
#386 = LOCAL_TIME ( 11, 45, 8.000000000000000000, #387 ) ;
#387 = COORDINATED_UNIVERSAL_TIME_OFFSET ( 1, 0, .AHEAD. ) ;
#388 = APPROVAL_PERSON_ORGANIZATION ( #392, #390, #389 ) ;
#389 = APPROVAL_ROLE ( '' ) ;
#390 = APPROVAL ( #391, 'UNSPECIFIED' ) ;
#391 = APPROVAL_STATUS ( 'not_yet_approved' ) ;
#392 = PERSON_AND_ORGANIZATION ( #348, #48 ) ;
#393 = PRODUCT_DEFINITION ( 'UNKNOWN', '', #372, #394 ) ;
#394 = DESIGN_CONTEXT ( 'detailed design', #396, 'design' ) ;
#395 = APPLICATION_PROTOCOL_DEFINITION ( 'international standard', 'config_control_design', 1994, #396 ) ;
#396 = APPLICATION_CONTEXT ( 'configuration controlled 3d designs of mechanical parts and assemblies' ) ;
#397 = SHAPE_DEFINITION_REPRESENTATION ( #398, #340 ) ;
#398 = PRODUCT_DEFINITION_SHAPE ( 'NONE', 'NONE',  #393 ) ;
#399 = PRODUCT_RELATED_PRODUCT_CATEGORY ( 'detail', '', ( #349 ) ) ;
#400 = CC_DESIGN_SECURITY_CLASSIFICATION ( #353, ( #372 ) ) ;
#401 = CC_DESIGN_APPROVAL ( #409, ( #353 ) ) ;
#402 = APPROVAL_DATE_TIME ( #403, #409 ) ;
#403 = DATE_AND_TIME ( #404, #405 ) ;
#404 = CALENDAR_DATE ( 2015, 11, 8 ) ;
#405 = LOCAL_TIME ( 11, 45, 8.000000000000000000, #406 ) ;
#406 = COORDINATED_UNIVERSAL_TIME_OFFSET ( 1, 0, .AHEAD. ) ;
#407 = APPROVAL_PERSON_ORGANIZATION ( #411, #409, #408 ) ;
#408 = APPROVAL_ROLE ( '' ) ;
#409 = APPROVAL ( #410, 'UNSPECIFIED' ) ;
#410 = APPROVAL_STATUS ( 'not_yet_approved' ) ;
#411 = PERSON_AND_ORGANIZATION ( #348, #48 ) ;
#412 = CC_DESIGN_DATE_AND_TIME_ASSIGNMENT ( #414, #413, ( #353 ) ) ;
#413 = DATE_TIME_ROLE ( 'classification_date' ) ;
#414 = DATE_AND_TIME ( #415, #416 ) ;
#415 = CALENDAR_DATE ( 2015, 11, 8 ) ;
#416 = LOCAL_TIME ( 11, 45, 8.000000000000000000, #417 ) ;
#417 = COORDINATED_UNIVERSAL_TIME_OFFSET ( 1, 0, .AHEAD. ) ;
#418 = CC_DESIGN_PERSON_AND_ORGANIZATION_ASSIGNMENT ( #352, #419, ( #353 ) ) ;
#419 = PERSON_AND_ORGANIZATION_ROLE ( 'classification_officer' ) ;
ENDSEC;
END-ISO-10303-21;
