ISO-10303-21;
HEADER;
FILE_DESCRIPTION (( 'STEP AP203' ),
    '1' );
FILE_NAME ('3D_GR1234_60.3x2_188702265.STEP',
    '2024-10-14T12:00:49',
    ( '' ),
    ( '' ),
    'SwSTEP 2.0',
    'SolidWorks 2024',
    '' );
FILE_SCHEMA (( 'CONFIG_CONTROL_DESIGN' ));
ENDSEC;

DATA;
#1 = ADVANCED_FACE ( 'NONE', ( #171 ), #330, .T. ) ;
#2 = DIRECTION ( 'NONE',  ( 1.000000000000000000, 0.000000000000000000, 0.000000000000000000 ) ) ;
#3 = CARTESIAN_POINT ( 'NONE',  ( 0.000000000000000000, 11.08692071745779018, 0.000000000000000000 ) ) ;
#4 = PRODUCT ( '3D_GR1234_60.3x2_188702265', '3D_GR1234_60.3x2_188702265', '', ( #81 ) ) ;
#5 = ADVANCED_FACE ( 'NONE', ( #261 ), #82, .T. ) ;
#6 = CIRCLE ( 'NONE', #100, 28.15000000000000213 ) ;
#7 = MANIFOLD_SOLID_BREP ( 'Rotation1', #8 ) ;
#8 = CLOSED_SHELL ( 'NONE', ( #125, #219, #376, #314, #289, #93, #5, #70, #1, #259, #14, #168 ) ) ;
#9 = APPLICATION_PROTOCOL_DEFINITION ( 'international standard', 'config_control_design', 1994, #282 ) ;
#10 = DATE_AND_TIME ( #332, #245 ) ;
#11 = ORIENTED_EDGE ( 'NONE', *, *, #22, .F. ) ;
#12 = ORIENTED_EDGE ( 'NONE', *, *, #293, .T. ) ;
#13 = CIRCLE ( 'NONE', #116, 28.15000000000000213 ) ;
#14 = ADVANCED_FACE ( 'NONE', ( #198 ), #169, .F. ) ;
#15 = ORIENTED_EDGE ( 'NONE', *, *, #383, .T. ) ;
#16 = ORIENTED_EDGE ( 'NONE', *, *, #108, .T. ) ;
#17 = DIRECTION ( 'NONE',  ( 0.000000000000000000, 0.000000000000000000, -1.000000000000000000 ) ) ;
#18 = ORIENTED_EDGE ( 'NONE', *, *, #216, .F. ) ;
#19 = CARTESIAN_POINT ( 'NONE',  ( -30.14999999999999503, 11.08692071745778840, 0.000000000000000000 ) ) ;
#20 = CARTESIAN_POINT ( 'NONE',  ( 2.149460580469620995E-16, 41.23692071745778520, 0.000000000000000000 ) ) ;
#21 = AXIS2_PLACEMENT_3D ( 'NONE', #160, #275, #153 ) ;
#22 = EDGE_CURVE ( 'NONE', #49, #193, #269, .T. ) ;
#23 = AXIS2_PLACEMENT_3D ( 'NONE', #229, #324, #32 ) ;
#24 = FACE_OUTER_BOUND ( 'NONE', #55, .T. ) ;
#25 =( NAMED_UNIT ( * ) SI_UNIT ( $, .STERADIAN. ) SOLID_ANGLE_UNIT ( ) );
#26 = LINE ( 'NONE', #110, #75 ) ;
#27 = ORIENTED_EDGE ( 'NONE', *, *, #293, .F. ) ;
#28 = DIRECTION ( 'NONE',  ( 1.786522970434277846E-17, -1.000000000000000000, -0.000000000000000000 ) ) ;
#29 = ORIENTED_EDGE ( 'NONE', *, *, #22, .T. ) ;
#30 = EDGE_LOOP ( 'NONE', ( #379, #29 ) ) ;
#31 = AXIS2_PLACEMENT_3D ( 'NONE', #199, #165, #252 ) ;
#32 = DIRECTION ( 'NONE',  ( -1.000000000000000000, 0.000000000000000000, 0.000000000000000000 ) ) ;
#33 = PRODUCT_DEFINITION ( 'UNKNOWN', '', #56, #132 ) ;
#34 = APPROVAL_ROLE ( '' ) ;
#35 = ORIENTED_EDGE ( 'NONE', *, *, #104, .F. ) ;
#36 = CARTESIAN_POINT ( 'NONE',  ( 7.535827336328968635E-16, 11.08692071745778840, 0.000000000000000000 ) ) ;
#37 = PERSON_AND_ORGANIZATION_ROLE ( 'creator' ) ;
#38 = EDGE_CURVE ( 'NONE', #136, #285, #218, .T. ) ;
#39 = DIRECTION ( 'NONE',  ( 1.000000000000000000, 0.000000000000000000, 0.000000000000000000 ) ) ;
#40 = CIRCLE ( 'NONE', #249, 30.14999999999999503 ) ;
#41 = DIRECTION ( 'NONE',  ( -1.000000000000000000, -1.786522970434277846E-17, 0.000000000000000000 ) ) ;
#42 = COORDINATED_UNIVERSAL_TIME_OFFSET ( 1, 0, .AHEAD. ) ;
#43 = PERSON_AND_ORGANIZATION_ROLE ( 'design_supplier' ) ;
#44 = CARTESIAN_POINT ( 'NONE',  ( 25.14999999999999858, -13.91307928254221338, 0.000000000000000000 ) ) ;
#45 = EDGE_CURVE ( 'NONE', #161, #58, #178, .T. ) ;
#46 = AXIS2_PLACEMENT_3D ( 'NONE', #3, #335, #159 ) ;
#47 = ORIENTED_EDGE ( 'NONE', *, *, #164, .F. ) ;
#48 = CYLINDRICAL_SURFACE ( 'NONE', #217, 28.15000000000000213 ) ;
#49 = VERTEX_POINT ( 'NONE', #152 ) ;
#50 = AXIS2_PLACEMENT_3D ( 'NONE', #270, #357, #210 ) ;
#51 = AXIS2_PLACEMENT_3D ( 'NONE', #183, #67, #41 ) ;
#52 = CARTESIAN_POINT ( 'NONE',  ( 28.15000000000000213, 41.23692071745778520, 0.000000000000000000 ) ) ;
#53 = EDGE_CURVE ( 'NONE', #329, #193, #134, .T. ) ;
#54 = CARTESIAN_POINT ( 'NONE',  ( 1.200213476241466297E-15, -13.91307928254221338, 0.000000000000000000 ) ) ;
#55 = EDGE_LOOP ( 'NONE', ( #288, #255, #205 ) ) ;
#56 = PRODUCT_DEFINITION_FORMATION_WITH_SPECIFIED_SOURCE ( 'ANY', '', #4, .NOT_KNOWN. ) ;
#57 = EDGE_CURVE ( 'NONE', #355, #346, #13, .T. ) ;
#58 = VERTEX_POINT ( 'NONE', #88 ) ;
#59 = CARTESIAN_POINT ( 'NONE',  ( -25.14999999999999858, -13.91307928254221338, 3.079986699855593473E-15 ) ) ;
#60 = PRODUCT_RELATED_PRODUCT_CATEGORY ( 'detail', '', ( #4 ) ) ;
#61 = ORIENTED_EDGE ( 'NONE', *, *, #339, .T. ) ;
#62 = DIRECTION ( 'NONE',  ( -1.000000000000000000, 0.000000000000000000, 0.000000000000000000 ) ) ;
#63 = CIRCLE ( 'NONE', #188, 28.14999999999999503 ) ;
#64 = DIRECTION ( 'NONE',  ( 0.000000000000000000, 0.000000000000000000, 1.000000000000000000 ) ) ;
#65 = CYLINDRICAL_SURFACE ( 'NONE', #380, 25.15000000000000213 ) ;
#66 = DATE_AND_TIME ( #306, #167 ) ;
#67 = DIRECTION ( 'NONE',  ( -1.786522970434277846E-17, 1.000000000000000000, 0.000000000000000000 ) ) ;
#68 = AXIS2_PLACEMENT_3D ( 'NONE', #359, #307, #363 ) ;
#69 = PLANE ( 'NONE',  #51 ) ;
#70 = ADVANCED_FACE ( 'NONE', ( #305, #96 ), #101, .F. ) ;
#71 = DIRECTION ( 'NONE',  ( 1.000000000000000000, 0.000000000000000000, 0.000000000000000000 ) ) ;
#72 = CONICAL_SURFACE ( 'NONE', #181, 28.15000000000000213, 0.4636476090008060935 ) ;
#73 = CARTESIAN_POINT ( 'NONE',  ( -28.15000000000000213, 11.08692071745778840, 3.447380739599799706E-15 ) ) ;
#74 = ORIENTED_EDGE ( 'NONE', *, *, #38, .T. ) ;
#75 = VECTOR ( 'NONE', #197, 1000.000000000000000 ) ;
#76 = ORIENTED_EDGE ( 'NONE', *, *, #78, .F. ) ;
#77 = UNCERTAINTY_MEASURE_WITH_UNIT (LENGTH_MEASURE( 1.000000000000000082E-05 ), #312, 'distance_accuracy_value', 'NONE');
#78 = EDGE_CURVE ( 'NONE', #381, #161, #382, .T. ) ;
#79 = CARTESIAN_POINT ( 'NONE',  ( 2.149460580469620995E-16, 41.23692071745778520, 0.000000000000000000 ) ) ;
#80 = SPHERICAL_SURFACE ( 'NONE', #21, 30.14999999999999503 ) ;
#81 = MECHANICAL_CONTEXT ( 'NONE', #184, 'mechanical' ) ;
#82 = CYLINDRICAL_SURFACE ( 'NONE', #92, 28.15000000000000213 ) ;
#83 = CC_DESIGN_APPROVAL ( #115, ( #302 ) ) ;
#84 = EDGE_LOOP ( 'NONE', ( #224, #196, #247, #191 ) ) ;
#85 = DIRECTION ( 'NONE',  ( 1.786522970434277846E-17, -1.000000000000000000, -0.000000000000000000 ) ) ;
#86 = ORIENTED_EDGE ( 'NONE', *, *, #103, .F. ) ;
#87 = VERTEX_POINT ( 'NONE', #44 ) ;
#88 = CARTESIAN_POINT ( 'NONE',  ( -28.15000000000000213, -12.91307928254221338, 0.000000000000000000 ) ) ;
#89 = FACE_OUTER_BOUND ( 'NONE', #347, .T. ) ;
#90 = APPROVAL_STATUS ( 'not_yet_approved' ) ;
#91 = CIRCLE ( 'NONE', #308, 30.14999999999999858 ) ;
#92 = AXIS2_PLACEMENT_3D ( 'NONE', #79, #377, #113 ) ;
#93 = ADVANCED_FACE ( 'NONE', ( #94 ), #72, .T. ) ;
#94 = FACE_OUTER_BOUND ( 'NONE', #280, .T. ) ;
#95 = PERSON_AND_ORGANIZATION ( #190, #364 ) ;
#96 = FACE_OUTER_BOUND ( 'NONE', #30, .T. ) ;
#97 = DATE_TIME_ROLE ( 'creation_date' ) ;
#98 = DIRECTION ( 'NONE',  ( 1.000000000000000000, 0.000000000000000000, 0.000000000000000000 ) ) ;
#99 = DATE_AND_TIME ( #384, #268 ) ;
#100 = AXIS2_PLACEMENT_3D ( 'NONE', #345, #366, #71 ) ;
#101 = PLANE ( 'NONE',  #163 ) ;
#102 = CIRCLE ( 'NONE', #68, 28.15000000000000213 ) ;
#103 = EDGE_CURVE ( 'NONE', #58, #310, #102, .T. ) ;
#104 = EDGE_CURVE ( 'NONE', #310, #58, #174, .T. ) ;
#105 = DIRECTION ( 'NONE',  ( 1.786522970434277846E-17, -1.000000000000000000, -0.000000000000000000 ) ) ;
#106 = ORIENTED_EDGE ( 'NONE', *, *, #383, .F. ) ;
#107 = CC_DESIGN_APPROVAL ( #139, ( #56 ) ) ;
#108 = EDGE_CURVE ( 'NONE', #313, #136, #274, .T. ) ;
#109 = ORIENTED_EDGE ( 'NONE', *, *, #164, .T. ) ;
#110 = CARTESIAN_POINT ( 'NONE',  ( 25.15000000000000213, 41.23692071745778520, 0.000000000000000000 ) ) ;
#111 = VECTOR ( 'NONE', #386, 1000.000000000000000 ) ;
#112 = APPLICATION_PROTOCOL_DEFINITION ( 'international standard', 'config_control_design', 1994, #184 ) ;
#113 = DIRECTION ( 'NONE',  ( 1.000000000000000000, 0.000000000000000000, 0.000000000000000000 ) ) ;
#114 = EDGE_LOOP ( 'NONE', ( #326, #170, #119, #15 ) ) ;
#115 = APPROVAL ( #158, 'UNSPECIFIED' ) ;
#116 = AXIS2_PLACEMENT_3D ( 'NONE', #36, #151, #263 ) ;
#117 = ORIENTED_EDGE ( 'NONE', *, *, #57, .T. ) ;
#118 = ORIENTED_EDGE ( 'NONE', *, *, #225, .F. ) ;
#119 = ORIENTED_EDGE ( 'NONE', *, *, #265, .T. ) ;
#120 = CARTESIAN_POINT ( 'NONE',  ( 2.149460580469620995E-16, 41.23692071745778520, 0.000000000000000000 ) ) ;
#121 = DIRECTION ( 'NONE',  ( -1.000000000000000000, -1.786522970434277846E-17, 0.000000000000000000 ) ) ;
#122 = APPROVAL_DATE_TIME ( #99, #139 ) ;
#123 = FACE_BOUND ( 'NONE', #221, .T. ) ;
#124 = DATE_AND_TIME ( #211, #370 ) ;
#125 = ADVANCED_FACE ( 'NONE', ( #215 ), #65, .F. ) ;
#126 = DATE_AND_TIME ( #264, #222 ) ;
#127 = CARTESIAN_POINT ( 'NONE',  ( -27.65000000000000213, -13.91307928254221338, 0.000000000000000000 ) ) ;
#128 = CC_DESIGN_PERSON_AND_ORGANIZATION_ASSIGNMENT ( #137, #185, ( #4 ) ) ;
#129 = AXIS2_PLACEMENT_3D ( 'NONE', #373, #85, #320 ) ;
#130 = CARTESIAN_POINT ( 'NONE',  ( 2.149460580469620995E-16, 41.23692071745778520, 0.000000000000000000 ) ) ;
#131 = APPROVAL ( #154, 'UNSPECIFIED' ) ;
#132 = DESIGN_CONTEXT ( 'detailed design', #282, 'design' ) ;
#133 = CC_DESIGN_SECURITY_CLASSIFICATION ( #302, ( #56 ) ) ;
#134 = CIRCLE ( 'NONE', #279, 30.14999999999999503 ) ;
#135 = ORIENTED_EDGE ( 'NONE', *, *, #103, .T. ) ;
#136 = VERTEX_POINT ( 'NONE', #231 ) ;
#137 = PERSON_AND_ORGANIZATION ( #190, #364 ) ;
#138 = DIRECTION ( 'NONE',  ( -1.000000000000000000, 0.000000000000000000, 0.000000000000000000 ) ) ;
#139 = APPROVAL ( #90, 'UNSPECIFIED' ) ;
#140 = DIRECTION ( 'NONE',  ( 1.786522970434277846E-17, -1.000000000000000000, -0.000000000000000000 ) ) ;
#141 = CARTESIAN_POINT ( 'NONE',  ( 7.535827336328968635E-16, 11.08692071745778840, 0.000000000000000000 ) ) ;
#142 = CONICAL_SURFACE ( 'NONE', #358, 28.15000000000000213, 0.4636476090008060935 ) ;
#143 = CARTESIAN_POINT ( 'NONE',  ( 0.000000000000000000, 11.08692071745779018, 0.000000000000000000 ) ) ;
#144 = DIRECTION ( 'NONE',  ( -1.786522970434277846E-17, 1.000000000000000000, 0.000000000000000000 ) ) ;
#145 = EDGE_LOOP ( 'NONE', ( #349, #148, #11 ) ) ;
#146 = FACE_OUTER_BOUND ( 'NONE', #292, .T. ) ;
#147 = CIRCLE ( 'NONE', #129, 25.14999999999999858 ) ;
#148 = ORIENTED_EDGE ( 'NONE', *, *, #53, .T. ) ;
#149 = ORIENTED_EDGE ( 'NONE', *, *, #45, .T. ) ;
#150 = CC_DESIGN_PERSON_AND_ORGANIZATION_ASSIGNMENT ( #95, #387, ( #302 ) ) ;
#151 = DIRECTION ( 'NONE',  ( 1.786522970434277846E-17, -1.000000000000000000, -0.000000000000000000 ) ) ;
#152 = CARTESIAN_POINT ( 'NONE',  ( 30.14999999999999503, 11.08692071745778840, -3.692310099429270397E-15 ) ) ;
#153 = DIRECTION ( 'NONE',  ( -1.000000000000000000, 0.000000000000000000, 0.000000000000000000 ) ) ;
#154 = APPROVAL_STATUS ( 'not_yet_approved' ) ;
#155 = APPROVAL_PERSON_ORGANIZATION ( #338, #139, #34 ) ;
#156 = COORDINATED_UNIVERSAL_TIME_OFFSET ( 1, 0, .AHEAD. ) ;
#157 = CARTESIAN_POINT ( 'NONE',  ( 1.182348246537123374E-15, -12.91307928254221338, 0.000000000000000000 ) ) ;
#158 = APPROVAL_STATUS ( 'not_yet_approved' ) ;
#159 = DIRECTION ( 'NONE',  ( -1.000000000000000000, 0.000000000000000000, 1.224646799147353207E-16 ) ) ;
#160 = CARTESIAN_POINT ( 'NONE',  ( 0.000000000000000000, 11.08692071745779195, 0.000000000000000000 ) ) ;
#161 = VERTEX_POINT ( 'NONE', #127 ) ;
#162 = ORIENTED_EDGE ( 'NONE', *, *, #104, .T. ) ;
#163 = AXIS2_PLACEMENT_3D ( 'NONE', #237, #239, #121 ) ;
#164 = EDGE_CURVE ( 'NONE', #355, #58, #266, .T. ) ;
#165 = DIRECTION ( 'NONE',  ( 0.000000000000000000, 0.000000000000000000, 1.000000000000000000 ) ) ;
#166 = SPHERICAL_SURFACE ( 'NONE', #258, 28.14999999999999503 ) ;
#167 = LOCAL_TIME ( 14, 0, 49.00000000000000000, #42 ) ;
#168 = ADVANCED_FACE ( 'NONE', ( #123, #236 ), #69, .F. ) ;
#169 = CYLINDRICAL_SURFACE ( 'NONE', #304, 25.15000000000000213 ) ;
#170 = ORIENTED_EDGE ( 'NONE', *, *, #38, .F. ) ;
#171 = FACE_OUTER_BOUND ( 'NONE', #145, .T. ) ;
#172 = EDGE_LOOP ( 'NONE', ( #281, #283, #368 ) ) ;
#173 = DIRECTION ( 'NONE',  ( 0.4472135954999579277, 0.8944271909999158554, 5.476786982642026244E-17 ) ) ;
#174 = CIRCLE ( 'NONE', #50, 28.15000000000000213 ) ;
#175 = CARTESIAN_POINT ( 'NONE',  ( 1.200213476241466297E-15, -13.91307928254221338, 0.000000000000000000 ) ) ;
#176 = CARTESIAN_POINT ( 'NONE',  ( 28.15000000000000213, -12.91307928254221338, 3.447380739599799706E-15 ) ) ;
#177 = PERSON_AND_ORGANIZATION ( #190, #364 ) ;
#178 = LINE ( 'NONE', #300, #303 ) ;
#179 = EDGE_CURVE ( 'NONE', #329, #49, #40, .T. ) ;
#180 = DIRECTION ( 'NONE',  ( 1.786522970434277846E-17, -1.000000000000000000, -0.000000000000000000 ) ) ;
#181 = AXIS2_PLACEMENT_3D ( 'NONE', #157, #337, #342 ) ;
#182 = CARTESIAN_POINT ( 'NONE',  ( 5.276740960401965312E-16, 23.73207789323063110, 0.000000000000000000 ) ) ;
#183 = CARTESIAN_POINT ( 'NONE',  ( -27.65000000000000213, -13.91307928254221338, 0.000000000000000000 ) ) ;
#184 = APPLICATION_CONTEXT ( 'configuration controlled 3d designs of mechanical parts and assemblies' ) ;
#185 = PERSON_AND_ORGANIZATION_ROLE ( 'design_owner' ) ;
#186 = LINE ( 'NONE', #367, #235 ) ;
#187 = DIRECTION ( 'NONE',  ( 1.786522970434277846E-17, -1.000000000000000000, -0.000000000000000000 ) ) ;
#188 = AXIS2_PLACEMENT_3D ( 'NONE', #203, #287, #323 ) ;
#189 = PERSON_AND_ORGANIZATION ( #190, #364 ) ;
#190 = PERSON ( 'UNSPECIFIED', 'UNSPECIFIED', 'UNSPECIFIED', ('UNSPECIFIED'), ('UNSPECIFIED'), ('UNSPECIFIED') ) ;
#191 = ORIENTED_EDGE ( 'NONE', *, *, #265, .F. ) ;
#192 = EDGE_CURVE ( 'NONE', #161, #381, #340, .T. ) ;
#193 = VERTEX_POINT ( 'NONE', #19 ) ;
#194 = CIRCLE ( 'NONE', #333, 25.15000000000000568 ) ;
#195 = CARTESIAN_POINT ( 'NONE',  ( 5.276740960401965312E-16, 23.73207789323063110, 0.000000000000000000 ) ) ;
#196 = ORIENTED_EDGE ( 'NONE', *, *, #362, .T. ) ;
#197 = DIRECTION ( 'NONE',  ( 1.786522970434277846E-17, -1.000000000000000000, -0.000000000000000000 ) ) ;
#198 = FACE_OUTER_BOUND ( 'NONE', #114, .T. ) ;
#199 = CARTESIAN_POINT ( 'NONE',  ( 0.000000000000000000, 0.000000000000000000, 0.000000000000000000 ) ) ;
#200 = DIRECTION ( 'NONE',  ( 1.000000000000000000, 0.000000000000000000, 0.000000000000000000 ) ) ;
#201 = ORIENTED_EDGE ( 'NONE', *, *, #45, .F. ) ;
#202 = EDGE_CURVE ( 'NONE', #285, #136, #194, .T. ) ;
#203 = CARTESIAN_POINT ( 'NONE',  ( 0.000000000000000000, 11.08692071745779018, 0.000000000000000000 ) ) ;
#204 = APPROVAL_PERSON_ORGANIZATION ( #336, #115, #213 ) ;
#205 = ORIENTED_EDGE ( 'NONE', *, *, #202, .T. ) ;
#206 = EDGE_LOOP ( 'NONE', ( #372, #317 ) ) ;
#207 = CARTESIAN_POINT ( 'NONE',  ( -28.15000000000000213, 41.23692071745778520, 3.447380739599799706E-15 ) ) ;
#208 = PERSON_AND_ORGANIZATION_ROLE ( 'creator' ) ;
#209 = APPROVAL_PERSON_ORGANIZATION ( #189, #131, #301 ) ;
#210 = DIRECTION ( 'NONE',  ( 1.000000000000000000, 0.000000000000000000, 0.000000000000000000 ) ) ;
#211 = CALENDAR_DATE ( 2024, 14, 10 ) ;
#212 = DIRECTION ( 'NONE',  ( 1.786522970434277846E-17, -1.000000000000000000, -0.000000000000000000 ) ) ;
#213 = APPROVAL_ROLE ( '' ) ;
#214 = AXIS2_PLACEMENT_3D ( 'NONE', #316, #140, #200 ) ;
#215 = FACE_OUTER_BOUND ( 'NONE', #84, .T. ) ;
#216 = EDGE_CURVE ( 'NONE', #309, #87, #241, .T. ) ;
#217 = AXIS2_PLACEMENT_3D ( 'NONE', #130, #187, #243 ) ;
#218 = CIRCLE ( 'NONE', #353, 25.15000000000000568 ) ;
#219 = ADVANCED_FACE ( 'NONE', ( #375 ), #166, .F. ) ;
#220 = DIRECTION ( 'NONE',  ( 1.000000000000000000, 0.000000000000000000, 0.000000000000000000 ) ) ;
#221 = EDGE_LOOP ( 'NONE', ( #106, #18 ) ) ;
#222 = LOCAL_TIME ( 14, 0, 49.00000000000000000, #272 ) ;
#223 = DIRECTION ( 'NONE',  ( 0.000000000000000000, 0.000000000000000000, -1.000000000000000000 ) ) ;
#224 = ORIENTED_EDGE ( 'NONE', *, *, #202, .F. ) ;
#225 = EDGE_CURVE ( 'NONE', #313, #285, #63, .T. ) ;
#226 = LINE ( 'NONE', #52, #385 ) ;
#227 = DIRECTION ( 'NONE',  ( -1.224646799147353207E-16, -2.187859637345560059E-33, -1.000000000000000000 ) ) ;
#228 = DIRECTION ( 'NONE',  ( 1.000000000000000000, 0.000000000000000000, 0.000000000000000000 ) ) ;
#229 = CARTESIAN_POINT ( 'NONE',  ( 0.000000000000000000, 11.08692071745779195, 0.000000000000000000 ) ) ;
#230 = EDGE_LOOP ( 'NONE', ( #356, #256 ) ) ;
#231 = CARTESIAN_POINT ( 'NONE',  ( 25.15000000000000568, 23.73207789323063110, -3.079986699855593078E-15 ) ) ;
#232 = CARTESIAN_POINT ( 'NONE',  ( -25.15000000000000568, 23.73207789323063110, 0.000000000000000000 ) ) ;
#233 = DIRECTION ( 'NONE',  ( 1.000000000000000000, 0.000000000000000000, 0.000000000000000000 ) ) ;
#234 = SECURITY_CLASSIFICATION_LEVEL ( 'unclassified' ) ;
#235 = VECTOR ( 'NONE', #105, 1000.000000000000000 ) ;
#236 = FACE_OUTER_BOUND ( 'NONE', #206, .T. ) ;
#237 = CARTESIAN_POINT ( 'NONE',  ( -30.14999999999999858, 11.08692071745778840, 0.000000000000000000 ) ) ;
#238 = DATE_TIME_ROLE ( 'classification_date' ) ;
#239 = DIRECTION ( 'NONE',  ( -1.786522970434277846E-17, 1.000000000000000000, 0.000000000000000000 ) ) ;
#240 = PERSON_AND_ORGANIZATION ( #190, #364 ) ;
#241 = CIRCLE ( 'NONE', #214, 25.14999999999999858 ) ;
#242 = APPROVAL_DATE_TIME ( #10, #115 ) ;
#243 = DIRECTION ( 'NONE',  ( 1.000000000000000000, 0.000000000000000000, 0.000000000000000000 ) ) ;
#244 = CARTESIAN_POINT ( 'NONE',  ( -2.384791725300569346E-15, 41.23692071745778520, 0.000000000000000000 ) ) ;
#245 = LOCAL_TIME ( 14, 0, 49.00000000000000000, #365 ) ;
#246 = ORIENTED_EDGE ( 'NONE', *, *, #271, .F. ) ;
#247 = ORIENTED_EDGE ( 'NONE', *, *, #216, .T. ) ;
#248 = CARTESIAN_POINT ( 'NONE',  ( 0.000000000000000000, 11.08692071745779018, 0.000000000000000000 ) ) ;
#249 = AXIS2_PLACEMENT_3D ( 'NONE', #284, #227, #319 ) ;
#250 = DIRECTION ( 'NONE',  ( 1.786522970434277846E-17, -1.000000000000000000, -0.000000000000000000 ) ) ;
#251 = DIRECTION ( 'NONE',  ( 1.786522970434277846E-17, -1.000000000000000000, -0.000000000000000000 ) ) ;
#252 = DIRECTION ( 'NONE',  ( 1.000000000000000000, 0.000000000000000000, 0.000000000000000000 ) ) ;
#253 = SPHERICAL_SURFACE ( 'NONE', #291, 28.14999999999999503 ) ;
#254 = CARTESIAN_POINT ( 'NONE',  ( 7.535827336328968635E-16, 11.08692071745778840, 0.000000000000000000 ) ) ;
#255 = ORIENTED_EDGE ( 'NONE', *, *, #225, .T. ) ;
#256 = ORIENTED_EDGE ( 'NONE', *, *, #57, .F. ) ;
#257 = AXIS2_PLACEMENT_3D ( 'NONE', #54, #321, #220 ) ;
#258 = AXIS2_PLACEMENT_3D ( 'NONE', #248, #17, #138 ) ;
#259 = ADVANCED_FACE ( 'NONE', ( #24 ), #253, .F. ) ;
#260 = AXIS2_PLACEMENT_3D ( 'NONE', #175, #212, #233 ) ;
#261 = FACE_OUTER_BOUND ( 'NONE', #327, .T. ) ;
#262 = COORDINATED_UNIVERSAL_TIME_OFFSET ( 1, 0, .AHEAD. ) ;
#263 = DIRECTION ( 'NONE',  ( 1.000000000000000000, 0.000000000000000000, 0.000000000000000000 ) ) ;
#264 = CALENDAR_DATE ( 2024, 14, 10 ) ;
#265 = EDGE_CURVE ( 'NONE', #136, #87, #26, .T. ) ;
#266 = LINE ( 'NONE', #207, #111 ) ;
#267 = CARTESIAN_POINT ( 'NONE',  ( 27.65000000000000213, -13.91307928254221338, 3.416764569621115524E-15 ) ) ;
#268 = LOCAL_TIME ( 14, 0, 49.00000000000000000, #262 ) ;
#269 = CIRCLE ( 'NONE', #360, 30.14999999999999858 ) ;
#270 = CARTESIAN_POINT ( 'NONE',  ( 1.182348246537123374E-15, -12.91307928254221338, 0.000000000000000000 ) ) ;
#271 = EDGE_CURVE ( 'NONE', #346, #310, #226, .T. ) ;
#272 = COORDINATED_UNIVERSAL_TIME_OFFSET ( 1, 0, .AHEAD. ) ;
#273 = CC_DESIGN_DATE_AND_TIME_ASSIGNMENT ( #124, #238, ( #302 ) ) ;
#274 = CIRCLE ( 'NONE', #46, 28.14999999999999503 ) ;
#275 = DIRECTION ( 'NONE',  ( 0.000000000000000000, 0.000000000000000000, -1.000000000000000000 ) ) ;
#276 = EDGE_CURVE ( 'NONE', #193, #49, #91, .T. ) ;
#277 = FACE_OUTER_BOUND ( 'NONE', #172, .T. ) ;
#278 = CARTESIAN_POINT ( 'NONE',  ( 28.15000000000000213, 11.08692071745778840, 0.000000000000000000 ) ) ;
#279 = AXIS2_PLACEMENT_3D ( 'NONE', #361, #64, #2 ) ;
#280 = EDGE_LOOP ( 'NONE', ( #27, #371, #149, #135 ) ) ;
#281 = ORIENTED_EDGE ( 'NONE', *, *, #53, .F. ) ;
#282 = APPLICATION_CONTEXT ( 'configuration controlled 3d designs of mechanical parts and assemblies' ) ;
#283 = ORIENTED_EDGE ( 'NONE', *, *, #179, .T. ) ;
#284 = CARTESIAN_POINT ( 'NONE',  ( 0.000000000000000000, 11.08692071745779195, 0.000000000000000000 ) ) ;
#285 = VERTEX_POINT ( 'NONE', #232 ) ;
#286 =( GEOMETRIC_REPRESENTATION_CONTEXT ( 3 ) GLOBAL_UNCERTAINTY_ASSIGNED_CONTEXT ( ( #77 ) ) GLOBAL_UNIT_ASSIGNED_CONTEXT ( ( #312, #315, #25 ) ) REPRESENTATION_CONTEXT ( 'NONE', 'WORKASPACE' ) );
#287 = DIRECTION ( 'NONE',  ( 0.000000000000000000, 0.000000000000000000, 1.000000000000000000 ) ) ;
#288 = ORIENTED_EDGE ( 'NONE', *, *, #108, .F. ) ;
#289 = ADVANCED_FACE ( 'NONE', ( #89 ), #142, .T. ) ;
#290 = CARTESIAN_POINT ( 'NONE',  ( -2.226596585977148351E-15, 39.23692071745778520, 0.000000000000000000 ) ) ;
#291 = AXIS2_PLACEMENT_3D ( 'NONE', #143, #223, #374 ) ;
#292 = EDGE_LOOP ( 'NONE', ( #61, #109, #35, #246 ) ) ;
#293 = EDGE_CURVE ( 'NONE', #381, #310, #328, .T. ) ;
#294 = PERSON_AND_ORGANIZATION ( #190, #364 ) ;
#295 = DIRECTION ( 'NONE',  ( 1.000000000000000000, 0.000000000000000000, 0.000000000000000000 ) ) ;
#296 = CARTESIAN_POINT ( 'NONE',  ( 28.15000000000000213, -12.91307928254221338, 3.447380739599799706E-15 ) ) ;
#297 = APPROVAL_DATE_TIME ( #126, #131 ) ;
#298 = CC_DESIGN_PERSON_AND_ORGANIZATION_ASSIGNMENT ( #177, #43, ( #56 ) ) ;
#299 = DIRECTION ( 'NONE',  ( 1.786522970434277846E-17, -1.000000000000000000, -0.000000000000000000 ) ) ;
#300 = CARTESIAN_POINT ( 'NONE',  ( -28.15000000000000213, -12.91307928254221338, 0.000000000000000000 ) ) ;
#301 = APPROVAL_ROLE ( '' ) ;
#302 = SECURITY_CLASSIFICATION ( '', '', #234 ) ;
#303 = VECTOR ( 'NONE', #334, 1000.000000000000227 ) ;
#304 = AXIS2_PLACEMENT_3D ( 'NONE', #20, #354, #228 ) ;
#305 = FACE_BOUND ( 'NONE', #230, .T. ) ;
#306 = CALENDAR_DATE ( 2024, 14, 10 ) ;
#307 = DIRECTION ( 'NONE',  ( 1.786522970434277846E-17, -1.000000000000000000, -0.000000000000000000 ) ) ;
#308 = AXIS2_PLACEMENT_3D ( 'NONE', #254, #28, #331 ) ;
#309 = VERTEX_POINT ( 'NONE', #59 ) ;
#310 = VERTEX_POINT ( 'NONE', #296 ) ;
#311 = ADVANCED_BREP_SHAPE_REPRESENTATION ( '3D_GR1234_60.3x2_188702265', ( #7, #31 ), #286 ) ;
#312 =( LENGTH_UNIT ( ) NAMED_UNIT ( * ) SI_UNIT ( .MILLI., .METRE. ) );
#313 = VERTEX_POINT ( 'NONE', #290 ) ;
#314 = ADVANCED_FACE ( 'NONE', ( #146 ), #48, .T. ) ;
#315 =( NAMED_UNIT ( * ) PLANE_ANGLE_UNIT ( ) SI_UNIT ( $, .RADIAN. ) );
#316 = CARTESIAN_POINT ( 'NONE',  ( 1.200213476241466297E-15, -13.91307928254221338, 0.000000000000000000 ) ) ;
#317 = ORIENTED_EDGE ( 'NONE', *, *, #78, .T. ) ;
#318 = CC_DESIGN_DATE_AND_TIME_ASSIGNMENT ( #66, #97, ( #33 ) ) ;
#319 = DIRECTION ( 'NONE',  ( -1.000000000000000000, 0.000000000000000000, 1.224646799147353207E-16 ) ) ;
#320 = DIRECTION ( 'NONE',  ( 1.000000000000000000, 0.000000000000000000, 0.000000000000000000 ) ) ;
#321 = DIRECTION ( 'NONE',  ( 1.786522970434277846E-17, -1.000000000000000000, -0.000000000000000000 ) ) ;
#322 = VECTOR ( 'NONE', #173, 1000.000000000000227 ) ;
#323 = DIRECTION ( 'NONE',  ( 1.000000000000000000, 0.000000000000000000, 0.000000000000000000 ) ) ;
#324 = DIRECTION ( 'NONE',  ( 0.000000000000000000, 0.000000000000000000, -1.000000000000000000 ) ) ;
#325 = CC_DESIGN_PERSON_AND_ORGANIZATION_ASSIGNMENT ( #240, #208, ( #56 ) ) ;
#326 = ORIENTED_EDGE ( 'NONE', *, *, #362, .F. ) ;
#327 = EDGE_LOOP ( 'NONE', ( #47, #117, #369, #86 ) ) ;
#328 = LINE ( 'NONE', #176, #322 ) ;
#329 = VERTEX_POINT ( 'NONE', #244 ) ;
#330 = SPHERICAL_SURFACE ( 'NONE', #23, 30.14999999999999503 ) ;
#331 = DIRECTION ( 'NONE',  ( 1.000000000000000000, 0.000000000000000000, 0.000000000000000000 ) ) ;
#332 = CALENDAR_DATE ( 2024, 14, 10 ) ;
#333 = AXIS2_PLACEMENT_3D ( 'NONE', #195, #350, #352 ) ;
#334 = DIRECTION ( 'NONE',  ( -0.4472135954999579277, 0.8944271909999158554, 0.000000000000000000 ) ) ;
#335 = DIRECTION ( 'NONE',  ( -1.224646799147353207E-16, -2.187859637345560059E-33, -1.000000000000000000 ) ) ;
#336 = PERSON_AND_ORGANIZATION ( #190, #364 ) ;
#337 = DIRECTION ( 'NONE',  ( -1.786522970434277846E-17, 1.000000000000000000, 0.000000000000000000 ) ) ;
#338 = PERSON_AND_ORGANIZATION ( #190, #364 ) ;
#339 = EDGE_CURVE ( 'NONE', #346, #355, #6, .T. ) ;
#340 = CIRCLE ( 'NONE', #257, 27.65000000000000213 ) ;
#341 = PRODUCT_DEFINITION_SHAPE ( 'NONE', 'NONE',  #33 ) ;
#342 = DIRECTION ( 'NONE',  ( -1.000000000000000000, 0.000000000000000000, 0.000000000000000000 ) ) ;
#343 = SHAPE_DEFINITION_REPRESENTATION ( #341, #311 ) ;
#344 = CC_DESIGN_APPROVAL ( #131, ( #33 ) ) ;
#345 = CARTESIAN_POINT ( 'NONE',  ( 7.535827336328968635E-16, 11.08692071745778840, 0.000000000000000000 ) ) ;
#346 = VERTEX_POINT ( 'NONE', #278 ) ;
#347 = EDGE_LOOP ( 'NONE', ( #76, #12, #162, #201 ) ) ;
#348 = CC_DESIGN_PERSON_AND_ORGANIZATION_ASSIGNMENT ( #294, #37, ( #33 ) ) ;
#349 = ORIENTED_EDGE ( 'NONE', *, *, #179, .F. ) ;
#350 = DIRECTION ( 'NONE',  ( 1.786522970434277846E-17, -1.000000000000000000, -0.000000000000000000 ) ) ;
#351 = EDGE_LOOP ( 'NONE', ( #118, #16, #74 ) ) ;
#352 = DIRECTION ( 'NONE',  ( 1.000000000000000000, 0.000000000000000000, 0.000000000000000000 ) ) ;
#353 = AXIS2_PLACEMENT_3D ( 'NONE', #182, #180, #98 ) ;
#354 = DIRECTION ( 'NONE',  ( 1.786522970434277846E-17, -1.000000000000000000, -0.000000000000000000 ) ) ;
#355 = VERTEX_POINT ( 'NONE', #73 ) ;
#356 = ORIENTED_EDGE ( 'NONE', *, *, #339, .F. ) ;
#357 = DIRECTION ( 'NONE',  ( 1.786522970434277846E-17, -1.000000000000000000, -0.000000000000000000 ) ) ;
#358 = AXIS2_PLACEMENT_3D ( 'NONE', #378, #144, #62 ) ;
#359 = CARTESIAN_POINT ( 'NONE',  ( 1.182348246537123374E-15, -12.91307928254221338, 0.000000000000000000 ) ) ;
#360 = AXIS2_PLACEMENT_3D ( 'NONE', #141, #251, #295 ) ;
#361 = CARTESIAN_POINT ( 'NONE',  ( 0.000000000000000000, 11.08692071745779195, 0.000000000000000000 ) ) ;
#362 = EDGE_CURVE ( 'NONE', #285, #309, #186, .T. ) ;
#363 = DIRECTION ( 'NONE',  ( 1.000000000000000000, 0.000000000000000000, 0.000000000000000000 ) ) ;
#364 = ORGANIZATION ( 'UNSPECIFIED', 'UNSPECIFIED', '' ) ;
#365 = COORDINATED_UNIVERSAL_TIME_OFFSET ( 1, 0, .AHEAD. ) ;
#366 = DIRECTION ( 'NONE',  ( 1.786522970434277846E-17, -1.000000000000000000, -0.000000000000000000 ) ) ;
#367 = CARTESIAN_POINT ( 'NONE',  ( -25.15000000000000213, 41.23692071745778520, 3.079986699855593473E-15 ) ) ;
#368 = ORIENTED_EDGE ( 'NONE', *, *, #276, .F. ) ;
#369 = ORIENTED_EDGE ( 'NONE', *, *, #271, .T. ) ;
#370 = LOCAL_TIME ( 14, 0, 49.00000000000000000, #156 ) ;
#371 = ORIENTED_EDGE ( 'NONE', *, *, #192, .F. ) ;
#372 = ORIENTED_EDGE ( 'NONE', *, *, #192, .T. ) ;
#373 = CARTESIAN_POINT ( 'NONE',  ( 1.200213476241466297E-15, -13.91307928254221338, 0.000000000000000000 ) ) ;
#374 = DIRECTION ( 'NONE',  ( -1.000000000000000000, 0.000000000000000000, 0.000000000000000000 ) ) ;
#375 = FACE_OUTER_BOUND ( 'NONE', #351, .T. ) ;
#376 = ADVANCED_FACE ( 'NONE', ( #277 ), #80, .T. ) ;
#377 = DIRECTION ( 'NONE',  ( 1.786522970434277846E-17, -1.000000000000000000, -0.000000000000000000 ) ) ;
#378 = CARTESIAN_POINT ( 'NONE',  ( 1.182348246537123374E-15, -12.91307928254221338, 0.000000000000000000 ) ) ;
#379 = ORIENTED_EDGE ( 'NONE', *, *, #276, .T. ) ;
#380 = AXIS2_PLACEMENT_3D ( 'NONE', #120, #299, #39 ) ;
#381 = VERTEX_POINT ( 'NONE', #267 ) ;
#382 = CIRCLE ( 'NONE', #260, 27.65000000000000213 ) ;
#383 = EDGE_CURVE ( 'NONE', #87, #309, #147, .T. ) ;
#384 = CALENDAR_DATE ( 2024, 14, 10 ) ;
#385 = VECTOR ( 'NONE', #250, 1000.000000000000000 ) ;
#386 = DIRECTION ( 'NONE',  ( 1.786522970434277846E-17, -1.000000000000000000, -0.000000000000000000 ) ) ;
#387 = PERSON_AND_ORGANIZATION_ROLE ( 'classification_officer' ) ;
ENDSEC;
END-ISO-10303-21;
