ISO-10303-21;
HEADER;
FILE_DESCRIPTION (( 'STEP AP203' ),
    '1' );
FILE_NAME ('OT200-15-21_3x2_6_OSTP.step',
    '2020-12-16T02:09:56',
    ( '' ),
    ( '' ),
    'SwSTEP 2.0',
    'SolidWorks 2014',
    '' );
FILE_SCHEMA (( 'CONFIG_CONTROL_DESIGN' ));
ENDSEC;

DATA;
#1 = PERSON_AND_ORGANIZATION ( #237, #144 ) ;
#2 = CC_DESIGN_PERSON_AND_ORGANIZATION_ASSIGNMENT ( #1, #140, ( #230 ) ) ;
#3 = PERSON_AND_ORGANIZATION_ROLE ( 'creator' ) ;
#4 = MANIFOLD_SOLID_BREP ( 'cut-body', #41 ) ;
#5 = APPROVAL_STATUS ( 'not_yet_approved' ) ;
#6 = APPLICATION_PROTOCOL_DEFINITION ( 'international standard', 'config_control_design', 1994, #83 ) ;
#7 = LOCAL_TIME ( 3, 9, 56.00000000000000000, #213 ) ;
#8 = ORIENTED_EDGE ( 'NONE', *, *, #115, .F. ) ;
#9 = AXIS2_PLACEMENT_3D ( 'NONE', #72, #53, #51 ) ;
#10 = APPROVAL_PERSON_ORGANIZATION ( #235, #80, #155 ) ;
#11 = CARTESIAN_POINT ( 'NONE',  ( -10.65000000000000200, 0.0000000000000000000, 0.0000000000000000000 ) ) ;
#12 = CARTESIAN_POINT ( 'NONE',  ( 27.50000000000000000, 0.0000000000000000000, 0.0000000000000000000 ) ) ;
#13 = DIRECTION ( 'NONE',  ( 1.000000000000000000, 6.123233995736766000E-017, 0.0000000000000000000 ) ) ;
#14 = COORDINATED_UNIVERSAL_TIME_OFFSET ( 1, 0, .AHEAD. ) ;
#15 = TOROIDAL_SURFACE ( 'NONE', #211, 27.50000000000000000, 10.65000000000000000 ) ;
#16 = ORIENTED_EDGE ( 'NONE', *, *, #89, .T. ) ;
#17 = CARTESIAN_POINT ( 'NONE',  ( 27.49999999999999600, 38.15000000000000600, 0.0000000000000000000 ) ) ;
#18 = CC_DESIGN_DATE_AND_TIME_ASSIGNMENT ( #21, #114, ( #230 ) ) ;
#19 = CARTESIAN_POINT ( 'NONE',  ( 27.50000000000000000, 27.50000000000000000, 0.0000000000000000000 ) ) ;
#20 = CIRCLE ( 'NONE', #9, 10.65000000000000000 ) ;
#21 = DATE_AND_TIME ( #44, #46 ) ;
#22 = LOCAL_TIME ( 3, 9, 56.00000000000000000, #227 ) ;
#23 = APPROVAL_STATUS ( 'not_yet_approved' ) ;
#24 = APPROVAL_ROLE ( '' ) ;
#25 = CC_DESIGN_PERSON_AND_ORGANIZATION_ASSIGNMENT ( #34, #49, ( #185 ) ) ;
#26 = EDGE_LOOP ( 'NONE', ( #223, #193 ) ) ;
#27 = APPROVAL_PERSON_ORGANIZATION ( #174, #253, #24 ) ;
#28 = PRODUCT_RELATED_PRODUCT_CATEGORY ( 'detail', '', ( #215 ) ) ;
#29 = CARTESIAN_POINT ( 'NONE',  ( -8.049999999999998900, 0.0000000000000000000, 0.0000000000000000000 ) ) ;
#30 = CIRCLE ( 'NONE', #176, 16.85000000000000100 ) ;
#31 = VERTEX_POINT ( 'NONE', #199 ) ;
#32 = PLANE ( 'NONE',  #147 ) ;
#33 = AXIS2_PLACEMENT_3D ( 'NONE', #248, #112, #154 ) ;
#34 = PERSON_AND_ORGANIZATION ( #237, #144 ) ;
#35 = EDGE_LOOP ( 'NONE', ( #244, #96, #138, #8 ) ) ;
#36 = DIRECTION ( 'NONE',  ( 0.0000000000000000000, 0.0000000000000000000, 1.000000000000000000 ) ) ;
#37 = ADVANCED_FACE ( 'NONE', ( #163 ), #198, .F. ) ;
#38 = CARTESIAN_POINT ( 'NONE',  ( 27.50000000000000000, 0.0000000000000000000, 0.0000000000000000000 ) ) ;
#39 = CARTESIAN_POINT ( 'NONE',  ( 27.50000000000000000, 0.0000000000000000000, -1.304248841091931300E-015 ) ) ;
#40 = CIRCLE ( 'NONE', #161, 38.15000000000000600 ) ;
#41 = CLOSED_SHELL ( 'NONE', ( #229, #167, #109, #85, #209, #37 ) ) ;
#42 = DIRECTION ( 'NONE',  ( 0.0000000000000000000, 0.0000000000000000000, 1.000000000000000000 ) ) ;
#43 = AXIS2_PLACEMENT_3D ( 'NONE', #90, #125, #226 ) ;
#44 = CALENDAR_DATE ( 2020, 16, 12 ) ;
#45 = VERTEX_POINT ( 'NONE', #127 ) ;
#46 = LOCAL_TIME ( 3, 9, 56.00000000000000000, #14 ) ;
#47 = VERTEX_POINT ( 'NONE', #29 ) ;
#48 = EDGE_LOOP ( 'NONE', ( #214, #87 ) ) ;
#49 = PERSON_AND_ORGANIZATION_ROLE ( 'design_supplier' ) ;
#50 = ORIENTED_EDGE ( 'NONE', *, *, #71, .T. ) ;
#51 = DIRECTION ( 'NONE',  ( 0.0000000000000000000, 0.0000000000000000000, 1.000000000000000000 ) ) ;
#52 = PRODUCT_DEFINITION_SHAPE ( 'NONE', 'NONE',  #194 ) ;
#53 = DIRECTION ( 'NONE',  ( 1.000000000000000000, 6.123233995736766000E-017, 0.0000000000000000000 ) ) ;
#54 = EDGE_CURVE ( 'NONE', #31, #238, #20, .T. ) ;
#55 = CARTESIAN_POINT ( 'NONE',  ( 0.0000000000000000000, 0.0000000000000000000, 0.0000000000000000000 ) ) ;
#56 = DIRECTION ( 'NONE',  ( 1.000000000000000000, 6.123233995736766000E-017, 0.0000000000000000000 ) ) ;
#57 = DIRECTION ( 'NONE',  ( 1.000000000000000000, 0.0000000000000000000, 0.0000000000000000000 ) ) ;
#58 = APPROVAL_DATE_TIME ( #216, #253 ) ;
#59 = EDGE_CURVE ( 'NONE', #45, #121, #158, .T. ) ;
#60 = CARTESIAN_POINT ( 'NONE',  ( 27.50000000000000000, 27.50000000000000000, 0.0000000000000000000 ) ) ;
#61 = DIRECTION ( 'NONE',  ( 0.0000000000000000000, 0.0000000000000000000, 1.000000000000000000 ) ) ;
#62 = DATE_AND_TIME ( #63, #69 ) ;
#63 = CALENDAR_DATE ( 2020, 16, 12 ) ;
#64 = FACE_BOUND ( 'NONE', #48, .T. ) ;
#65 = PERSON_AND_ORGANIZATION_ROLE ( 'creator' ) ;
#66 =( NAMED_UNIT ( * ) SI_UNIT ( $, .STERADIAN. ) SOLID_ANGLE_UNIT ( ) );
#67 = CALENDAR_DATE ( 2020, 16, 12 ) ;
#68 = ORIENTED_EDGE ( 'NONE', *, *, #86, .F. ) ;
#69 = LOCAL_TIME ( 3, 9, 56.00000000000000000, #250 ) ;
#70 = CIRCLE ( 'NONE', #122, 8.049999999999998900 ) ;
#71 = EDGE_CURVE ( 'NONE', #121, #47, #142, .T. ) ;
#72 = CARTESIAN_POINT ( 'NONE',  ( 27.49999999999999600, 27.50000000000000000, 0.0000000000000000000 ) ) ;
#73 = CARTESIAN_POINT ( 'NONE',  ( 0.0000000000000000000, 0.0000000000000000000, 0.0000000000000000000 ) ) ;
#74 = CARTESIAN_POINT ( 'NONE',  ( 0.0000000000000000000, 0.0000000000000000000, 0.0000000000000000000 ) ) ;
#75 = LOCAL_TIME ( 3, 9, 56.00000000000000000, #191 ) ;
#76 = DIRECTION ( 'NONE',  ( 1.000000000000000000, 0.0000000000000000000, 0.0000000000000000000 ) ) ;
#77 = DIRECTION ( 'NONE',  ( 1.000000000000000000, 0.0000000000000000000, 0.0000000000000000000 ) ) ;
#78 = ORIENTED_EDGE ( 'NONE', *, *, #115, .T. ) ;
#79 = CARTESIAN_POINT ( 'NONE',  ( 0.0000000000000000000, 0.0000000000000000000, 0.0000000000000000000 ) ) ;
#80 = APPROVAL ( #241, 'UNSPECIFIED' ) ;
#81 = FACE_OUTER_BOUND ( 'NONE', #245, .T. ) ;
#82 =( LENGTH_UNIT ( ) NAMED_UNIT ( * ) SI_UNIT ( .MILLI., .METRE. ) );
#83 = APPLICATION_CONTEXT ( 'configuration controlled 3d designs of mechanical parts and assemblies' ) ;
#84 = EDGE_LOOP ( 'NONE', ( #50, #203 ) ) ;
#85 = ADVANCED_FACE ( 'NONE', ( #64, #169 ), #32, .T. ) ;
#86 = EDGE_CURVE ( 'NONE', #100, #110, #152, .T. ) ;
#87 = ORIENTED_EDGE ( 'NONE', *, *, #243, .F. ) ;
#88 = CIRCLE ( 'NONE', #224, 8.049999999999998900 ) ;
#89 = EDGE_CURVE ( 'NONE', #110, #100, #93, .T. ) ;
#90 = CARTESIAN_POINT ( 'NONE',  ( 27.50000000000000000, 0.0000000000000000000, 0.0000000000000000000 ) ) ;
#91 = ORIENTED_EDGE ( 'NONE', *, *, #59, .F. ) ;
#92 = EDGE_CURVE ( 'NONE', #238, #100, #40, .T. ) ;
#93 = CIRCLE ( 'NONE', #221, 10.65000000000000000 ) ;
#94 = DIRECTION ( 'NONE',  ( 0.0000000000000000000, 1.000000000000000000, 0.0000000000000000000 ) ) ;
#95 = EDGE_CURVE ( 'NONE', #47, #121, #102, .T. ) ;
#96 = ORIENTED_EDGE ( 'NONE', *, *, #92, .T. ) ;
#97 = DIRECTION ( 'NONE',  ( 1.000000000000000000, 0.0000000000000000000, 0.0000000000000000000 ) ) ;
#98 = AXIS2_PLACEMENT_3D ( 'NONE', #175, #179, #146 ) ;
#99 = PERSON_AND_ORGANIZATION ( #237, #144 ) ;
#100 = VERTEX_POINT ( 'NONE', #11 ) ;
#101 = DATE_AND_TIME ( #67, #75 ) ;
#102 = CIRCLE ( 'NONE', #196, 8.050000000000000700 ) ;
#103 = AXIS2_PLACEMENT_3D ( 'NONE', #184, #61, #76 ) ;
#104 = DIRECTION ( 'NONE',  ( 0.0000000000000000000, 0.0000000000000000000, 1.000000000000000000 ) ) ;
#105 = APPROVAL_DATE_TIME ( #101, #80 ) ;
#106 = ORIENTED_EDGE ( 'NONE', *, *, #95, .F. ) ;
#107 = AXIS2_PLACEMENT_3D ( 'NONE', #55, #180, #200 ) ;
#108 = CARTESIAN_POINT ( 'NONE',  ( 10.65000000000000000, 0.0000000000000000000, -1.304248841091931300E-015 ) ) ;
#109 = ADVANCED_FACE ( 'NONE', ( #165 ), #15, .T. ) ;
#110 = VERTEX_POINT ( 'NONE', #108 ) ;
#111 = CARTESIAN_POINT ( 'NONE',  ( 8.050000000000000700, 0.0000000000000000000, -9.858406733136194400E-016 ) ) ;
#112 = DIRECTION ( 'NONE',  ( 0.0000000000000000000, 0.0000000000000000000, 1.000000000000000000 ) ) ;
#113 = DIRECTION ( 'NONE',  ( 1.000000000000000000, 0.0000000000000000000, 0.0000000000000000000 ) ) ;
#114 = DATE_TIME_ROLE ( 'classification_date' ) ;
#115 = EDGE_CURVE ( 'NONE', #31, #110, #30, .T. ) ;
#116 = APPLICATION_PROTOCOL_DEFINITION ( 'international standard', 'config_control_design', 1994, #120 ) ;
#117 = EDGE_LOOP ( 'NONE', ( #145, #133, #118, #106 ) ) ;
#118 = ORIENTED_EDGE ( 'NONE', *, *, #59, .T. ) ;
#119 = AXIS2_PLACEMENT_3D ( 'NONE', #12, #36, #113 ) ;
#120 = APPLICATION_CONTEXT ( 'configuration controlled 3d designs of mechanical parts and assemblies' ) ;
#121 = VERTEX_POINT ( 'NONE', #111 ) ;
#122 = AXIS2_PLACEMENT_3D ( 'NONE', #19, #212, #153 ) ;
#123 = APPROVAL_PERSON_ORGANIZATION ( #99, #156, #219 ) ;
#124 = TOROIDAL_SURFACE ( 'NONE', #103, 27.50000000000000000, 8.050000000000000700 ) ;
#125 = DIRECTION ( 'NONE',  ( 0.0000000000000000000, 0.0000000000000000000, 1.000000000000000000 ) ) ;
#126 = FACE_OUTER_BOUND ( 'NONE', #35, .T. ) ;
#127 = CARTESIAN_POINT ( 'NONE',  ( 27.50000000000000000, 19.45000000000000300, -9.858406733136194400E-016 ) ) ;
#128 = AXIS2_PLACEMENT_3D ( 'NONE', #73, #204, #183 ) ;
#129 = FACE_OUTER_BOUND ( 'NONE', #220, .T. ) ;
#130 = DIRECTION ( 'NONE',  ( 0.0000000000000000000, -0.0000000000000000000, 1.000000000000000000 ) ) ;
#131 = CARTESIAN_POINT ( 'NONE',  ( 0.0000000000000000000, 0.0000000000000000000, 0.0000000000000000000 ) ) ;
#132 = AXIS2_PLACEMENT_3D ( 'NONE', #148, #56, #192 ) ;
#133 = ORIENTED_EDGE ( 'NONE', *, *, #243, .T. ) ;
#134 = DIRECTION ( 'NONE',  ( 1.000000000000000000, 0.0000000000000000000, 0.0000000000000000000 ) ) ;
#135 = DESIGN_CONTEXT ( 'detailed design', #83, 'design' ) ;
#136 = ADVANCED_BREP_SHAPE_REPRESENTATION ( 'OT200-15-21_3x2_6_OSTP', ( #4, #234 ), #181 ) ;
#137 = CC_DESIGN_PERSON_AND_ORGANIZATION_ASSIGNMENT ( #182, #141, ( #215 ) ) ;
#138 = ORIENTED_EDGE ( 'NONE', *, *, #86, .T. ) ;
#139 = AXIS2_PLACEMENT_3D ( 'NONE', #249, #94, #130 ) ;
#140 = PERSON_AND_ORGANIZATION_ROLE ( 'classification_officer' ) ;
#141 = PERSON_AND_ORGANIZATION_ROLE ( 'design_owner' ) ;
#142 = CIRCLE ( 'NONE', #107, 8.050000000000000700 ) ;
#143 = CC_DESIGN_APPROVAL ( #80, ( #185 ) ) ;
#144 = ORGANIZATION ( 'UNSPECIFIED', 'UNSPECIFIED', '' ) ;
#145 = ORIENTED_EDGE ( 'NONE', *, *, #239, .F. ) ;
#146 = DIRECTION ( 'NONE',  ( 1.000000000000000000, 0.0000000000000000000, 0.0000000000000000000 ) ) ;
#147 = AXIS2_PLACEMENT_3D ( 'NONE', #164, #225, #104 ) ;
#148 = CARTESIAN_POINT ( 'NONE',  ( 27.49999999999999600, 27.50000000000000000, 0.0000000000000000000 ) ) ;
#149 = DIRECTION ( 'NONE',  ( 0.0000000000000000000, 0.0000000000000000000, 1.000000000000000000 ) ) ;
#150 = CC_DESIGN_APPROVAL ( #253, ( #194 ) ) ;
#151 = DATE_AND_TIME ( #197, #7 ) ;
#152 = CIRCLE ( 'NONE', #128, 10.65000000000000000 ) ;
#153 = DIRECTION ( 'NONE',  ( 0.0000000000000000000, 1.000000000000000000, 0.0000000000000000000 ) ) ;
#154 = DIRECTION ( 'NONE',  ( 1.000000000000000000, 0.0000000000000000000, 0.0000000000000000000 ) ) ;
#155 = APPROVAL_ROLE ( '' ) ;
#156 = APPROVAL ( #23, 'UNSPECIFIED' ) ;
#157 = UNCERTAINTY_MEASURE_WITH_UNIT (LENGTH_MEASURE( 1.000000000000000100E-005 ), #82, 'distance_accuracy_value', 'NONE');
#158 = CIRCLE ( 'NONE', #98, 19.45000000000000600 ) ;
#159 = DATE_TIME_ROLE ( 'creation_date' ) ;
#160 = ORIENTED_EDGE ( 'NONE', *, *, #71, .F. ) ;
#161 = AXIS2_PLACEMENT_3D ( 'NONE', #205, #233, #77 ) ;
#162 = CC_DESIGN_PERSON_AND_ORGANIZATION_ASSIGNMENT ( #206, #65, ( #194 ) ) ;
#163 = FACE_OUTER_BOUND ( 'NONE', #117, .T. ) ;
#164 = CARTESIAN_POINT ( 'NONE',  ( 27.49999999999999600, 27.50000000000000000, 0.0000000000000000000 ) ) ;
#165 = FACE_OUTER_BOUND ( 'NONE', #189, .T. ) ;
#166 = EDGE_CURVE ( 'NONE', #45, #207, #88, .T. ) ;
#167 = ADVANCED_FACE ( 'NONE', ( #126 ), #236, .T. ) ;
#168 = SECURITY_CLASSIFICATION_LEVEL ( 'unclassified' ) ;
#169 = FACE_OUTER_BOUND ( 'NONE', #26, .T. ) ;
#170 = CC_DESIGN_DATE_AND_TIME_ASSIGNMENT ( #62, #159, ( #194 ) ) ;
#171 =( NAMED_UNIT ( * ) PLANE_ANGLE_UNIT ( ) SI_UNIT ( $, .RADIAN. ) );
#172 = SHAPE_DEFINITION_REPRESENTATION ( #52, #136 ) ;
#173 = PERSON_AND_ORGANIZATION ( #237, #144 ) ;
#174 = PERSON_AND_ORGANIZATION ( #237, #144 ) ;
#175 = CARTESIAN_POINT ( 'NONE',  ( 27.50000000000000000, 0.0000000000000000000, -9.858406733136194400E-016 ) ) ;
#176 = AXIS2_PLACEMENT_3D ( 'NONE', #39, #42, #134 ) ;
#177 = ORIENTED_EDGE ( 'NONE', *, *, #166, .T. ) ;
#178 = ORIENTED_EDGE ( 'NONE', *, *, #89, .F. ) ;
#179 = DIRECTION ( 'NONE',  ( 0.0000000000000000000, 0.0000000000000000000, 1.000000000000000000 ) ) ;
#180 = DIRECTION ( 'NONE',  ( 0.0000000000000000000, 1.000000000000000000, 0.0000000000000000000 ) ) ;
#181 =( GEOMETRIC_REPRESENTATION_CONTEXT ( 3 ) GLOBAL_UNCERTAINTY_ASSIGNED_CONTEXT ( ( #157 ) ) GLOBAL_UNIT_ASSIGNED_CONTEXT ( ( #82, #171, #66 ) ) REPRESENTATION_CONTEXT ( 'NONE', 'WORKASPACE' ) );
#182 = PERSON_AND_ORGANIZATION ( #237, #144 ) ;
#183 = DIRECTION ( 'NONE',  ( 0.0000000000000000000, 0.0000000000000000000, 1.000000000000000000 ) ) ;
#184 = CARTESIAN_POINT ( 'NONE',  ( 27.50000000000000000, 0.0000000000000000000, 0.0000000000000000000 ) ) ;
#185 = PRODUCT_DEFINITION_FORMATION_WITH_SPECIFIED_SOURCE ( 'ANY', '', #215, .NOT_KNOWN. ) ;
#186 = DIRECTION ( 'NONE',  ( 0.0000000000000000000, 0.0000000000000000000, 1.000000000000000000 ) ) ;
#187 = ORIENTED_EDGE ( 'NONE', *, *, #92, .F. ) ;
#188 = DIRECTION ( 'NONE',  ( 0.0000000000000000000, 1.000000000000000000, 0.0000000000000000000 ) ) ;
#189 = EDGE_LOOP ( 'NONE', ( #187, #242, #78, #16 ) ) ;
#190 = CC_DESIGN_APPROVAL ( #156, ( #230 ) ) ;
#191 = COORDINATED_UNIVERSAL_TIME_OFFSET ( 1, 0, .AHEAD. ) ;
#192 = DIRECTION ( 'NONE',  ( 0.0000000000000000000, 0.0000000000000000000, 1.000000000000000000 ) ) ;
#193 = ORIENTED_EDGE ( 'NONE', *, *, #246, .T. ) ;
#194 = PRODUCT_DEFINITION ( 'UNKNOWN', '', #185, #135 ) ;
#195 = MECHANICAL_CONTEXT ( 'NONE', #120, 'mechanical' ) ;
#196 = AXIS2_PLACEMENT_3D ( 'NONE', #131, #228, #208 ) ;
#197 = CALENDAR_DATE ( 2020, 16, 12 ) ;
#198 = TOROIDAL_SURFACE ( 'NONE', #43, 27.50000000000000000, 8.050000000000000700 ) ;
#199 = CARTESIAN_POINT ( 'NONE',  ( 27.49999999999999600, 16.85000000000000100, -1.304248841091931300E-015 ) ) ;
#200 = DIRECTION ( 'NONE',  ( 0.0000000000000000000, 0.0000000000000000000, 1.000000000000000000 ) ) ;
#201 = CC_DESIGN_SECURITY_CLASSIFICATION ( #230, ( #185 ) ) ;
#202 = APPROVAL_DATE_TIME ( #151, #156 ) ;
#203 = ORIENTED_EDGE ( 'NONE', *, *, #95, .T. ) ;
#204 = DIRECTION ( 'NONE',  ( 0.0000000000000000000, 1.000000000000000000, 0.0000000000000000000 ) ) ;
#205 = CARTESIAN_POINT ( 'NONE',  ( 27.50000000000000000, 0.0000000000000000000, 0.0000000000000000000 ) ) ;
#206 = PERSON_AND_ORGANIZATION ( #237, #144 ) ;
#207 = VERTEX_POINT ( 'NONE', #247 ) ;
#208 = DIRECTION ( 'NONE',  ( 0.0000000000000000000, 0.0000000000000000000, 1.000000000000000000 ) ) ;
#209 = ADVANCED_FACE ( 'NONE', ( #232, #129 ), #210, .F. ) ;
#210 = PLANE ( 'NONE',  #139 ) ;
#211 = AXIS2_PLACEMENT_3D ( 'NONE', #38, #252, #57 ) ;
#212 = DIRECTION ( 'NONE',  ( 1.000000000000000000, 6.123233995736766000E-017, 0.0000000000000000000 ) ) ;
#213 = COORDINATED_UNIVERSAL_TIME_OFFSET ( 1, 0, .AHEAD. ) ;
#214 = ORIENTED_EDGE ( 'NONE', *, *, #166, .F. ) ;
#215 = PRODUCT ( 'OT200-15-21_3x2_6_OSTP', 'OT200-15-21_3x2_6_OSTP', '', ( #195 ) ) ;
#216 = DATE_AND_TIME ( #222, #22 ) ;
#217 = CIRCLE ( 'NONE', #119, 35.54999999999999700 ) ;
#218 = CC_DESIGN_PERSON_AND_ORGANIZATION_ASSIGNMENT ( #173, #3, ( #185 ) ) ;
#219 = APPROVAL_ROLE ( '' ) ;
#220 = EDGE_LOOP ( 'NONE', ( #178, #68 ) ) ;
#221 = AXIS2_PLACEMENT_3D ( 'NONE', #74, #231, #149 ) ;
#222 = CALENDAR_DATE ( 2020, 16, 12 ) ;
#223 = ORIENTED_EDGE ( 'NONE', *, *, #54, .T. ) ;
#224 = AXIS2_PLACEMENT_3D ( 'NONE', #60, #13, #188 ) ;
#225 = DIRECTION ( 'NONE',  ( 1.000000000000000000, 6.123233995736766000E-017, -0.0000000000000000000 ) ) ;
#226 = DIRECTION ( 'NONE',  ( 1.000000000000000000, 0.0000000000000000000, 0.0000000000000000000 ) ) ;
#227 = COORDINATED_UNIVERSAL_TIME_OFFSET ( 1, 0, .AHEAD. ) ;
#228 = DIRECTION ( 'NONE',  ( 0.0000000000000000000, 1.000000000000000000, 0.0000000000000000000 ) ) ;
#229 = ADVANCED_FACE ( 'NONE', ( #81 ), #124, .F. ) ;
#230 = SECURITY_CLASSIFICATION ( '', '', #168 ) ;
#231 = DIRECTION ( 'NONE',  ( 0.0000000000000000000, 1.000000000000000000, 0.0000000000000000000 ) ) ;
#232 = FACE_BOUND ( 'NONE', #84, .T. ) ;
#233 = DIRECTION ( 'NONE',  ( 0.0000000000000000000, 0.0000000000000000000, 1.000000000000000000 ) ) ;
#234 = AXIS2_PLACEMENT_3D ( 'NONE', #79, #186, #97 ) ;
#235 = PERSON_AND_ORGANIZATION ( #237, #144 ) ;
#236 = TOROIDAL_SURFACE ( 'NONE', #33, 27.50000000000000000, 10.65000000000000000 ) ;
#237 = PERSON ( 'UNSPECIFIED', 'UNSPECIFIED', 'UNSPECIFIED', ('UNSPECIFIED'), ('UNSPECIFIED'), ('UNSPECIFIED') ) ;
#238 = VERTEX_POINT ( 'NONE', #17 ) ;
#239 = EDGE_CURVE ( 'NONE', #207, #47, #217, .T. ) ;
#240 = ORIENTED_EDGE ( 'NONE', *, *, #239, .T. ) ;
#241 = APPROVAL_STATUS ( 'not_yet_approved' ) ;
#242 = ORIENTED_EDGE ( 'NONE', *, *, #54, .F. ) ;
#243 = EDGE_CURVE ( 'NONE', #207, #45, #70, .T. ) ;
#244 = ORIENTED_EDGE ( 'NONE', *, *, #246, .F. ) ;
#245 = EDGE_LOOP ( 'NONE', ( #177, #240, #160, #91 ) ) ;
#246 = EDGE_CURVE ( 'NONE', #238, #31, #251, .T. ) ;
#247 = CARTESIAN_POINT ( 'NONE',  ( 27.49999999999999600, 35.54999999999999700, 0.0000000000000000000 ) ) ;
#248 = CARTESIAN_POINT ( 'NONE',  ( 27.50000000000000000, 0.0000000000000000000, 0.0000000000000000000 ) ) ;
#249 = CARTESIAN_POINT ( 'NONE',  ( 0.0000000000000000000, 0.0000000000000000000, 0.0000000000000000000 ) ) ;
#250 = COORDINATED_UNIVERSAL_TIME_OFFSET ( 1, 0, .AHEAD. ) ;
#251 = CIRCLE ( 'NONE', #132, 10.65000000000000000 ) ;
#252 = DIRECTION ( 'NONE',  ( 0.0000000000000000000, 0.0000000000000000000, 1.000000000000000000 ) ) ;
#253 = APPROVAL ( #5, 'UNSPECIFIED' ) ;
ENDSEC;
END-ISO-10303-21;
