ISO-10303-21;
HEADER;
FILE_DESCRIPTION (( 'STEP AP203' ),
    '1' );
FILE_NAME ('3D_R1651_12x2_17352115.STEP',
    '2024-08-05T06:43:54',
    ( '' ),
    ( '' ),
    'SwSTEP 2.0',
    'SolidWorks 2024',
    '' );
FILE_SCHEMA (( 'CONFIG_CONTROL_DESIGN' ));
ENDSEC;

DATA;
#1 = TOROIDAL_SURFACE ( 'NONE', #135, 20.00000000000000000, 6.000000000000000000 ) ;
#2 = CARTESIAN_POINT ( 'NONE',  ( 0.000000000000000000, 0.000000000000000000, 0.000000000000000000 ) ) ;
#3 = MECHANICAL_CONTEXT ( 'NONE', #14, 'mechanical' ) ;
#4 = CIRCLE ( 'NONE', #149, 24.00000000000000000 ) ;
#5 = EDGE_CURVE ( 'NONE', #89, #150, #95, .T. ) ;
#6 = CALENDAR_DATE ( 2024, 5, 8 ) ;
#7 = CIRCLE ( 'NONE', #116, 16.00000000000000000 ) ;
#8 = CARTESIAN_POINT ( 'NONE',  ( -14.00000000000000000, 0.000000000000000000, -2.318339704187727057E-15 ) ) ;
#9 = ORIENTED_EDGE ( 'NONE', *, *, #32, .T. ) ;
#10 = CALENDAR_DATE ( 2024, 5, 8 ) ;
#11 = CC_DESIGN_PERSON_AND_ORGANIZATION_ASSIGNMENT ( #128, #30, ( #20 ) ) ;
#12 = CARTESIAN_POINT ( 'NONE',  ( -24.00000000000000000, 0.000000000000000000, -5.422402773017347415E-15 ) ) ;
#13 = EDGE_LOOP ( 'NONE', ( #238, #94, #9, #99 ) ) ;
#14 = APPLICATION_CONTEXT ( 'configuration controlled 3d designs of mechanical parts and assemblies' ) ;
#15 = DIRECTION ( 'NONE',  ( -1.000000000000000000, 0.000000000000000000, 2.943923360032083078E-15 ) ) ;
#16 = FACE_OUTER_BOUND ( 'NONE', #57, .T. ) ;
#17 = LOCAL_TIME ( 8, 43, 54.00000000000000000, #54 ) ;
#18 = CALENDAR_DATE ( 2024, 5, 8 ) ;
#19 = ORIENTED_EDGE ( 'NONE', *, *, #5, .F. ) ;
#20 = PRODUCT_DEFINITION ( 'UNKNOWN', '', #109, #85 ) ;
#21 = PRODUCT_DEFINITION_SHAPE ( 'NONE', 'NONE',  #20 ) ;
#22 = PERSON_AND_ORGANIZATION_ROLE ( 'design_owner' ) ;
#23 = CARTESIAN_POINT ( 'NONE',  ( -16.00000000000000000, 0.000000000000000000, -3.614935182011564943E-15 ) ) ;
#24 = ADVANCED_FACE ( 'NONE', ( #115 ), #25, .F. ) ;
#25 = TOROIDAL_SURFACE ( 'NONE', #202, 20.00000000000000000, 4.000000000000000000 ) ;
#26 = SHAPE_DEFINITION_REPRESENTATION ( #21, #75 ) ;
#27 = AXIS2_PLACEMENT_3D ( 'NONE', #140, #104, #180 ) ;
#28 = APPROVAL_DATE_TIME ( #100, #60 ) ;
#29 = EDGE_CURVE ( 'NONE', #150, #89, #234, .T. ) ;
#30 = PERSON_AND_ORGANIZATION_ROLE ( 'creator' ) ;
#31 = LOCAL_TIME ( 8, 43, 54.00000000000000000, #33 ) ;
#32 = EDGE_CURVE ( 'NONE', #208, #226, #7, .T. ) ;
#33 = COORDINATED_UNIVERSAL_TIME_OFFSET ( 1, 0, .AHEAD. ) ;
#34 = CARTESIAN_POINT ( 'NONE',  ( -20.00000000000000000, 0.000000000000000000, -4.518668977514456179E-15 ) ) ;
#35 = COORDINATED_UNIVERSAL_TIME_OFFSET ( 1, 0, .AHEAD. ) ;
#36 = CARTESIAN_POINT ( 'NONE',  ( -5.972319578071406330E-14, 0.000000000000000000, -20.00000000000000000 ) ) ;
#37 = CARTESIAN_POINT ( 'NONE',  ( 0.000000000000000000, 0.000000000000000000, 0.000000000000000000 ) ) ;
#38 = ORIENTED_EDGE ( 'NONE', *, *, #5, .T. ) ;
#39 = DIRECTION ( 'NONE',  ( 0.000000000000000000, 0.000000000000000000, 1.000000000000000000 ) ) ;
#40 = CIRCLE ( 'NONE', #210, 26.00000000000000355 ) ;
#41 = DIRECTION ( 'NONE',  ( 0.000000000000000000, 1.000000000000000000, 0.000000000000000000 ) ) ;
#42 = LOCAL_TIME ( 8, 43, 54.00000000000000000, #179 ) ;
#43 = EDGE_CURVE ( 'NONE', #56, #226, #159, .T. ) ;
#44 = DIRECTION ( 'NONE',  ( -2.259334488757228089E-16, 0.000000000000000000, 1.000000000000000000 ) ) ;
#45 = ADVANCED_FACE ( 'NONE', ( #136, #70 ), #55, .T. ) ;
#46 = DIRECTION ( 'NONE',  ( 0.000000000000000000, 1.000000000000000000, 0.000000000000000000 ) ) ;
#47 = MANIFOLD_SOLID_BREP ( 'Wandung1', #84 ) ;
#48 = DATE_TIME_ROLE ( 'classification_date' ) ;
#49 = AXIS2_PLACEMENT_3D ( 'NONE', #34, #58, #207 ) ;
#50 = CIRCLE ( 'NONE', #221, 6.000000000000000000 ) ;
#51 = ADVANCED_FACE ( 'NONE', ( #110, #185 ), #191, .F. ) ;
#52 = APPROVAL_PERSON_ORGANIZATION ( #92, #248, #163 ) ;
#53 = CARTESIAN_POINT ( 'NONE',  ( -20.00000000000000000, 0.000000000000000000, -3.673940397442063911E-15 ) ) ;
#54 = COORDINATED_UNIVERSAL_TIME_OFFSET ( 1, 0, .AHEAD. ) ;
#55 = PLANE ( 'NONE',  #81 ) ;
#56 = VERTEX_POINT ( 'NONE', #12 ) ;
#57 = EDGE_LOOP ( 'NONE', ( #193, #134, #19, #122 ) ) ;
#58 = DIRECTION ( 'NONE',  ( -2.259334488757228089E-16, 0.000000000000000000, 1.000000000000000000 ) ) ;
#59 = DIRECTION ( 'NONE',  ( 0.000000000000000000, 1.000000000000000000, 0.000000000000000000 ) ) ;
#60 = APPROVAL ( #231, 'UNSPECIFIED' ) ;
#61 = FACE_OUTER_BOUND ( 'NONE', #13, .T. ) ;
#62 = DIRECTION ( 'NONE',  ( 2.943923360032083078E-15, 0.000000000000000000, 1.000000000000000000 ) ) ;
#63 = SECURITY_CLASSIFICATION ( '', '', #130 ) ;
#64 = CALENDAR_DATE ( 2024, 5, 8 ) ;
#65 = DATE_AND_TIME ( #10, #129 ) ;
#66 = TOROIDAL_SURFACE ( 'NONE', #106, 20.00000000000000000, 6.000000000000000000 ) ;
#67 = ORIENTED_EDGE ( 'NONE', *, *, #29, .T. ) ;
#68 = ORIENTED_EDGE ( 'NONE', *, *, #114, .T. ) ;
#69 = ORGANIZATION ( 'UNSPECIFIED', 'UNSPECIFIED', '' ) ;
#70 = FACE_OUTER_BOUND ( 'NONE', #117, .T. ) ;
#71 = CALENDAR_DATE ( 2024, 5, 8 ) ;
#72 = DIRECTION ( 'NONE',  ( 1.000000000000000000, 0.000000000000000000, 2.259334488757228089E-16 ) ) ;
#73 = ORIENTED_EDGE ( 'NONE', *, *, #183, .T. ) ;
#74 = ADVANCED_FACE ( 'NONE', ( #16 ), #1, .T. ) ;
#75 = ADVANCED_BREP_SHAPE_REPRESENTATION ( '3D_R1651_12x2_17352115', ( #47, #212 ), #156 ) ;
#76 = DIRECTION ( 'NONE',  ( 0.000000000000000000, 1.000000000000000000, 0.000000000000000000 ) ) ;
#77 = EDGE_LOOP ( 'NONE', ( #151, #68, #246, #199 ) ) ;
#78 = EDGE_CURVE ( 'NONE', #247, #240, #194, .T. ) ;
#79 = DIRECTION ( 'NONE',  ( 1.000000000000000000, 0.000000000000000000, 0.000000000000000000 ) ) ;
#80 = FACE_OUTER_BOUND ( 'NONE', #77, .T. ) ;
#81 = AXIS2_PLACEMENT_3D ( 'NONE', #192, #96, #72 ) ;
#82 = APPLICATION_PROTOCOL_DEFINITION ( 'international standard', 'config_control_design', 1994, #14 ) ;
#83 = CARTESIAN_POINT ( 'NONE',  ( -4.710277376051332294E-14, 0.000000000000000000, -16.00000000000000000 ) ) ;
#84 = CLOSED_SHELL ( 'NONE', ( #24, #74, #229, #45, #51, #196 ) ) ;
#85 = DESIGN_CONTEXT ( 'detailed design', #125, 'design' ) ;
#86 =( NAMED_UNIT ( * ) PLANE_ANGLE_UNIT ( ) SI_UNIT ( $, .RADIAN. ) );
#87 = AXIS2_PLACEMENT_3D ( 'NONE', #97, #137, #209 ) ;
#88 = CC_DESIGN_APPROVAL ( #60, ( #20 ) ) ;
#89 = VERTEX_POINT ( 'NONE', #8 ) ;
#90 = DIRECTION ( 'NONE',  ( -1.000000000000000000, 0.000000000000000000, 2.943923360032083078E-15 ) ) ;
#91 = PERSON_AND_ORGANIZATION_ROLE ( 'classification_officer' ) ;
#92 = PERSON_AND_ORGANIZATION ( #219, #69 ) ;
#93 = DIRECTION ( 'NONE',  ( 1.000000000000000000, 0.000000000000000000, 2.259334488757228089E-16 ) ) ;
#94 = ORIENTED_EDGE ( 'NONE', *, *, #123, .F. ) ;
#95 = CIRCLE ( 'NONE', #147, 6.000000000000000000 ) ;
#96 = DIRECTION ( 'NONE',  ( -2.259334488757228089E-16, 0.000000000000000000, 1.000000000000000000 ) ) ;
#97 = CARTESIAN_POINT ( 'NONE',  ( -5.972319578071406330E-14, 0.000000000000000000, -20.00000000000000000 ) ) ;
#98 = CC_DESIGN_PERSON_AND_ORGANIZATION_ASSIGNMENT ( #205, #222, ( #109 ) ) ;
#99 = ORIENTED_EDGE ( 'NONE', *, *, #237, .T. ) ;
#100 = DATE_AND_TIME ( #18, #42 ) ;
#101 = ORIENTED_EDGE ( 'NONE', *, *, #43, .T. ) ;
#102 =( LENGTH_UNIT ( ) NAMED_UNIT ( * ) SI_UNIT ( .MILLI., .METRE. ) );
#103 = DIRECTION ( 'NONE',  ( -1.000000000000000000, 0.000000000000000000, 2.943923360032083078E-15 ) ) ;
#104 = DIRECTION ( 'NONE',  ( 0.000000000000000000, 1.000000000000000000, 0.000000000000000000 ) ) ;
#105 = PERSON_AND_ORGANIZATION ( #219, #69 ) ;
#106 = AXIS2_PLACEMENT_3D ( 'NONE', #214, #46, #200 ) ;
#107 = APPROVAL ( #184, 'UNSPECIFIED' ) ;
#108 = APPROVAL_PERSON_ORGANIZATION ( #155, #60, #139 ) ;
#109 = PRODUCT_DEFINITION_FORMATION_WITH_SPECIFIED_SOURCE ( 'ANY', '', #124, .NOT_KNOWN. ) ;
#110 = FACE_BOUND ( 'NONE', #166, .T. ) ;
#111 = DATE_AND_TIME ( #6, #31 ) ;
#112 = ORIENTED_EDGE ( 'NONE', *, *, #43, .F. ) ;
#113 = APPROVAL_ROLE ( '' ) ;
#114 = EDGE_CURVE ( 'NONE', #240, #247, #50, .T. ) ;
#115 = FACE_OUTER_BOUND ( 'NONE', #153, .T. ) ;
#116 = AXIS2_PLACEMENT_3D ( 'NONE', #244, #76, #230 ) ;
#117 = EDGE_LOOP ( 'NONE', ( #38, #67 ) ) ;
#118 = CARTESIAN_POINT ( 'NONE',  ( 0.000000000000000000, 0.000000000000000000, 0.000000000000000000 ) ) ;
#119 = EDGE_CURVE ( 'NONE', #186, #208, #162, .T. ) ;
#120 = CIRCLE ( 'NONE', #232, 4.000000000000000000 ) ;
#121 = DIRECTION ( 'NONE',  ( 0.000000000000000000, 0.000000000000000000, 1.000000000000000000 ) ) ;
#122 = ORIENTED_EDGE ( 'NONE', *, *, #241, .F. ) ;
#123 = EDGE_CURVE ( 'NONE', #208, #186, #120, .T. ) ;
#124 = PRODUCT ( '3D_R1651_12x2_17352115', '3D_R1651_12x2_17352115', '', ( #3 ) ) ;
#125 = APPLICATION_CONTEXT ( 'configuration controlled 3d designs of mechanical parts and assemblies' ) ;
#126 = UNCERTAINTY_MEASURE_WITH_UNIT (LENGTH_MEASURE( 1.000000000000000082E-05 ), #102, 'distance_accuracy_value', 'NONE');
#127 = TOROIDAL_SURFACE ( 'NONE', #181, 20.00000000000000000, 4.000000000000000000 ) ;
#128 = PERSON_AND_ORGANIZATION ( #219, #69 ) ;
#129 = LOCAL_TIME ( 8, 43, 54.00000000000000000, #187 ) ;
#130 = SECURITY_CLASSIFICATION_LEVEL ( 'unclassified' ) ;
#131 = ORIENTED_EDGE ( 'NONE', *, *, #114, .F. ) ;
#132 = APPROVAL_STATUS ( 'not_yet_approved' ) ;
#133 = DIRECTION ( 'NONE',  ( -1.000000000000000000, 0.000000000000000000, 2.943923360032083078E-15 ) ) ;
#134 = ORIENTED_EDGE ( 'NONE', *, *, #165, .T. ) ;
#135 = AXIS2_PLACEMENT_3D ( 'NONE', #37, #169, #242 ) ;
#136 = FACE_BOUND ( 'NONE', #245, .T. ) ;
#137 = DIRECTION ( 'NONE',  ( -1.000000000000000000, 0.000000000000000000, 2.943923360032083078E-15 ) ) ;
#138 = AXIS2_PLACEMENT_3D ( 'NONE', #160, #44, #157 ) ;
#139 = APPROVAL_ROLE ( '' ) ;
#140 = CARTESIAN_POINT ( 'NONE',  ( 0.000000000000000000, -7.347880794884119736E-16, 0.000000000000000000 ) ) ;
#141 = DIRECTION ( 'NONE',  ( 0.000000000000000000, 1.000000000000000000, 0.000000000000000000 ) ) ;
#142 = CARTESIAN_POINT ( 'NONE',  ( -7.065416064076998126E-14, 0.000000000000000000, -24.00000000000000000 ) ) ;
#143 = CC_DESIGN_PERSON_AND_ORGANIZATION_ASSIGNMENT ( #174, #22, ( #124 ) ) ;
#144 = CARTESIAN_POINT ( 'NONE',  ( -5.887846720064166157E-14, 0.000000000000000000, -20.00000000000000000 ) ) ;
#145 = CC_DESIGN_APPROVAL ( #107, ( #109 ) ) ;
#146 = DATE_TIME_ROLE ( 'creation_date' ) ;
#147 = AXIS2_PLACEMENT_3D ( 'NONE', #154, #227, #172 ) ;
#148 = ORIENTED_EDGE ( 'NONE', *, *, #32, .F. ) ;
#149 = AXIS2_PLACEMENT_3D ( 'NONE', #252, #59, #39 ) ;
#150 = VERTEX_POINT ( 'NONE', #195 ) ;
#151 = ORIENTED_EDGE ( 'NONE', *, *, #165, .F. ) ;
#152 = EDGE_LOOP ( 'NONE', ( #253, #131 ) ) ;
#153 = EDGE_LOOP ( 'NONE', ( #189, #73, #101, #148 ) ) ;
#154 = CARTESIAN_POINT ( 'NONE',  ( -20.00000000000000000, 0.000000000000000000, -3.673940397442063911E-15 ) ) ;
#155 = PERSON_AND_ORGANIZATION ( #219, #69 ) ;
#156 =( GEOMETRIC_REPRESENTATION_CONTEXT ( 3 ) GLOBAL_UNCERTAINTY_ASSIGNED_CONTEXT ( ( #126 ) ) GLOBAL_UNIT_ASSIGNED_CONTEXT ( ( #102, #86, #178 ) ) REPRESENTATION_CONTEXT ( 'NONE', 'WORKASPACE' ) );
#157 = DIRECTION ( 'NONE',  ( 1.000000000000000000, 0.000000000000000000, 2.259334488757228582E-16 ) ) ;
#158 = CC_DESIGN_DATE_AND_TIME_ASSIGNMENT ( #111, #48, ( #63 ) ) ;
#159 = CIRCLE ( 'NONE', #49, 4.000000000000000000 ) ;
#160 = CARTESIAN_POINT ( 'NONE',  ( -20.00000000000000000, 0.000000000000000000, -4.518668977514456179E-15 ) ) ;
#161 = AXIS2_PLACEMENT_3D ( 'NONE', #53, #224, #93 ) ;
#162 = CIRCLE ( 'NONE', #239, 4.000000000000000000 ) ;
#163 = APPROVAL_ROLE ( '' ) ;
#164 = DATE_AND_TIME ( #71, #17 ) ;
#165 = EDGE_CURVE ( 'NONE', #240, #150, #40, .T. ) ;
#166 = EDGE_LOOP ( 'NONE', ( #177, #225 ) ) ;
#167 = CIRCLE ( 'NONE', #138, 4.000000000000000000 ) ;
#168 = APPROVAL_DATE_TIME ( #164, #107 ) ;
#169 = DIRECTION ( 'NONE',  ( 0.000000000000000000, 1.000000000000000000, 0.000000000000000000 ) ) ;
#170 = DIRECTION ( 'NONE',  ( 0.000000000000000000, 1.000000000000000000, 0.000000000000000000 ) ) ;
#171 = CARTESIAN_POINT ( 'NONE',  ( -5.887846720064166157E-14, 0.000000000000000000, -20.00000000000000000 ) ) ;
#172 = DIRECTION ( 'NONE',  ( 1.000000000000000000, 0.000000000000000000, 2.259334488757228089E-16 ) ) ;
#173 = CC_DESIGN_SECURITY_CLASSIFICATION ( #63, ( #109 ) ) ;
#174 = PERSON_AND_ORGANIZATION ( #219, #69 ) ;
#175 = CC_DESIGN_PERSON_AND_ORGANIZATION_ASSIGNMENT ( #216, #91, ( #63 ) ) ;
#176 = APPLICATION_PROTOCOL_DEFINITION ( 'international standard', 'config_control_design', 1994, #125 ) ;
#177 = ORIENTED_EDGE ( 'NONE', *, *, #123, .T. ) ;
#178 =( NAMED_UNIT ( * ) SI_UNIT ( $, .STERADIAN. ) SOLID_ANGLE_UNIT ( ) );
#179 = COORDINATED_UNIVERSAL_TIME_OFFSET ( 1, 0, .AHEAD. ) ;
#180 = DIRECTION ( 'NONE',  ( 0.000000000000000000, 0.000000000000000000, 1.000000000000000000 ) ) ;
#181 = AXIS2_PLACEMENT_3D ( 'NONE', #2, #141, #251 ) ;
#182 = PRODUCT_RELATED_PRODUCT_CATEGORY ( 'detail', '', ( #124 ) ) ;
#183 = EDGE_CURVE ( 'NONE', #186, #56, #4, .T. ) ;
#184 = APPROVAL_STATUS ( 'not_yet_approved' ) ;
#185 = FACE_OUTER_BOUND ( 'NONE', #152, .T. ) ;
#186 = VERTEX_POINT ( 'NONE', #142 ) ;
#187 = COORDINATED_UNIVERSAL_TIME_OFFSET ( 1, 0, .AHEAD. ) ;
#188 = CARTESIAN_POINT ( 'NONE',  ( -5.972319578071406330E-14, 0.000000000000000000, -20.00000000000000000 ) ) ;
#189 = ORIENTED_EDGE ( 'NONE', *, *, #119, .F. ) ;
#190 = DIRECTION ( 'NONE',  ( 2.943923360032082684E-15, 0.000000000000000000, 1.000000000000000000 ) ) ;
#191 = PLANE ( 'NONE',  #218 ) ;
#192 = CARTESIAN_POINT ( 'NONE',  ( -20.00000000000000000, 0.000000000000000000, -3.673940397442063911E-15 ) ) ;
#193 = ORIENTED_EDGE ( 'NONE', *, *, #78, .T. ) ;
#194 = CIRCLE ( 'NONE', #87, 6.000000000000000000 ) ;
#195 = CARTESIAN_POINT ( 'NONE',  ( -26.00000000000000355, 0.000000000000000000, -5.029541090696400765E-15 ) ) ;
#196 = ADVANCED_FACE ( 'NONE', ( #61 ), #127, .F. ) ;
#197 = CC_DESIGN_APPROVAL ( #248, ( #63 ) ) ;
#198 = DIRECTION ( 'NONE',  ( 0.000000000000000000, 0.000000000000000000, 1.000000000000000000 ) ) ;
#199 = ORIENTED_EDGE ( 'NONE', *, *, #29, .F. ) ;
#200 = DIRECTION ( 'NONE',  ( 0.000000000000000000, 0.000000000000000000, 1.000000000000000000 ) ) ;
#201 = APPROVAL_DATE_TIME ( #65, #248 ) ;
#202 = AXIS2_PLACEMENT_3D ( 'NONE', #118, #170, #249 ) ;
#203 = CIRCLE ( 'NONE', #27, 14.00000000000000000 ) ;
#204 = CC_DESIGN_DATE_AND_TIME_ASSIGNMENT ( #223, #146, ( #20 ) ) ;
#205 = PERSON_AND_ORGANIZATION ( #219, #69 ) ;
#206 = DIRECTION ( 'NONE',  ( 2.943923360032083078E-15, 0.000000000000000000, 1.000000000000000000 ) ) ;
#207 = DIRECTION ( 'NONE',  ( 1.000000000000000000, 0.000000000000000000, 2.259334488757228582E-16 ) ) ;
#208 = VERTEX_POINT ( 'NONE', #83 ) ;
#209 = DIRECTION ( 'NONE',  ( 2.943923360032082684E-15, 0.000000000000000000, 1.000000000000000000 ) ) ;
#210 = AXIS2_PLACEMENT_3D ( 'NONE', #236, #41, #198 ) ;
#211 = DIRECTION ( 'NONE',  ( 2.943923360032083078E-15, 0.000000000000000000, 1.000000000000000000 ) ) ;
#212 = AXIS2_PLACEMENT_3D ( 'NONE', #213, #121, #79 ) ;
#213 = CARTESIAN_POINT ( 'NONE',  ( 0.000000000000000000, 0.000000000000000000, 0.000000000000000000 ) ) ;
#214 = CARTESIAN_POINT ( 'NONE',  ( 0.000000000000000000, 0.000000000000000000, 0.000000000000000000 ) ) ;
#215 = PERSON_AND_ORGANIZATION_ROLE ( 'design_supplier' ) ;
#216 = PERSON_AND_ORGANIZATION ( #219, #69 ) ;
#217 = CC_DESIGN_PERSON_AND_ORGANIZATION_ASSIGNMENT ( #105, #215, ( #109 ) ) ;
#218 = AXIS2_PLACEMENT_3D ( 'NONE', #188, #133, #206 ) ;
#219 = PERSON ( 'UNSPECIFIED', 'UNSPECIFIED', 'UNSPECIFIED', ('UNSPECIFIED'), ('UNSPECIFIED'), ('UNSPECIFIED') ) ;
#220 = PERSON_AND_ORGANIZATION ( #219, #69 ) ;
#221 = AXIS2_PLACEMENT_3D ( 'NONE', #36, #15, #190 ) ;
#222 = PERSON_AND_ORGANIZATION_ROLE ( 'creator' ) ;
#223 = DATE_AND_TIME ( #64, #243 ) ;
#224 = DIRECTION ( 'NONE',  ( -2.259334488757228089E-16, 0.000000000000000000, 1.000000000000000000 ) ) ;
#225 = ORIENTED_EDGE ( 'NONE', *, *, #119, .T. ) ;
#226 = VERTEX_POINT ( 'NONE', #23 ) ;
#227 = DIRECTION ( 'NONE',  ( -2.259334488757228089E-16, 0.000000000000000000, 1.000000000000000000 ) ) ;
#228 = ORIENTED_EDGE ( 'NONE', *, *, #237, .F. ) ;
#229 = ADVANCED_FACE ( 'NONE', ( #80 ), #66, .T. ) ;
#230 = DIRECTION ( 'NONE',  ( 0.000000000000000000, 0.000000000000000000, 1.000000000000000000 ) ) ;
#231 = APPROVAL_STATUS ( 'not_yet_approved' ) ;
#232 = AXIS2_PLACEMENT_3D ( 'NONE', #144, #103, #62 ) ;
#233 = CARTESIAN_POINT ( 'NONE',  ( -7.738673594090654915E-14, 0.000000000000000000, -26.00000000000000355 ) ) ;
#234 = CIRCLE ( 'NONE', #161, 6.000000000000000000 ) ;
#235 = CARTESIAN_POINT ( 'NONE',  ( -4.205965562052156483E-14, 0.000000000000000000, -14.00000000000000000 ) ) ;
#236 = CARTESIAN_POINT ( 'NONE',  ( 0.000000000000000000, 0.000000000000000000, 0.000000000000000000 ) ) ;
#237 = EDGE_CURVE ( 'NONE', #226, #56, #167, .T. ) ;
#238 = ORIENTED_EDGE ( 'NONE', *, *, #183, .F. ) ;
#239 = AXIS2_PLACEMENT_3D ( 'NONE', #171, #90, #211 ) ;
#240 = VERTEX_POINT ( 'NONE', #233 ) ;
#241 = EDGE_CURVE ( 'NONE', #247, #89, #203, .T. ) ;
#242 = DIRECTION ( 'NONE',  ( 0.000000000000000000, 0.000000000000000000, 1.000000000000000000 ) ) ;
#243 = LOCAL_TIME ( 8, 43, 54.00000000000000000, #35 ) ;
#244 = CARTESIAN_POINT ( 'NONE',  ( 0.000000000000000000, -4.898587196589412829E-16, 0.000000000000000000 ) ) ;
#245 = EDGE_LOOP ( 'NONE', ( #228, #112 ) ) ;
#246 = ORIENTED_EDGE ( 'NONE', *, *, #241, .T. ) ;
#247 = VERTEX_POINT ( 'NONE', #235 ) ;
#248 = APPROVAL ( #132, 'UNSPECIFIED' ) ;
#249 = DIRECTION ( 'NONE',  ( 0.000000000000000000, 0.000000000000000000, 1.000000000000000000 ) ) ;
#250 = APPROVAL_PERSON_ORGANIZATION ( #220, #107, #113 ) ;
#251 = DIRECTION ( 'NONE',  ( 0.000000000000000000, 0.000000000000000000, 1.000000000000000000 ) ) ;
#252 = CARTESIAN_POINT ( 'NONE',  ( 0.000000000000000000, 0.000000000000000000, 0.000000000000000000 ) ) ;
#253 = ORIENTED_EDGE ( 'NONE', *, *, #78, .F. ) ;
ENDSEC;
END-ISO-10303-21;
