ISO-10303-21;
HEADER;
FILE_DESCRIPTION (( 'STEP AP203' ),
    '1' );
FILE_NAME ('11-0232-11_outokumpu.step',
    '2015-08-11T14:09:36',
    ( '' ),
    ( '' ),
    'SwSTEP 2.0',
    'SolidWorks 2008',
    '' );
FILE_SCHEMA (( 'CONFIG_CONTROL_DESIGN' ));
ENDSEC;

DATA;
#1 = DIRECTION ( 'NONE',  ( 0.0000000000000000000, -1.000000000000000000, 1.184327164883351100E-016 ) ) ;
#2 = MANIFOLD_SOLID_BREP ( 'NONE', #85 ) ;
#3 = ADVANCED_FACE ( 'NONE', ( #84 ), #81, .F. ) ;
#4 = VERTEX_POINT ( 'NONE', #82 ) ;
#5 = EDGE_CURVE ( 'NONE', #7, #4, #77, .T. ) ;
#6 = ORIENTED_EDGE ( 'NONE', *, *, #5, .F. ) ;
#7 = VERTEX_POINT ( 'NONE', #37 ) ;
#8 = ORIENTED_EDGE ( 'NONE', *, *, #58, .F. ) ;
#9 = ORIENTED_EDGE ( 'NONE', *, *, #16, .T. ) ;
#10 = ORIENTED_EDGE ( 'NONE', *, *, #71, .T. ) ;
#11 = ORIENTED_EDGE ( 'NONE', *, *, #12, .F. ) ;
#12 = EDGE_CURVE ( 'NONE', #4, #7, #35, .T. ) ;
#13 = ADVANCED_FACE ( 'NONE', ( #36 ), #30, .F. ) ;
#14 = ORIENTED_EDGE ( 'NONE', *, *, #59, .F. ) ;
#15 = ORIENTED_EDGE ( 'NONE', *, *, #16, .F. ) ;
#16 = EDGE_CURVE ( 'NONE', #74, #60, #24, .T. ) ;
#17 = ORIENTED_EDGE ( 'NONE', *, *, #65, .T. ) ;
#18 = AXIS2_PLACEMENT_3D ( 'NONE', #108, #107, #106 ) ;
#19 = PLANE ( 'NONE',  #18 ) ;
#20 = DIRECTION ( 'NONE',  ( 0.0000000000000000000, -1.000000000000000000, 1.387778780781445700E-016 ) ) ;
#21 = DIRECTION ( 'NONE',  ( -0.0000000000000000000, 1.064910260128133200E-016, 1.000000000000000000 ) ) ;
#22 = CARTESIAN_POINT ( 'NONE',  ( 0.0000000000000000000, -2.449293598294704900E-015, -22.99999999999998600 ) ) ;
#23 = AXIS2_PLACEMENT_3D ( 'NONE', #22, #21, #20 ) ;
#24 = CIRCLE ( 'NONE', #23, 50.00000000000000000 ) ;
#25 = FACE_OUTER_BOUND ( 'NONE', #56, .T. ) ;
#26 = DIRECTION ( 'NONE',  ( 0.0000000000000000000, 1.000000000000000000, -1.064910260128133200E-016 ) ) ;
#27 = DIRECTION ( 'NONE',  ( 0.0000000000000000000, -1.064910260128133200E-016, -1.000000000000000000 ) ) ;
#28 = CARTESIAN_POINT ( 'NONE',  ( 0.0000000000000000000, -2.449293598294706500E-015, 23.00000000000000000 ) ) ;
#29 = AXIS2_PLACEMENT_3D ( 'NONE', #28, #27, #26 ) ;
#30 = PLANE ( 'NONE',  #29 ) ;
#31 = DIRECTION ( 'NONE',  ( 0.0000000000000000000, -1.000000000000000000, 1.387778780781445700E-016 ) ) ;
#32 = DIRECTION ( 'NONE',  ( -0.0000000000000000000, 1.064910260128133200E-016, 1.000000000000000000 ) ) ;
#33 = CARTESIAN_POINT ( 'NONE',  ( 0.0000000000000000000, 2.449293598294706500E-015, 23.00000000000000000 ) ) ;
#34 = AXIS2_PLACEMENT_3D ( 'NONE', #33, #32, #31 ) ;
#35 = CIRCLE ( 'NONE', #34, 50.00000000000000000 ) ;
#36 = FACE_OUTER_BOUND ( 'NONE', #124, .T. ) ;
#37 = CARTESIAN_POINT ( 'NONE',  ( 0.0000000000000000000, -50.00000000000000000, 23.00000000000000700 ) ) ;
#38 = DIRECTION ( 'NONE',  ( 0.0000000000000000000, -1.000000000000000000, 1.387778780781445700E-016 ) ) ;
#39 = DIRECTION ( 'NONE',  ( -0.0000000000000000000, 1.064910260128133200E-016, 1.000000000000000000 ) ) ;
#40 = CARTESIAN_POINT ( 'NONE',  ( 0.0000000000000000000, 2.449293598294706500E-015, 23.00000000000000000 ) ) ;
#41 = AXIS2_PLACEMENT_3D ( 'NONE', #40, #39, #38 ) ;
#42 = ADVANCED_FACE ( 'NONE', ( #25 ), #19, .F. ) ;
#43 = EDGE_CURVE ( 'NONE', #67, #62, #104, .T. ) ;
#44 = ORIENTED_EDGE ( 'NONE', *, *, #45, .T. ) ;
#45 = EDGE_CURVE ( 'NONE', #121, #118, #99, .T. ) ;
#46 = VERTEX_POINT ( 'NONE', #197 ) ;
#47 = ORIENTED_EDGE ( 'NONE', *, *, #122, .F. ) ;
#48 = ORIENTED_EDGE ( 'NONE', *, *, #49, .T. ) ;
#49 = EDGE_CURVE ( 'NONE', #62, #117, #215, .T. ) ;
#50 = ADVANCED_FACE ( 'NONE', ( #196 ), #216, .F. ) ;
#51 = EDGE_LOOP ( 'NONE', ( #52, #53, #115, #116 ) ) ;
#52 = ORIENTED_EDGE ( 'NONE', *, *, #49, .F. ) ;
#53 = ORIENTED_EDGE ( 'NONE', *, *, #94, .T. ) ;
#54 = ORIENTED_EDGE ( 'NONE', *, *, #45, .F. ) ;
#55 = ADVANCED_FACE ( 'NONE', ( #224 ), #181, .F. ) ;
#56 = EDGE_LOOP ( 'NONE', ( #114, #54 ) ) ;
#57 = ORIENTED_EDGE ( 'NONE', *, *, #58, .T. ) ;
#58 = EDGE_CURVE ( 'NONE', #74, #4, #163, .T. ) ;
#59 = EDGE_CURVE ( 'NONE', #60, #74, #212, .T. ) ;
#60 = VERTEX_POINT ( 'NONE', #214 ) ;
#61 = ORIENTED_EDGE ( 'NONE', *, *, #59, .T. ) ;
#62 = VERTEX_POINT ( 'NONE', #213 ) ;
#63 = ORIENTED_EDGE ( 'NONE', *, *, #43, .F. ) ;
#64 = ORIENTED_EDGE ( 'NONE', *, *, #65, .F. ) ;
#65 = EDGE_CURVE ( 'NONE', #46, #117, #179, .T. ) ;
#66 = ADVANCED_FACE ( 'NONE', ( #141 ), #187, .F. ) ;
#67 = VERTEX_POINT ( 'NONE', #226 ) ;
#68 = ORIENTED_EDGE ( 'NONE', *, *, #43, .T. ) ;
#69 = ORIENTED_EDGE ( 'NONE', *, *, #70, .F. ) ;
#70 = EDGE_CURVE ( 'NONE', #62, #118, #209, .T. ) ;
#71 = EDGE_CURVE ( 'NONE', #60, #7, #210, .T. ) ;
#72 = EDGE_LOOP ( 'NONE', ( #68, #48, #64, #47 ) ) ;
#73 = ORIENTED_EDGE ( 'NONE', *, *, #71, .F. ) ;
#74 = VERTEX_POINT ( 'NONE', #154 ) ;
#75 = EDGE_LOOP ( 'NONE', ( #61, #57, #6, #73 ) ) ;
#76 = ADVANCED_FACE ( 'NONE', ( #132 ), #131, .T. ) ;
#77 = CIRCLE ( 'NONE', #41, 50.00000000000000000 ) ;
#78 = DIRECTION ( 'NONE',  ( 0.0000000000000000000, 1.000000000000000000, -7.895514432555674200E-017 ) ) ;
#79 = DIRECTION ( 'NONE',  ( 0.0000000000000000000, -1.064910260128133200E-016, -1.000000000000000000 ) ) ;
#80 = AXIS2_PLACEMENT_3D ( 'NONE', #83, #79, #78 ) ;
#81 = CONICAL_SURFACE ( 'NONE', #80, 43.94200000000000000, 0.7853981633974426200 ) ;
#82 = CARTESIAN_POINT ( 'NONE',  ( 6.123031769111886300E-015, 50.00000000000000000, 22.99999999999999300 ) ) ;
#83 = CARTESIAN_POINT ( 'NONE',  ( 0.0000000000000000000, -2.285884348529273700E-015, -21.46551154699392000 ) ) ;
#84 = FACE_OUTER_BOUND ( 'NONE', #72, .T. ) ;
#85 = CLOSED_SHELL ( 'NONE', ( #76, #3, #66, #42, #55, #50, #111, #88, #13 ) ) ;
#86 = ORIENTED_EDGE ( 'NONE', *, *, #12, .T. ) ;
#87 = ORIENTED_EDGE ( 'NONE', *, *, #5, .T. ) ;
#88 = ADVANCED_FACE ( 'NONE', ( #220 ), #219, .T. ) ;
#89 = EDGE_CURVE ( 'NONE', #117, #46, #168, .T. ) ;
#90 = EDGE_LOOP ( 'NONE', ( #92, #93, #95, #96 ) ) ;
#91 = EDGE_CURVE ( 'NONE', #118, #121, #125, .T. ) ;
#92 = ORIENTED_EDGE ( 'NONE', *, *, #120, .F. ) ;
#93 = ORIENTED_EDGE ( 'NONE', *, *, #94, .F. ) ;
#94 = EDGE_CURVE ( 'NONE', #62, #67, #129, .T. ) ;
#95 = ORIENTED_EDGE ( 'NONE', *, *, #70, .T. ) ;
#96 = ORIENTED_EDGE ( 'NONE', *, *, #91, .T. ) ;
#97 = DIRECTION ( 'NONE',  ( -0.0000000000000000000, 1.064910260128133200E-016, 1.000000000000000000 ) ) ;
#98 = AXIS2_PLACEMENT_3D ( 'NONE', #105, #97, #1 ) ;
#99 = CIRCLE ( 'NONE', #98, 43.94200000000000000 ) ;
#100 = DIRECTION ( 'NONE',  ( 0.0000000000000000000, -1.000000000000000000, 7.895514432555674200E-017 ) ) ;
#101 = DIRECTION ( 'NONE',  ( -0.0000000000000000000, 1.064910260128133200E-016, 1.000000000000000000 ) ) ;
#102 = CARTESIAN_POINT ( 'NONE',  ( 0.0000000000000000000, -2.285884348529273700E-015, -21.46551154699392000 ) ) ;
#103 = AXIS2_PLACEMENT_3D ( 'NONE', #102, #101, #100 ) ;
#104 = CIRCLE ( 'NONE', #103, 43.94200000000000000 ) ;
#105 = CARTESIAN_POINT ( 'NONE',  ( 0.0000000000000000000, 1.597365390192200800E-015, 15.00000000000001100 ) ) ;
#106 = DIRECTION ( 'NONE',  ( 0.0000000000000000000, -1.000000000000000000, 1.064910260128133200E-016 ) ) ;
#107 = DIRECTION ( 'NONE',  ( -0.0000000000000000000, 1.064910260128133200E-016, 1.000000000000000000 ) ) ;
#108 = CARTESIAN_POINT ( 'NONE',  ( 0.0000000000000000000, 43.94200000000000000, 15.00000000000000200 ) ) ;
#109 = ORIENTED_EDGE ( 'NONE', *, *, #89, .T. ) ;
#110 = EDGE_LOOP ( 'NONE', ( #8, #9, #10, #11 ) ) ;
#111 = ADVANCED_FACE ( 'NONE', ( #130, #143 ), #205, .F. ) ;
#112 = EDGE_LOOP ( 'NONE', ( #17, #109 ) ) ;
#113 = EDGE_LOOP ( 'NONE', ( #14, #15 ) ) ;
#114 = ORIENTED_EDGE ( 'NONE', *, *, #91, .F. ) ;
#115 = ORIENTED_EDGE ( 'NONE', *, *, #122, .T. ) ;
#116 = ORIENTED_EDGE ( 'NONE', *, *, #89, .F. ) ;
#117 = VERTEX_POINT ( 'NONE', #202 ) ;
#118 = VERTEX_POINT ( 'NONE', #201 ) ;
#119 = ORIENTED_EDGE ( 'NONE', *, *, #120, .T. ) ;
#120 = EDGE_CURVE ( 'NONE', #67, #121, #137, .T. ) ;
#121 = VERTEX_POINT ( 'NONE', #225 ) ;
#122 = EDGE_CURVE ( 'NONE', #67, #46, #133, .T. ) ;
#123 = EDGE_LOOP ( 'NONE', ( #63, #119, #44, #69 ) ) ;
#124 = EDGE_LOOP ( 'NONE', ( #87, #86 ) ) ;
#125 = CIRCLE ( 'NONE', #193, 43.94200000000000000 ) ;
#126 = DIRECTION ( 'NONE',  ( -0.0000000000000000000, 1.064910260128133200E-016, 1.000000000000000000 ) ) ;
#127 = DIRECTION ( 'NONE',  ( 8.659274570719304900E-017, -0.7071067811865435800, -0.7071067811865514600 ) ) ;
#128 = CARTESIAN_POINT ( 'NONE',  ( 0.0000000000000000000, -2.285884348529273700E-015, -21.46551154699392000 ) ) ;
#129 = CIRCLE ( 'NONE', #145, 43.94200000000000000 ) ;
#130 = FACE_OUTER_BOUND ( 'NONE', #113, .T. ) ;
#131 = CYLINDRICAL_SURFACE ( 'NONE', #218, 50.00000000000000000 ) ;
#132 = FACE_OUTER_BOUND ( 'NONE', #75, .T. ) ;
#133 = LINE ( 'NONE', #228, #227 ) ;
#134 = DIRECTION ( 'NONE',  ( -0.0000000000000000000, 1.064910260128133200E-016, 1.000000000000000000 ) ) ;
#135 = VECTOR ( 'NONE', #134, 1000.000000000000000 ) ;
#136 = CARTESIAN_POINT ( 'NONE',  ( 5.381165239966290300E-015, 43.94200000000000000, -4.679428665055043400E-015 ) ) ;
#137 = LINE ( 'NONE', #136, #135 ) ;
#138 = DIRECTION ( 'NONE',  ( 0.0000000000000000000, -1.000000000000000000, 1.387778780781445700E-016 ) ) ;
#139 = DIRECTION ( 'NONE',  ( -0.0000000000000000000, 1.064910260128133200E-016, 1.000000000000000000 ) ) ;
#140 = AXIS2_PLACEMENT_3D ( 'NONE', #164, #139, #138 ) ;
#141 = FACE_OUTER_BOUND ( 'NONE', #123, .T. ) ;
#142 = AXIS2_PLACEMENT_3D ( 'NONE', #200, #199, #198 ) ;
#143 = FACE_BOUND ( 'NONE', #112, .T. ) ;
#144 = DIRECTION ( 'NONE',  ( 0.0000000000000000000, -1.000000000000000000, 7.895514432555674200E-017 ) ) ;
#145 = AXIS2_PLACEMENT_3D ( 'NONE', #128, #126, #144 ) ;
#146 =( GEOMETRIC_REPRESENTATION_CONTEXT ( 3 ) GLOBAL_UNCERTAINTY_ASSIGNED_CONTEXT ( ( #147 ) ) GLOBAL_UNIT_ASSIGNED_CONTEXT ( ( #148, #195, #194 ) ) REPRESENTATION_CONTEXT ( 'NONE', 'WORKASPACE' ) );
#147 = UNCERTAINTY_MEASURE_WITH_UNIT (LENGTH_MEASURE( 1.000000000000000100E-005 ), #148, 'distance_accuracy_value', 'NONE');
#148 =( LENGTH_UNIT ( ) NAMED_UNIT ( * ) SI_UNIT ( .MILLI., .METRE. ) );
#149 = CARTESIAN_POINT ( 'NONE',  ( 0.0000000000000000000, 0.0000000000000000000, 0.0000000000000000000 ) ) ;
#150 = DIRECTION ( 'NONE',  ( 0.0000000000000000000, 0.7071067811865434600, -0.7071067811865516800 ) ) ;
#151 = DIRECTION ( 'NONE',  ( -0.0000000000000000000, 1.064910260128133200E-016, 1.000000000000000000 ) ) ;
#152 = VECTOR ( 'NONE', #151, 1000.000000000000000 ) ;
#153 = CARTESIAN_POINT ( 'NONE',  ( 0.0000000000000000000, -50.00000000000000000, 5.324551300640666900E-015 ) ) ;
#154 = CARTESIAN_POINT ( 'NONE',  ( 6.123031769111886300E-015, 50.00000000000000000, -22.99999999999999300 ) ) ;
#155 = DIRECTION ( 'NONE',  ( 0.0000000000000000000, -1.000000000000000000, 7.629100376865793600E-017 ) ) ;
#156 = DIRECTION ( 'NONE',  ( -0.0000000000000000000, 1.064910260128133200E-016, 1.000000000000000000 ) ) ;
#157 = CARTESIAN_POINT ( 'NONE',  ( 0.0000000000000000000, -2.449293598294705700E-015, -22.99999999999999300 ) ) ;
#158 = AXIS2_PLACEMENT_3D ( 'NONE', #157, #156, #155 ) ;
#159 = DIRECTION ( 'NONE',  ( 0.0000000000000000000, 1.000000000000000000, -7.895514432555674200E-017 ) ) ;
#160 = VECTOR ( 'NONE', #127, 1000.000000000000000 ) ;
#161 = AXIS2_PLACEMENT_3D ( 'NONE', #172, #171, #165 ) ;
#162 = CARTESIAN_POINT ( 'NONE',  ( 6.123031769111886300E-015, 50.00000000000000000, -5.324551300640666900E-015 ) ) ;
#163 = LINE ( 'NONE', #162, #190 ) ;
#164 = CARTESIAN_POINT ( 'NONE',  ( 0.0000000000000000000, -2.449293598294704900E-015, -22.99999999999998600 ) ) ;
#165 = DIRECTION ( 'NONE',  ( 0.0000000000000000000, -1.000000000000000000, 1.064910260128133300E-016 ) ) ;
#166 = CARTESIAN_POINT ( 'NONE',  ( 0.0000000000000000000, -2.285884348529273700E-015, -21.46551154699392000 ) ) ;
#167 = AXIS2_PLACEMENT_3D ( 'NONE', #166, #174, #159 ) ;
#168 = CIRCLE ( 'NONE', #158, 45.47648845300605600 ) ;
#169 = CARTESIAN_POINT ( 'NONE',  ( 0.0000000000000000000, 1.597365390192200800E-015, 15.00000000000001100 ) ) ;
#170 = DIRECTION ( 'NONE',  ( 0.0000000000000000000, -1.000000000000000000, 1.064910260128133300E-016 ) ) ;
#171 = DIRECTION ( 'NONE',  ( -0.0000000000000000000, 1.064910260128133200E-016, 1.000000000000000000 ) ) ;
#172 = CARTESIAN_POINT ( 'NONE',  ( 0.0000000000000000000, 0.0000000000000000000, 0.0000000000000000000 ) ) ;
#173 = CARTESIAN_POINT ( 'NONE',  ( 5.381165239966290300E-015, -43.94200000000000000, -21.46551154699391600 ) ) ;
#174 = DIRECTION ( 'NONE',  ( 0.0000000000000000000, -1.064910260128133200E-016, -1.000000000000000000 ) ) ;
#175 = DIRECTION ( 'NONE',  ( 0.0000000000000000000, -1.000000000000000000, 7.629100376865793600E-017 ) ) ;
#176 = DIRECTION ( 'NONE',  ( -0.0000000000000000000, 1.064910260128133200E-016, 1.000000000000000000 ) ) ;
#177 = CARTESIAN_POINT ( 'NONE',  ( 0.0000000000000000000, -2.449293598294705700E-015, -22.99999999999999300 ) ) ;
#178 = AXIS2_PLACEMENT_3D ( 'NONE', #177, #176, #175 ) ;
#179 = CIRCLE ( 'NONE', #178, 45.47648845300605600 ) ;
#180 = CARTESIAN_POINT ( 'NONE',  ( 0.0000000000000000000, 0.0000000000000000000, 0.0000000000000000000 ) ) ;
#181 = CYLINDRICAL_SURFACE ( 'NONE', #161, 43.94200000000000000 ) ;
#182 = DIRECTION ( 'NONE',  ( -0.0000000000000000000, 1.064910260128133200E-016, 1.000000000000000000 ) ) ;
#183 = AXIS2_PLACEMENT_3D ( 'NONE', #180, #182, #170 ) ;
#184 = DIRECTION ( 'NONE',  ( 0.0000000000000000000, -1.000000000000000000, 1.064910260128133300E-016 ) ) ;
#185 = AXIS2_PLACEMENT_3D ( 'NONE', #186, #188, #184 ) ;
#186 = CARTESIAN_POINT ( 'NONE',  ( 0.0000000000000000000, 0.0000000000000000000, 0.0000000000000000000 ) ) ;
#187 = CYLINDRICAL_SURFACE ( 'NONE', #185, 43.94200000000000000 ) ;
#188 = DIRECTION ( 'NONE',  ( -0.0000000000000000000, 1.064910260128133200E-016, 1.000000000000000000 ) ) ;
#189 = DIRECTION ( 'NONE',  ( -0.0000000000000000000, 1.064910260128133200E-016, 1.000000000000000000 ) ) ;
#190 = VECTOR ( 'NONE', #189, 1000.000000000000000 ) ;
#191 = DIRECTION ( 'NONE',  ( 0.0000000000000000000, -1.000000000000000000, 1.184327164883351100E-016 ) ) ;
#192 = DIRECTION ( 'NONE',  ( -0.0000000000000000000, 1.064910260128133200E-016, 1.000000000000000000 ) ) ;
#193 = AXIS2_PLACEMENT_3D ( 'NONE', #169, #192, #191 ) ;
#194 =( NAMED_UNIT ( * ) SI_UNIT ( $, .STERADIAN. ) SOLID_ANGLE_UNIT ( ) );
#195 =( NAMED_UNIT ( * ) PLANE_ANGLE_UNIT ( ) SI_UNIT ( $, .RADIAN. ) );
#196 = FACE_OUTER_BOUND ( 'NONE', #51, .T. ) ;
#197 = CARTESIAN_POINT ( 'NONE',  ( 0.0000000000000000000, 45.47648845300605600, -22.99999999999999600 ) ) ;
#198 = DIRECTION ( 'NONE',  ( 0.0000000000000000000, -1.000000000000000000, 1.064910260128133200E-016 ) ) ;
#199 = DIRECTION ( 'NONE',  ( -0.0000000000000000000, 1.064910260128133200E-016, 1.000000000000000000 ) ) ;
#200 = CARTESIAN_POINT ( 'NONE',  ( 0.0000000000000000000, 50.00000000000000000, -22.99999999999999300 ) ) ;
#201 = CARTESIAN_POINT ( 'NONE',  ( 0.0000000000000000000, -43.94200000000000000, 15.00000000000001400 ) ) ;
#202 = CARTESIAN_POINT ( 'NONE',  ( 5.569079670908118800E-015, -45.47648845300605600, -22.99999999999998900 ) ) ;
#203 = DIRECTION ( 'NONE',  ( 0.0000000000000000000, -1.000000000000000000, 1.064910260128133300E-016 ) ) ;
#204 = DIRECTION ( 'NONE',  ( -0.0000000000000000000, 1.064910260128133200E-016, 1.000000000000000000 ) ) ;
#205 = PLANE ( 'NONE',  #142 ) ;
#206 = DIRECTION ( 'NONE',  ( -0.0000000000000000000, 1.064910260128133200E-016, 1.000000000000000000 ) ) ;
#207 = VECTOR ( 'NONE', #206, 1000.000000000000000 ) ;
#208 = CARTESIAN_POINT ( 'NONE',  ( 0.0000000000000000000, -43.94200000000000000, 4.679428665055043400E-015 ) ) ;
#209 = LINE ( 'NONE', #208, #207 ) ;
#210 = LINE ( 'NONE', #153, #152 ) ;
#211 = ADVANCED_BREP_SHAPE_REPRESENTATION ( '11-0232-11_outokumpu', ( #2, #221 ), #146 ) ;
#212 = CIRCLE ( 'NONE', #140, 50.00000000000000000 ) ;
#213 = CARTESIAN_POINT ( 'NONE',  ( 0.0000000000000000000, -43.94200000000000000, -21.46551154699391600 ) ) ;
#214 = CARTESIAN_POINT ( 'NONE',  ( 0.0000000000000000000, -50.00000000000000000, -22.99999999999997900 ) ) ;
#215 = LINE ( 'NONE', #173, #160 ) ;
#216 = CONICAL_SURFACE ( 'NONE', #167, 43.94200000000000000, 0.7853981633974426200 ) ;
#217 = CARTESIAN_POINT ( 'NONE',  ( 0.0000000000000000000, 0.0000000000000000000, 0.0000000000000000000 ) ) ;
#218 = AXIS2_PLACEMENT_3D ( 'NONE', #217, #204, #203 ) ;
#219 = CYLINDRICAL_SURFACE ( 'NONE', #183, 50.00000000000000000 ) ;
#220 = FACE_OUTER_BOUND ( 'NONE', #110, .T. ) ;
#221 = AXIS2_PLACEMENT_3D ( 'NONE', #149, #223, #222 ) ;
#222 = DIRECTION ( 'NONE',  ( 1.000000000000000000, 0.0000000000000000000, 0.0000000000000000000 ) ) ;
#223 = DIRECTION ( 'NONE',  ( 0.0000000000000000000, 0.0000000000000000000, 1.000000000000000000 ) ) ;
#224 = FACE_OUTER_BOUND ( 'NONE', #90, .T. ) ;
#225 = CARTESIAN_POINT ( 'NONE',  ( 5.381165239966290300E-015, 43.94200000000000000, 15.00000000000000500 ) ) ;
#226 = CARTESIAN_POINT ( 'NONE',  ( 5.381165239966290300E-015, 43.94200000000000000, -21.46551154699392300 ) ) ;
#227 = VECTOR ( 'NONE', #150, 999.9999999999998900 ) ;
#228 = CARTESIAN_POINT ( 'NONE',  ( 0.0000000000000000000, 43.94200000000000000, -21.46551154699392300 ) ) ;
#229 = APPROVAL_DATE_TIME ( #230, #236 ) ;
#230 = DATE_AND_TIME ( #231, #232 ) ;
#231 = CALENDAR_DATE ( 2015, 11, 8 ) ;
#232 = LOCAL_TIME ( 16, 9, 36.00000000000000000, #233 ) ;
#233 = COORDINATED_UNIVERSAL_TIME_OFFSET ( 1, 0, .AHEAD. ) ;
#234 = APPROVAL_PERSON_ORGANIZATION ( #238, #236, #235 ) ;
#235 = APPROVAL_ROLE ( '' ) ;
#236 = APPROVAL ( #237, 'UNSPECIFIED' ) ;
#237 = APPROVAL_STATUS ( 'not_yet_approved' ) ;
#238 = PERSON_AND_ORGANIZATION ( #304, #273 ) ;
#239 = CC_DESIGN_DATE_AND_TIME_ASSIGNMENT ( #292, #240, ( #297 ) ) ;
#240 = DATE_TIME_ROLE ( 'classification_date' ) ;
#241 = CALENDAR_DATE ( 2015, 11, 8 ) ;
#242 = LOCAL_TIME ( 16, 9, 36.00000000000000000, #293 ) ;
#243 = CALENDAR_DATE ( 2015, 11, 8 ) ;
#244 = LOCAL_TIME ( 16, 9, 36.00000000000000000, #245 ) ;
#245 = COORDINATED_UNIVERSAL_TIME_OFFSET ( 1, 0, .AHEAD. ) ;
#246 = CC_DESIGN_PERSON_AND_ORGANIZATION_ASSIGNMENT ( #248, #247, ( #260 ) ) ;
#247 = PERSON_AND_ORGANIZATION_ROLE ( 'creator' ) ;
#248 = PERSON_AND_ORGANIZATION ( #304, #273 ) ;
#249 = CC_DESIGN_APPROVAL ( #257, ( #260 ) ) ;
#250 = APPROVAL_DATE_TIME ( #251, #257 ) ;
#251 = DATE_AND_TIME ( #252, #253 ) ;
#252 = CALENDAR_DATE ( 2015, 11, 8 ) ;
#253 = LOCAL_TIME ( 16, 9, 36.00000000000000000, #254 ) ;
#254 = COORDINATED_UNIVERSAL_TIME_OFFSET ( 1, 0, .AHEAD. ) ;
#255 = APPROVAL_PERSON_ORGANIZATION ( #259, #257, #256 ) ;
#256 = APPROVAL_ROLE ( '' ) ;
#257 = APPROVAL ( #258, 'UNSPECIFIED' ) ;
#258 = APPROVAL_STATUS ( 'not_yet_approved' ) ;
#259 = PERSON_AND_ORGANIZATION ( #304, #273 ) ;
#260 = PRODUCT_DEFINITION ( 'UNKNOWN', '', #288, #261 ) ;
#261 = DESIGN_CONTEXT ( 'detailed design', #263, 'design' ) ;
#262 = APPLICATION_PROTOCOL_DEFINITION ( 'international standard', 'config_control_design', 1994, #263 ) ;
#263 = APPLICATION_CONTEXT ( 'configuration controlled 3d designs of mechanical parts and assemblies' ) ;
#264 = CC_DESIGN_PERSON_AND_ORGANIZATION_ASSIGNMENT ( #272, #271, ( #305 ) ) ;
#265 = PRODUCT_DEFINITION_SHAPE ( 'NONE', 'NONE',  #260 ) ;
#266 = PRODUCT_RELATED_PRODUCT_CATEGORY ( 'detail', '', ( #305 ) ) ;
#267 = CC_DESIGN_SECURITY_CLASSIFICATION ( #297, ( #288 ) ) ;
#268 = CC_DESIGN_APPROVAL ( #236, ( #297 ) ) ;
#269 = MECHANICAL_CONTEXT ( 'NONE', #274, 'mechanical' ) ;
#270 = APPLICATION_PROTOCOL_DEFINITION ( 'international standard', 'config_control_design', 1994, #274 ) ;
#271 = PERSON_AND_ORGANIZATION_ROLE ( 'design_owner' ) ;
#272 = PERSON_AND_ORGANIZATION ( #304, #273 ) ;
#273 = ORGANIZATION ( 'UNSPECIFIED', 'UNSPECIFIED', '' ) ;
#274 = APPLICATION_CONTEXT ( 'configuration controlled 3d designs of mechanical parts and assemblies' ) ;
#275 = SHAPE_DEFINITION_REPRESENTATION ( #265, #211 ) ;
#276 = PERSON_AND_ORGANIZATION ( #304, #273 ) ;
#277 = CC_DESIGN_APPROVAL ( #285, ( #288 ) ) ;
#278 = APPROVAL_DATE_TIME ( #279, #285 ) ;
#279 = DATE_AND_TIME ( #280, #281 ) ;
#280 = CALENDAR_DATE ( 2015, 11, 8 ) ;
#281 = LOCAL_TIME ( 16, 9, 36.00000000000000000, #282 ) ;
#282 = COORDINATED_UNIVERSAL_TIME_OFFSET ( 1, 0, .AHEAD. ) ;
#283 = APPROVAL_PERSON_ORGANIZATION ( #287, #285, #284 ) ;
#284 = APPROVAL_ROLE ( '' ) ;
#285 = APPROVAL ( #286, 'UNSPECIFIED' ) ;
#286 = APPROVAL_STATUS ( 'not_yet_approved' ) ;
#287 = PERSON_AND_ORGANIZATION ( #304, #273 ) ;
#288 = PRODUCT_DEFINITION_FORMATION_WITH_SPECIFIED_SOURCE ( 'ANY', '', #305, .NOT_KNOWN. ) ;
#289 = CC_DESIGN_DATE_AND_TIME_ASSIGNMENT ( #291, #290, ( #260 ) ) ;
#290 = DATE_TIME_ROLE ( 'creation_date' ) ;
#291 = DATE_AND_TIME ( #243, #244 ) ;
#292 = DATE_AND_TIME ( #241, #242 ) ;
#293 = COORDINATED_UNIVERSAL_TIME_OFFSET ( 1, 0, .AHEAD. ) ;
#294 = CC_DESIGN_PERSON_AND_ORGANIZATION_ASSIGNMENT ( #296, #295, ( #297 ) ) ;
#295 = PERSON_AND_ORGANIZATION_ROLE ( 'classification_officer' ) ;
#296 = PERSON_AND_ORGANIZATION ( #304, #273 ) ;
#297 = SECURITY_CLASSIFICATION ( '', '', #298 ) ;
#298 = SECURITY_CLASSIFICATION_LEVEL ( 'unclassified' ) ;
#299 = CC_DESIGN_PERSON_AND_ORGANIZATION_ASSIGNMENT ( #301, #300, ( #288 ) ) ;
#300 = PERSON_AND_ORGANIZATION_ROLE ( 'design_supplier' ) ;
#301 = PERSON_AND_ORGANIZATION ( #304, #273 ) ;
#302 = CC_DESIGN_PERSON_AND_ORGANIZATION_ASSIGNMENT ( #276, #303, ( #288 ) ) ;
#303 = PERSON_AND_ORGANIZATION_ROLE ( 'creator' ) ;
#304 = PERSON ( 'UNSPECIFIED', 'UNSPECIFIED', 'UNSPECIFIED', ('UNSPECIFIED'), ('UNSPECIFIED'), ('UNSPECIFIED') ) ;
#305 = PRODUCT ( '11-0232-11_outokumpu', '11-0232-11_outokumpu', '', ( #269 ) ) ;
ENDSEC;
END-ISO-10303-21;
