ISO-10303-21;
HEADER;
FILE_DESCRIPTION (( 'STEP AP203' ),
    '1' );
FILE_NAME ('3D_R169-K_48-21_17325290.STEP',
    '2024-07-11T10:21:50',
    ( '' ),
    ( '' ),
    'SwSTEP 2.0',
    'SolidWorks 2024',
    '' );
FILE_SCHEMA (( 'CONFIG_CONTROL_DESIGN' ));
ENDSEC;

DATA;
#1 = ADVANCED_FACE ( 'NONE', ( #184, #245 ), #75, .F. ) ;
#2 = DIRECTION ( 'NONE',  ( -1.000000000000000000, -0.000000000000000000, -0.000000000000000000 ) ) ;
#3 = APPLICATION_CONTEXT ( 'configuration controlled 3d designs of mechanical parts and assemblies' ) ;
#4 =( NAMED_UNIT ( * ) PLANE_ANGLE_UNIT ( ) SI_UNIT ( $, .RADIAN. ) );
#5 = AXIS2_PLACEMENT_3D ( 'NONE', #42, #78, #163 ) ;
#6 = VECTOR ( 'NONE', #62, 1000.000000000000227 ) ;
#7 = APPROVAL_DATE_TIME ( #136, #218 ) ;
#8 = APPROVAL_ROLE ( '' ) ;
#9 = MANIFOLD_SOLID_BREP ( 'Wandung2', #221 ) ;
#10 = APPLICATION_PROTOCOL_DEFINITION ( 'international standard', 'config_control_design', 1994, #3 ) ;
#11 = SECURITY_CLASSIFICATION ( '', '', #106 ) ;
#12 = VERTEX_POINT ( 'NONE', #169 ) ;
#13 = COORDINATED_UNIVERSAL_TIME_OFFSET ( 1, 0, .AHEAD. ) ;
#14 = ORIENTED_EDGE ( 'NONE', *, *, #212, .T. ) ;
#15 = VERTEX_POINT ( 'NONE', #63 ) ;
#16 = APPLICATION_CONTEXT ( 'configuration controlled 3d designs of mechanical parts and assemblies' ) ;
#17 = CONICAL_SURFACE ( 'NONE', #158, 8.734347429557697495, 0.2914567944778670983 ) ;
#18 = DIRECTION ( 'NONE',  ( 0.000000000000000000, 0.000000000000000000, -1.000000000000000000 ) ) ;
#19 = ORIENTED_EDGE ( 'NONE', *, *, #27, .F. ) ;
#20 = DIRECTION ( 'NONE',  ( 0.000000000000000000, 0.000000000000000000, -1.000000000000000000 ) ) ;
#21 = ORIENTED_EDGE ( 'NONE', *, *, #114, .F. ) ;
#22 = DIRECTION ( 'NONE',  ( 0.000000000000000000, 0.000000000000000000, -1.000000000000000000 ) ) ;
#23 = PRODUCT_RELATED_PRODUCT_CATEGORY ( 'detail', '', ( #201 ) ) ;
#24 = LINE ( 'NONE', #153, #227 ) ;
#25 = PERSON_AND_ORGANIZATION ( #189, #193 ) ;
#26 = CC_DESIGN_PERSON_AND_ORGANIZATION_ASSIGNMENT ( #52, #124, ( #28 ) ) ;
#27 = EDGE_CURVE ( 'NONE', #178, #126, #64, .T. ) ;
#28 = PRODUCT_DEFINITION_FORMATION_WITH_SPECIFIED_SOURCE ( 'ANY', '', #201, .NOT_KNOWN. ) ;
#29 = COORDINATED_UNIVERSAL_TIME_OFFSET ( 1, 0, .AHEAD. ) ;
#30 = ORIENTED_EDGE ( 'NONE', *, *, #41, .F. ) ;
#31 = APPROVAL_DATE_TIME ( #174, #84 ) ;
#32 = ORIENTED_EDGE ( 'NONE', *, *, #105, .F. ) ;
#33 = APPROVAL_PERSON_ORGANIZATION ( #87, #84, #215 ) ;
#34 = ORIENTED_EDGE ( 'NONE', *, *, #57, .T. ) ;
#35 = ORIENTED_EDGE ( 'NONE', *, *, #212, .F. ) ;
#36 = DIRECTION ( 'NONE',  ( 0.000000000000000000, 0.000000000000000000, 1.000000000000000000 ) ) ;
#37 = CC_DESIGN_PERSON_AND_ORGANIZATION_ASSIGNMENT ( #237, #200, ( #28 ) ) ;
#38 = CARTESIAN_POINT ( 'NONE',  ( 45.00000000000000000, 1.875171671551303010E-15, -8.561938698217888444 ) ) ;
#39 = ADVANCED_BREP_SHAPE_REPRESENTATION ( '3D_R169-K_48-21_17325290', ( #9, #216 ), #248 ) ;
#40 = DIRECTION ( 'NONE',  ( -1.000000000000000000, -0.000000000000000000, -0.000000000000000000 ) ) ;
#41 = EDGE_CURVE ( 'NONE', #72, #127, #154, .T. ) ;
#42 = CARTESIAN_POINT ( 'NONE',  ( 0.000000000000000000, 0.000000000000000000, 0.000000000000000000 ) ) ;
#43 = DIRECTION ( 'NONE',  ( 0.000000000000000000, 0.000000000000000000, 1.000000000000000000 ) ) ;
#44 = CC_DESIGN_PERSON_AND_ORGANIZATION_ASSIGNMENT ( #192, #234, ( #146 ) ) ;
#45 = CARTESIAN_POINT ( 'NONE',  ( 45.00000000000000000, 0.000000000000000000, 0.000000000000000000 ) ) ;
#46 = VECTOR ( 'NONE', #183, 1000.000000000000227 ) ;
#47 = DATE_AND_TIME ( #213, #217 ) ;
#48 = CARTESIAN_POINT ( 'NONE',  ( 44.42530422886730435, 0.000000000000000000, 0.000000000000000000 ) ) ;
#49 = APPROVAL ( #172, 'UNSPECIFIED' ) ;
#50 = VECTOR ( 'NONE', #81, 1000.000000000000227 ) ;
#51 = EDGE_LOOP ( 'NONE', ( #35, #219, #74, #125 ) ) ;
#52 = PERSON_AND_ORGANIZATION ( #189, #193 ) ;
#53 = EDGE_LOOP ( 'NONE', ( #143, #97, #208, #19 ) ) ;
#54 = CONICAL_SURFACE ( 'NONE', #117, 8.734347429557697495, 0.2914567944778670983 ) ;
#55 = ORIENTED_EDGE ( 'NONE', *, *, #57, .F. ) ;
#56 = CARTESIAN_POINT ( 'NONE',  ( 0.000000000000000000, 0.000000000000000000, 0.000000000000000000 ) ) ;
#57 = EDGE_CURVE ( 'NONE', #126, #178, #102, .T. ) ;
#58 = CARTESIAN_POINT ( 'NONE',  ( 45.00000000000000000, 0.000000000000000000, 0.000000000000000000 ) ) ;
#59 = CC_DESIGN_SECURITY_CLASSIFICATION ( #11, ( #28 ) ) ;
#60 = DIRECTION ( 'NONE',  ( 1.000000000000000000, 0.000000000000000000, 0.000000000000000000 ) ) ;
#61 = ADVANCED_FACE ( 'NONE', ( #144, #118 ), #151, .T. ) ;
#62 = DIRECTION ( 'NONE',  ( -0.9578262852211513190, 0.000000000000000000, 0.2873478855663453846 ) ) ;
#63 = CARTESIAN_POINT ( 'NONE',  ( 45.00000000000000000, 6.521244205459656303E-16, 10.65000000000000036 ) ) ;
#64 = CIRCLE ( 'NONE', #203, 22.06193869821789022 ) ;
#65 = APPROVAL_ROLE ( '' ) ;
#66 = DIRECTION ( 'NONE',  ( 0.000000000000000000, 0.000000000000000000, 1.000000000000000000 ) ) ;
#67 = CALENDAR_DATE ( 2024, 11, 7 ) ;
#68 = EDGE_LOOP ( 'NONE', ( #88, #21 ) ) ;
#69 = EDGE_LOOP ( 'NONE', ( #34, #244 ) ) ;
#70 = CONICAL_SURFACE ( 'NONE', #164, 10.65000000000000036, 0.2914567944778670983 ) ;
#71 = VERTEX_POINT ( 'NONE', #129 ) ;
#72 = VERTEX_POINT ( 'NONE', #94 ) ;
#73 = ADVANCED_FACE ( 'NONE', ( #204 ), #187, .T. ) ;
#74 = ORIENTED_EDGE ( 'NONE', *, *, #114, .T. ) ;
#75 = PLANE ( 'NONE',  #173 ) ;
#76 = DIRECTION ( 'NONE',  ( 1.000000000000000000, 0.000000000000000000, 0.000000000000000000 ) ) ;
#77 = CARTESIAN_POINT ( 'NONE',  ( 44.42530422886730435, 0.000000000000000000, 8.734347429557697495 ) ) ;
#78 = DIRECTION ( 'NONE',  ( 1.000000000000000000, 0.000000000000000000, 0.000000000000000000 ) ) ;
#79 = CARTESIAN_POINT ( 'NONE',  ( 44.42530422886730435, 1.069649062224874413E-15, -8.734347429557697495 ) ) ;
#80 = APPROVAL_PERSON_ORGANIZATION ( #211, #49, #8 ) ;
#81 = DIRECTION ( 'NONE',  ( -0.9578262852211513190, 3.518996683005848151E-17, -0.2873478855663453846 ) ) ;
#82 = LOCAL_TIME ( 12, 21, 50.00000000000000000, #139 ) ;
#83 = CALENDAR_DATE ( 2024, 11, 7 ) ;
#84 = APPROVAL ( #141, 'UNSPECIFIED' ) ;
#85 = PERSON_AND_ORGANIZATION ( #189, #193 ) ;
#86 = CIRCLE ( 'NONE', #155, 10.65000000000000036 ) ;
#87 = PERSON_AND_ORGANIZATION ( #189, #193 ) ;
#88 = ORIENTED_EDGE ( 'NONE', *, *, #100, .F. ) ;
#89 = EDGE_CURVE ( 'NONE', #127, #72, #140, .T. ) ;
#90 = DATE_AND_TIME ( #108, #112 ) ;
#91 = DIRECTION ( 'NONE',  ( -1.000000000000000000, -0.000000000000000000, -0.000000000000000000 ) ) ;
#92 = LINE ( 'NONE', #228, #6 ) ;
#93 = DIRECTION ( 'NONE',  ( 1.000000000000000000, 0.000000000000000000, 0.000000000000000000 ) ) ;
#94 = CARTESIAN_POINT ( 'NONE',  ( 45.00000000000000000, 0.000000000000000000, 8.561938698217888444 ) ) ;
#95 = ADVANCED_FACE ( 'NONE', ( #113 ), #17, .F. ) ;
#96 = AXIS2_PLACEMENT_3D ( 'NONE', #134, #246, #166 ) ;
#97 = ORIENTED_EDGE ( 'NONE', *, *, #89, .T. ) ;
#98 = DIRECTION ( 'NONE',  ( 1.000000000000000000, 0.000000000000000000, 0.000000000000000000 ) ) ;
#99 = UNCERTAINTY_MEASURE_WITH_UNIT (LENGTH_MEASURE( 1.000000000000000082E-05 ), #195, 'distance_accuracy_value', 'NONE');
#100 = EDGE_CURVE ( 'NONE', #238, #12, #161, .T. ) ;
#101 = CARTESIAN_POINT ( 'NONE',  ( 0.000000000000000000, -1.478761009970428965E-15, 24.14999999999999858 ) ) ;
#102 = CIRCLE ( 'NONE', #5, 22.06193869821789022 ) ;
#103 = CALENDAR_DATE ( 2024, 11, 7 ) ;
#104 = PERSON_AND_ORGANIZATION_ROLE ( 'design_owner' ) ;
#105 = EDGE_CURVE ( 'NONE', #72, #126, #111, .T. ) ;
#106 = SECURITY_CLASSIFICATION_LEVEL ( 'unclassified' ) ;
#107 = EDGE_LOOP ( 'NONE', ( #30, #223 ) ) ;
#108 = CALENDAR_DATE ( 2024, 11, 7 ) ;
#109 = ORIENTED_EDGE ( 'NONE', *, *, #100, .T. ) ;
#110 = ORIENTED_EDGE ( 'NONE', *, *, #239, .T. ) ;
#111 = LINE ( 'NONE', #77, #46 ) ;
#112 = LOCAL_TIME ( 12, 21, 50.00000000000000000, #13 ) ;
#113 = FACE_OUTER_BOUND ( 'NONE', #128, .T. ) ;
#114 = EDGE_CURVE ( 'NONE', #12, #238, #196, .T. ) ;
#115 = ORIENTED_EDGE ( 'NONE', *, *, #41, .T. ) ;
#116 = DIRECTION ( 'NONE',  ( 0.000000000000000000, 0.000000000000000000, 1.000000000000000000 ) ) ;
#117 = AXIS2_PLACEMENT_3D ( 'NONE', #48, #2, #43 ) ;
#118 = FACE_OUTER_BOUND ( 'NONE', #145, .T. ) ;
#119 = CARTESIAN_POINT ( 'NONE',  ( 45.00000000000000000, 0.000000000000000000, 0.000000000000000000 ) ) ;
#120 = AXIS2_PLACEMENT_3D ( 'NONE', #56, #60, #226 ) ;
#121 = FACE_OUTER_BOUND ( 'NONE', #53, .T. ) ;
#122 = DIRECTION ( 'NONE',  ( 0.000000000000000000, 0.000000000000000000, -1.000000000000000000 ) ) ;
#123 =( NAMED_UNIT ( * ) SI_UNIT ( $, .STERADIAN. ) SOLID_ANGLE_UNIT ( ) );
#124 = PERSON_AND_ORGANIZATION_ROLE ( 'design_supplier' ) ;
#125 = ORIENTED_EDGE ( 'NONE', *, *, #135, .F. ) ;
#126 = VERTEX_POINT ( 'NONE', #206 ) ;
#127 = VERTEX_POINT ( 'NONE', #38 ) ;
#128 = EDGE_LOOP ( 'NONE', ( #115, #110, #55, #32 ) ) ;
#129 = CARTESIAN_POINT ( 'NONE',  ( 45.00000000000000000, 6.521244205459656303E-16, -10.65000000000000036 ) ) ;
#130 = AXIS2_PLACEMENT_3D ( 'NONE', #229, #165, #20 ) ;
#131 = CC_DESIGN_APPROVAL ( #84, ( #11 ) ) ;
#132 = DIRECTION ( 'NONE',  ( 0.000000000000000000, 0.000000000000000000, -1.000000000000000000 ) ) ;
#133 = FACE_OUTER_BOUND ( 'NONE', #51, .T. ) ;
#134 = CARTESIAN_POINT ( 'NONE',  ( 45.00000000000000000, 0.000000000000000000, 0.000000000000000000 ) ) ;
#135 = EDGE_CURVE ( 'NONE', #15, #238, #92, .T. ) ;
#136 = DATE_AND_TIME ( #103, #240 ) ;
#137 = DATE_TIME_ROLE ( 'creation_date' ) ;
#138 = COORDINATED_UNIVERSAL_TIME_OFFSET ( 1, 0, .AHEAD. ) ;
#139 = COORDINATED_UNIVERSAL_TIME_OFFSET ( 1, 0, .AHEAD. ) ;
#140 = CIRCLE ( 'NONE', #96, 8.561938698217888444 ) ;
#141 = APPROVAL_STATUS ( 'not_yet_approved' ) ;
#142 = ORIENTED_EDGE ( 'NONE', *, *, #135, .T. ) ;
#143 = ORIENTED_EDGE ( 'NONE', *, *, #239, .F. ) ;
#144 = FACE_BOUND ( 'NONE', #107, .T. ) ;
#145 = EDGE_LOOP ( 'NONE', ( #241, #14 ) ) ;
#146 = PRODUCT_DEFINITION ( 'UNKNOWN', '', #28, #170 ) ;
#147 = CARTESIAN_POINT ( 'NONE',  ( 0.000000000000000000, 0.000000000000000000, 0.000000000000000000 ) ) ;
#148 = LOCAL_TIME ( 12, 21, 50.00000000000000000, #29 ) ;
#149 = DIRECTION ( 'NONE',  ( 0.000000000000000000, 0.000000000000000000, -1.000000000000000000 ) ) ;
#150 = ADVANCED_FACE ( 'NONE', ( #133 ), #70, .T. ) ;
#151 = PLANE ( 'NONE',  #130 ) ;
#152 = CC_DESIGN_DATE_AND_TIME_ASSIGNMENT ( #233, #137, ( #146 ) ) ;
#153 = CARTESIAN_POINT ( 'NONE',  ( 45.00000000000000000, 1.304248841091931261E-15, -10.65000000000000036 ) ) ;
#154 = CIRCLE ( 'NONE', #181, 8.561938698217888444 ) ;
#155 = AXIS2_PLACEMENT_3D ( 'NONE', #45, #190, #22 ) ;
#156 = LINE ( 'NONE', #79, #50 ) ;
#157 = CARTESIAN_POINT ( 'NONE',  ( 0.000000000000000000, 0.000000000000000000, 0.000000000000000000 ) ) ;
#158 = AXIS2_PLACEMENT_3D ( 'NONE', #188, #91, #224 ) ;
#159 = COORDINATED_UNIVERSAL_TIME_OFFSET ( 1, 0, .AHEAD. ) ;
#160 = SHAPE_DEFINITION_REPRESENTATION ( #176, #39 ) ;
#161 = CIRCLE ( 'NONE', #120, 24.14999999999999858 ) ;
#162 = ORIENTED_EDGE ( 'NONE', *, *, #231, .F. ) ;
#163 = DIRECTION ( 'NONE',  ( 0.000000000000000000, 0.000000000000000000, -1.000000000000000000 ) ) ;
#164 = AXIS2_PLACEMENT_3D ( 'NONE', #207, #40, #116 ) ;
#165 = DIRECTION ( 'NONE',  ( 1.000000000000000000, 0.000000000000000000, 0.000000000000000000 ) ) ;
#166 = DIRECTION ( 'NONE',  ( 0.000000000000000000, 0.000000000000000000, -1.000000000000000000 ) ) ;
#167 = CARTESIAN_POINT ( 'NONE',  ( 45.00000000000000000, 0.000000000000000000, 0.000000000000000000 ) ) ;
#168 = AXIS2_PLACEMENT_3D ( 'NONE', #167, #185, #36 ) ;
#169 = CARTESIAN_POINT ( 'NONE',  ( 0.000000000000000000, 4.436283029911286895E-15, -24.14999999999999858 ) ) ;
#170 = DESIGN_CONTEXT ( 'detailed design', #16, 'design' ) ;
#171 = CIRCLE ( 'NONE', #235, 10.65000000000000036 ) ;
#172 = APPROVAL_STATUS ( 'not_yet_approved' ) ;
#173 = AXIS2_PLACEMENT_3D ( 'NONE', #249, #202, #225 ) ;
#174 = DATE_AND_TIME ( #67, #148 ) ;
#175 = ADVANCED_FACE ( 'NONE', ( #121 ), #54, .F. ) ;
#176 = PRODUCT_DEFINITION_SHAPE ( 'NONE', 'NONE',  #146 ) ;
#177 = PERSON_AND_ORGANIZATION_ROLE ( 'classification_officer' ) ;
#178 = VERTEX_POINT ( 'NONE', #236 ) ;
#179 = EDGE_CURVE ( 'NONE', #71, #12, #24, .T. ) ;
#180 = CARTESIAN_POINT ( 'NONE',  ( 0.000000000000000000, 0.000000000000000000, 0.000000000000000000 ) ) ;
#181 = AXIS2_PLACEMENT_3D ( 'NONE', #58, #93, #149 ) ;
#182 = APPROVAL_PERSON_ORGANIZATION ( #85, #218, #65 ) ;
#183 = DIRECTION ( 'NONE',  ( -0.9578262852211513190, 0.000000000000000000, 0.2873478855663453846 ) ) ;
#184 = FACE_BOUND ( 'NONE', #69, .T. ) ;
#185 = DIRECTION ( 'NONE',  ( -1.000000000000000000, -0.000000000000000000, -0.000000000000000000 ) ) ;
#186 = CC_DESIGN_PERSON_AND_ORGANIZATION_ASSIGNMENT ( #199, #177, ( #11 ) ) ;
#187 = CONICAL_SURFACE ( 'NONE', #168, 10.65000000000000036, 0.2914567944778670983 ) ;
#188 = CARTESIAN_POINT ( 'NONE',  ( 44.42530422886730435, 0.000000000000000000, 0.000000000000000000 ) ) ;
#189 = PERSON ( 'UNSPECIFIED', 'UNSPECIFIED', 'UNSPECIFIED', ('UNSPECIFIED'), ('UNSPECIFIED'), ('UNSPECIFIED') ) ;
#190 = DIRECTION ( 'NONE',  ( 1.000000000000000000, 0.000000000000000000, 0.000000000000000000 ) ) ;
#191 = CC_DESIGN_PERSON_AND_ORGANIZATION_ASSIGNMENT ( #25, #104, ( #201 ) ) ;
#192 = PERSON_AND_ORGANIZATION ( #189, #193 ) ;
#193 = ORGANIZATION ( 'UNSPECIFIED', 'UNSPECIFIED', '' ) ;
#194 = APPROVAL_STATUS ( 'not_yet_approved' ) ;
#195 =( LENGTH_UNIT ( ) NAMED_UNIT ( * ) SI_UNIT ( .MILLI., .METRE. ) );
#196 = CIRCLE ( 'NONE', #205, 24.14999999999999858 ) ;
#197 = DATE_TIME_ROLE ( 'classification_date' ) ;
#198 = ORIENTED_EDGE ( 'NONE', *, *, #179, .F. ) ;
#199 = PERSON_AND_ORGANIZATION ( #189, #193 ) ;
#200 = PERSON_AND_ORGANIZATION_ROLE ( 'creator' ) ;
#201 = PRODUCT ( '3D_R169-K_48-21_17325290', '3D_R169-K_48-21_17325290', '', ( #210 ) ) ;
#202 = DIRECTION ( 'NONE',  ( 1.000000000000000000, 0.000000000000000000, 0.000000000000000000 ) ) ;
#203 = AXIS2_PLACEMENT_3D ( 'NONE', #147, #247, #18 ) ;
#204 = FACE_OUTER_BOUND ( 'NONE', #220, .T. ) ;
#205 = AXIS2_PLACEMENT_3D ( 'NONE', #180, #76, #132 ) ;
#206 = CARTESIAN_POINT ( 'NONE',  ( 0.000000000000000000, 0.000000000000000000, 22.06193869821789022 ) ) ;
#207 = CARTESIAN_POINT ( 'NONE',  ( 45.00000000000000000, 0.000000000000000000, 0.000000000000000000 ) ) ;
#208 = ORIENTED_EDGE ( 'NONE', *, *, #105, .T. ) ;
#209 = DIRECTION ( 'NONE',  ( 1.000000000000000000, 0.000000000000000000, 0.000000000000000000 ) ) ;
#210 = MECHANICAL_CONTEXT ( 'NONE', #3, 'mechanical' ) ;
#211 = PERSON_AND_ORGANIZATION ( #189, #193 ) ;
#212 = EDGE_CURVE ( 'NONE', #71, #15, #86, .T. ) ;
#213 = CALENDAR_DATE ( 2024, 11, 7 ) ;
#214 = APPROVAL_DATE_TIME ( #47, #49 ) ;
#215 = APPROVAL_ROLE ( '' ) ;
#216 = AXIS2_PLACEMENT_3D ( 'NONE', #157, #66, #209 ) ;
#217 = LOCAL_TIME ( 12, 21, 50.00000000000000000, #138 ) ;
#218 = APPROVAL ( #194, 'UNSPECIFIED' ) ;
#219 = ORIENTED_EDGE ( 'NONE', *, *, #179, .T. ) ;
#220 = EDGE_LOOP ( 'NONE', ( #198, #162, #142, #109 ) ) ;
#221 = CLOSED_SHELL ( 'NONE', ( #95, #150, #61, #1, #73, #175 ) ) ;
#222 = CC_DESIGN_APPROVAL ( #218, ( #146 ) ) ;
#223 = ORIENTED_EDGE ( 'NONE', *, *, #89, .F. ) ;
#224 = DIRECTION ( 'NONE',  ( 0.000000000000000000, 0.000000000000000000, 1.000000000000000000 ) ) ;
#225 = DIRECTION ( 'NONE',  ( 0.000000000000000000, 0.000000000000000000, -1.000000000000000000 ) ) ;
#226 = DIRECTION ( 'NONE',  ( 0.000000000000000000, 0.000000000000000000, -1.000000000000000000 ) ) ;
#227 = VECTOR ( 'NONE', #230, 1000.000000000000227 ) ;
#228 = CARTESIAN_POINT ( 'NONE',  ( 45.00000000000000000, 0.000000000000000000, 10.65000000000000036 ) ) ;
#229 = CARTESIAN_POINT ( 'NONE',  ( 45.00000000000000000, 0.000000000000000000, 0.000000000000000000 ) ) ;
#230 = DIRECTION ( 'NONE',  ( -0.9578262852211513190, 3.518996683005848151E-17, -0.2873478855663453846 ) ) ;
#231 = EDGE_CURVE ( 'NONE', #15, #71, #171, .T. ) ;
#232 = APPLICATION_PROTOCOL_DEFINITION ( 'international standard', 'config_control_design', 1994, #16 ) ;
#233 = DATE_AND_TIME ( #83, #82 ) ;
#234 = PERSON_AND_ORGANIZATION_ROLE ( 'creator' ) ;
#235 = AXIS2_PLACEMENT_3D ( 'NONE', #119, #98, #122 ) ;
#236 = CARTESIAN_POINT ( 'NONE',  ( 0.000000000000000000, 2.701808260975766049E-15, -22.06193869821789022 ) ) ;
#237 = PERSON_AND_ORGANIZATION ( #189, #193 ) ;
#238 = VERTEX_POINT ( 'NONE', #101 ) ;
#239 = EDGE_CURVE ( 'NONE', #127, #178, #156, .T. ) ;
#240 = LOCAL_TIME ( 12, 21, 50.00000000000000000, #159 ) ;
#241 = ORIENTED_EDGE ( 'NONE', *, *, #231, .T. ) ;
#242 = CC_DESIGN_DATE_AND_TIME_ASSIGNMENT ( #90, #197, ( #11 ) ) ;
#243 = CC_DESIGN_APPROVAL ( #49, ( #28 ) ) ;
#244 = ORIENTED_EDGE ( 'NONE', *, *, #27, .T. ) ;
#245 = FACE_OUTER_BOUND ( 'NONE', #68, .T. ) ;
#246 = DIRECTION ( 'NONE',  ( 1.000000000000000000, 0.000000000000000000, 0.000000000000000000 ) ) ;
#247 = DIRECTION ( 'NONE',  ( 1.000000000000000000, 0.000000000000000000, 0.000000000000000000 ) ) ;
#248 =( GEOMETRIC_REPRESENTATION_CONTEXT ( 3 ) GLOBAL_UNCERTAINTY_ASSIGNED_CONTEXT ( ( #99 ) ) GLOBAL_UNIT_ASSIGNED_CONTEXT ( ( #195, #4, #123 ) ) REPRESENTATION_CONTEXT ( 'NONE', 'WORKASPACE' ) );
#249 = CARTESIAN_POINT ( 'NONE',  ( 0.000000000000000000, 0.000000000000000000, 0.000000000000000000 ) ) ;
ENDSEC;
END-ISO-10303-21;
