ISO-10303-21;
HEADER;
FILE_DESCRIPTION (( 'STEP AP203' ),
    '1' );
FILE_NAME ('3D_R243_168.3_17386590.STEP',
    '2024-08-06T10:07:08',
    ( '' ),
    ( '' ),
    'SwSTEP 2.0',
    'SolidWorks 2024',
    '' );
FILE_SCHEMA (( 'CONFIG_CONTROL_DESIGN' ));
ENDSEC;

DATA;
#1 = APPLICATION_CONTEXT ( 'configuration controlled 3d designs of mechanical parts and assemblies' ) ;
#2 = APPROVAL_DATE_TIME ( #182, #92 ) ;
#3 = CALENDAR_DATE ( 2024, 6, 8 ) ;
#4 = ORIENTED_EDGE ( 'NONE', *, *, #9, .F. ) ;
#5 = CIRCLE ( 'NONE', #213, 114.7500000000000000 ) ;
#6 = EDGE_LOOP ( 'NONE', ( #156, #80, #165, #111 ) ) ;
#7 = VERTEX_POINT ( 'NONE', #45 ) ;
#8 = COORDINATED_UNIVERSAL_TIME_OFFSET ( 1, 0, .AHEAD. ) ;
#9 = EDGE_CURVE ( 'NONE', #22, #76, #173, .T. ) ;
#10 = AXIS2_PLACEMENT_3D ( 'NONE', #16, #137, #221 ) ;
#11 = DIRECTION ( 'NONE',  ( 0.000000000000000000, 0.000000000000000000, -1.000000000000000000 ) ) ;
#12 = CARTESIAN_POINT ( 'NONE',  ( 0.000000000000000000, 0.000000000000000000, 0.000000000000000000 ) ) ;
#13 = APPROVAL_ROLE ( '' ) ;
#14 = CYLINDRICAL_SURFACE ( 'NONE', #50, 84.75000000000001421 ) ;
#15 = AXIS2_PLACEMENT_3D ( 'NONE', #97, #157, #181 ) ;
#16 = CARTESIAN_POINT ( 'NONE',  ( 0.000000000000000000, 4.000000000000000000, 0.000000000000000000 ) ) ;
#17 = CALENDAR_DATE ( 2024, 6, 8 ) ;
#18 = CARTESIAN_POINT ( 'NONE',  ( 0.000000000000000000, 4.000000000000000000, 0.000000000000000000 ) ) ;
#19 = PERSON_AND_ORGANIZATION_ROLE ( 'creator' ) ;
#20 = APPLICATION_PROTOCOL_DEFINITION ( 'international standard', 'config_control_design', 1994, #183 ) ;
#21 = CIRCLE ( 'NONE', #170, 84.75000000000001421 ) ;
#22 = VERTEX_POINT ( 'NONE', #175 ) ;
#23 = DIRECTION ( 'NONE',  ( 0.000000000000000000, 1.000000000000000000, 0.000000000000000000 ) ) ;
#24 = EDGE_LOOP ( 'NONE', ( #94, #79 ) ) ;
#25 = DIRECTION ( 'NONE',  ( 0.000000000000000000, -0.000000000000000000, 1.000000000000000000 ) ) ;
#26 = AXIS2_PLACEMENT_3D ( 'NONE', #53, #34, #117 ) ;
#27 = ORIENTED_EDGE ( 'NONE', *, *, #218, .T. ) ;
#28 = EDGE_CURVE ( 'NONE', #132, #126, #167, .T. ) ;
#29 = CC_DESIGN_PERSON_AND_ORGANIZATION_ASSIGNMENT ( #204, #38, ( #238 ) ) ;
#30 = CARTESIAN_POINT ( 'NONE',  ( 1.037888162277381958E-14, 4.000000000000000000, 84.75000000000001421 ) ) ;
#31 = PLANE ( 'NONE',  #185 ) ;
#32 = CC_DESIGN_APPROVAL ( #205, ( #133 ) ) ;
#33 = DIRECTION ( 'NONE',  ( 0.000000000000000000, 0.000000000000000000, 1.000000000000000000 ) ) ;
#34 = DIRECTION ( 'NONE',  ( 0.000000000000000000, 1.000000000000000000, 0.000000000000000000 ) ) ;
#35 = CLOSED_SHELL ( 'NONE', ( #192, #155, #47, #217, #125, #123 ) ) ;
#36 = FACE_OUTER_BOUND ( 'NONE', #39, .T. ) ;
#37 = CALENDAR_DATE ( 2024, 6, 8 ) ;
#38 = PERSON_AND_ORGANIZATION_ROLE ( 'design_supplier' ) ;
#39 = EDGE_LOOP ( 'NONE', ( #95, #62 ) ) ;
#40 = APPROVAL_STATUS ( 'not_yet_approved' ) ;
#41 = AXIS2_PLACEMENT_3D ( 'NONE', #44, #59, #227 ) ;
#42 = CARTESIAN_POINT ( 'NONE',  ( 0.000000000000000000, 0.000000000000000000, 0.000000000000000000 ) ) ;
#43 = CC_DESIGN_PERSON_AND_ORGANIZATION_ASSIGNMENT ( #60, #211, ( #121 ) ) ;
#44 = CARTESIAN_POINT ( 'NONE',  ( 0.000000000000000000, 0.000000000000000000, 0.000000000000000000 ) ) ;
#45 = CARTESIAN_POINT ( 'NONE',  ( 1.405282202021587718E-14, 0.000000000000000000, 114.7500000000000000 ) ) ;
#46 = ORIENTED_EDGE ( 'NONE', *, *, #28, .F. ) ;
#47 = ADVANCED_FACE ( 'NONE', ( #36, #99 ), #86, .T. ) ;
#48 = ORIENTED_EDGE ( 'NONE', *, *, #229, .F. ) ;
#49 = DIRECTION ( 'NONE',  ( 0.000000000000000000, 0.000000000000000000, 1.000000000000000000 ) ) ;
#50 = AXIS2_PLACEMENT_3D ( 'NONE', #196, #240, #162 ) ;
#51 = FACE_OUTER_BOUND ( 'NONE', #172, .T. ) ;
#52 = APPROVAL_DATE_TIME ( #243, #205 ) ;
#53 = CARTESIAN_POINT ( 'NONE',  ( 0.000000000000000000, 4.000000000000000000, 0.000000000000000000 ) ) ;
#54 = CYLINDRICAL_SURFACE ( 'NONE', #246, 114.7500000000000000 ) ;
#55 = CIRCLE ( 'NONE', #190, 84.75000000000001421 ) ;
#56 = CARTESIAN_POINT ( 'NONE',  ( 0.000000000000000000, 4.000000000000000000, -84.75000000000001421 ) ) ;
#57 = PERSON_AND_ORGANIZATION ( #200, #154 ) ;
#58 = EDGE_LOOP ( 'NONE', ( #48, #233 ) ) ;
#59 = DIRECTION ( 'NONE',  ( 0.000000000000000000, 0.000000000000000000, 1.000000000000000000 ) ) ;
#60 = PERSON_AND_ORGANIZATION ( #200, #154 ) ;
#61 = EDGE_CURVE ( 'NONE', #171, #212, #72, .T. ) ;
#62 = ORIENTED_EDGE ( 'NONE', *, *, #146, .T. ) ;
#63 =( GEOMETRIC_REPRESENTATION_CONTEXT ( 3 ) GLOBAL_UNCERTAINTY_ASSIGNED_CONTEXT ( ( #113 ) ) GLOBAL_UNIT_ASSIGNED_CONTEXT ( ( #209, #147, #130 ) ) REPRESENTATION_CONTEXT ( 'NONE', 'WORKASPACE' ) );
#64 = CC_DESIGN_SECURITY_CLASSIFICATION ( #133, ( #238 ) ) ;
#65 = DIRECTION ( 'NONE',  ( 0.000000000000000000, 0.000000000000000000, -1.000000000000000000 ) ) ;
#66 = FACE_BOUND ( 'NONE', #152, .T. ) ;
#67 = AXIS2_PLACEMENT_3D ( 'NONE', #18, #179, #65 ) ;
#68 = LINE ( 'NONE', #159, #149 ) ;
#69 = CC_DESIGN_PERSON_AND_ORGANIZATION_ASSIGNMENT ( #57, #19, ( #238 ) ) ;
#70 = DIRECTION ( 'NONE',  ( 0.000000000000000000, 0.000000000000000000, 1.000000000000000000 ) ) ;
#71 = CARTESIAN_POINT ( 'NONE',  ( 1.405282202021587718E-14, 4.000000000000000000, 114.7500000000000000 ) ) ;
#72 = CIRCLE ( 'NONE', #194, 84.75000000000001421 ) ;
#73 = LOCAL_TIME ( 12, 7, 8.000000000000000000, #75 ) ;
#74 = LOCAL_TIME ( 12, 7, 8.000000000000000000, #8 ) ;
#75 = COORDINATED_UNIVERSAL_TIME_OFFSET ( 1, 0, .AHEAD. ) ;
#76 = VERTEX_POINT ( 'NONE', #85 ) ;
#77 = CC_DESIGN_PERSON_AND_ORGANIZATION_ASSIGNMENT ( #108, #186, ( #133 ) ) ;
#78 = PERSON_AND_ORGANIZATION_ROLE ( 'creator' ) ;
#79 = ORIENTED_EDGE ( 'NONE', *, *, #235, .F. ) ;
#80 = ORIENTED_EDGE ( 'NONE', *, *, #210, .T. ) ;
#81 = VECTOR ( 'NONE', #245, 1000.000000000000000 ) ;
#82 = ORIENTED_EDGE ( 'NONE', *, *, #9, .T. ) ;
#83 = DIRECTION ( 'NONE',  ( 0.000000000000000000, 1.000000000000000000, 0.000000000000000000 ) ) ;
#84 = CC_DESIGN_APPROVAL ( #92, ( #238 ) ) ;
#85 = CARTESIAN_POINT ( 'NONE',  ( 1.037888162277381958E-14, 0.000000000000000000, 84.75000000000001421 ) ) ;
#86 = PLANE ( 'NONE',  #10 ) ;
#87 = FACE_OUTER_BOUND ( 'NONE', #237, .T. ) ;
#88 = CARTESIAN_POINT ( 'NONE',  ( 0.000000000000000000, 0.000000000000000000, 0.000000000000000000 ) ) ;
#89 = LINE ( 'NONE', #90, #81 ) ;
#90 = CARTESIAN_POINT ( 'NONE',  ( 0.000000000000000000, 4.000000000000000000, -84.75000000000001421 ) ) ;
#91 = DIRECTION ( 'NONE',  ( 0.000000000000000000, 1.000000000000000000, 0.000000000000000000 ) ) ;
#92 = APPROVAL ( #40, 'UNSPECIFIED' ) ;
#93 = APPLICATION_PROTOCOL_DEFINITION ( 'international standard', 'config_control_design', 1994, #1 ) ;
#94 = ORIENTED_EDGE ( 'NONE', *, *, #61, .F. ) ;
#95 = ORIENTED_EDGE ( 'NONE', *, *, #28, .T. ) ;
#96 = ORIENTED_EDGE ( 'NONE', *, *, #61, .T. ) ;
#97 = CARTESIAN_POINT ( 'NONE',  ( 0.000000000000000000, 4.000000000000000000, 0.000000000000000000 ) ) ;
#98 = VECTOR ( 'NONE', #219, 1000.000000000000000 ) ;
#99 = FACE_BOUND ( 'NONE', #24, .T. ) ;
#100 = LOCAL_TIME ( 12, 7, 8.000000000000000000, #114 ) ;
#101 = DIRECTION ( 'NONE',  ( 0.000000000000000000, 1.000000000000000000, 0.000000000000000000 ) ) ;
#102 = DATE_TIME_ROLE ( 'classification_date' ) ;
#103 = DIRECTION ( 'NONE',  ( -0.000000000000000000, -1.000000000000000000, -0.000000000000000000 ) ) ;
#104 = CYLINDRICAL_SURFACE ( 'NONE', #153, 114.7500000000000000 ) ;
#105 = PERSON_AND_ORGANIZATION ( #200, #154 ) ;
#106 = EDGE_CURVE ( 'NONE', #132, #191, #68, .T. ) ;
#107 = SECURITY_CLASSIFICATION_LEVEL ( 'unclassified' ) ;
#108 = PERSON_AND_ORGANIZATION ( #200, #154 ) ;
#109 = APPROVAL ( #129, 'UNSPECIFIED' ) ;
#110 = DIRECTION ( 'NONE',  ( 0.000000000000000000, 1.000000000000000000, 0.000000000000000000 ) ) ;
#111 = ORIENTED_EDGE ( 'NONE', *, *, #106, .F. ) ;
#112 = PRODUCT_DEFINITION ( 'UNKNOWN', '', #238, #178 ) ;
#113 = UNCERTAINTY_MEASURE_WITH_UNIT (LENGTH_MEASURE( 1.000000000000000082E-05 ), #209, 'distance_accuracy_value', 'NONE');
#114 = COORDINATED_UNIVERSAL_TIME_OFFSET ( 1, 0, .AHEAD. ) ;
#115 = CARTESIAN_POINT ( 'NONE',  ( 0.000000000000000000, 0.000000000000000000, -114.7500000000000000 ) ) ;
#116 = APPROVAL_PERSON_ORGANIZATION ( #230, #109, #168 ) ;
#117 = DIRECTION ( 'NONE',  ( 0.000000000000000000, 0.000000000000000000, 1.000000000000000000 ) ) ;
#118 = PERSON_AND_ORGANIZATION ( #200, #154 ) ;
#119 = CARTESIAN_POINT ( 'NONE',  ( 0.000000000000000000, 4.000000000000000000, 0.000000000000000000 ) ) ;
#120 = APPROVAL_STATUS ( 'not_yet_approved' ) ;
#121 = PRODUCT ( '3D_R243_168.3_17386590', '3D_R243_168.3_17386590', '', ( #148 ) ) ;
#122 = DIRECTION ( 'NONE',  ( 0.000000000000000000, 0.000000000000000000, 1.000000000000000000 ) ) ;
#123 = ADVANCED_FACE ( 'NONE', ( #51 ), #142, .F. ) ;
#124 = APPROVAL_ROLE ( '' ) ;
#125 = ADVANCED_FACE ( 'NONE', ( #193 ), #104, .T. ) ;
#126 = VERTEX_POINT ( 'NONE', #164 ) ;
#127 = DATE_AND_TIME ( #151, #73 ) ;
#128 = ORIENTED_EDGE ( 'NONE', *, *, #218, .F. ) ;
#129 = APPROVAL_STATUS ( 'not_yet_approved' ) ;
#130 =( NAMED_UNIT ( * ) SI_UNIT ( $, .STERADIAN. ) SOLID_ANGLE_UNIT ( ) );
#131 = ADVANCED_BREP_SHAPE_REPRESENTATION ( '3D_R243_168.3_17386590', ( #248, #41 ), #63 ) ;
#132 = VERTEX_POINT ( 'NONE', #136 ) ;
#133 = SECURITY_CLASSIFICATION ( '', '', #107 ) ;
#134 = EDGE_LOOP ( 'NONE', ( #207, #46, #228, #234 ) ) ;
#135 = ORIENTED_EDGE ( 'NONE', *, *, #160, .T. ) ;
#136 = CARTESIAN_POINT ( 'NONE',  ( 0.000000000000000000, 4.000000000000000000, -114.7500000000000000 ) ) ;
#137 = DIRECTION ( 'NONE',  ( 0.000000000000000000, 1.000000000000000000, 0.000000000000000000 ) ) ;
#138 = SHAPE_DEFINITION_REPRESENTATION ( #141, #131 ) ;
#139 = CIRCLE ( 'NONE', #247, 114.7500000000000000 ) ;
#140 = CC_DESIGN_DATE_AND_TIME_ASSIGNMENT ( #127, #232, ( #112 ) ) ;
#141 = PRODUCT_DEFINITION_SHAPE ( 'NONE', 'NONE',  #112 ) ;
#142 = CYLINDRICAL_SURFACE ( 'NONE', #67, 84.75000000000001421 ) ;
#143 = DATE_AND_TIME ( #17, #74 ) ;
#144 = CARTESIAN_POINT ( 'NONE',  ( 0.000000000000000000, 4.000000000000000000, 0.000000000000000000 ) ) ;
#145 = FACE_OUTER_BOUND ( 'NONE', #58, .T. ) ;
#146 = EDGE_CURVE ( 'NONE', #126, #132, #208, .T. ) ;
#147 =( NAMED_UNIT ( * ) PLANE_ANGLE_UNIT ( ) SI_UNIT ( $, .RADIAN. ) );
#148 = MECHANICAL_CONTEXT ( 'NONE', #183, 'mechanical' ) ;
#149 = VECTOR ( 'NONE', #239, 1000.000000000000000 ) ;
#150 = DIRECTION ( 'NONE',  ( 0.000000000000000000, 0.000000000000000000, 1.000000000000000000 ) ) ;
#151 = CALENDAR_DATE ( 2024, 6, 8 ) ;
#152 = EDGE_LOOP ( 'NONE', ( #82, #135 ) ) ;
#153 = AXIS2_PLACEMENT_3D ( 'NONE', #144, #103, #222 ) ;
#154 = ORGANIZATION ( 'UNSPECIFIED', 'UNSPECIFIED', '' ) ;
#155 = ADVANCED_FACE ( 'NONE', ( #177 ), #54, .T. ) ;
#156 = ORIENTED_EDGE ( 'NONE', *, *, #146, .F. ) ;
#157 = DIRECTION ( 'NONE',  ( 0.000000000000000000, 1.000000000000000000, 0.000000000000000000 ) ) ;
#158 = LOCAL_TIME ( 12, 7, 8.000000000000000000, #201 ) ;
#159 = CARTESIAN_POINT ( 'NONE',  ( 0.000000000000000000, 4.000000000000000000, -114.7500000000000000 ) ) ;
#160 = EDGE_CURVE ( 'NONE', #76, #22, #55, .T. ) ;
#161 = CARTESIAN_POINT ( 'NONE',  ( 0.000000000000000000, 4.000000000000000000, 0.000000000000000000 ) ) ;
#162 = DIRECTION ( 'NONE',  ( 0.000000000000000000, 0.000000000000000000, -1.000000000000000000 ) ) ;
#163 = CC_DESIGN_DATE_AND_TIME_ASSIGNMENT ( #143, #102, ( #133 ) ) ;
#164 = CARTESIAN_POINT ( 'NONE',  ( 1.405282202021587718E-14, 4.000000000000000000, 114.7500000000000000 ) ) ;
#165 = ORIENTED_EDGE ( 'NONE', *, *, #203, .T. ) ;
#166 = COORDINATED_UNIVERSAL_TIME_OFFSET ( 1, 0, .AHEAD. ) ;
#167 = CIRCLE ( 'NONE', #15, 114.7500000000000000 ) ;
#168 = APPROVAL_ROLE ( '' ) ;
#169 = EDGE_CURVE ( 'NONE', #212, #76, #197, .T. ) ;
#170 = AXIS2_PLACEMENT_3D ( 'NONE', #189, #91, #150 ) ;
#171 = VERTEX_POINT ( 'NONE', #56 ) ;
#172 = EDGE_LOOP ( 'NONE', ( #236, #187, #27, #216 ) ) ;
#173 = CIRCLE ( 'NONE', #226, 84.75000000000001421 ) ;
#174 = VECTOR ( 'NONE', #223, 1000.000000000000000 ) ;
#175 = CARTESIAN_POINT ( 'NONE',  ( 0.000000000000000000, 0.000000000000000000, -84.75000000000001421 ) ) ;
#176 = CALENDAR_DATE ( 2024, 6, 8 ) ;
#177 = FACE_OUTER_BOUND ( 'NONE', #6, .T. ) ;
#178 = DESIGN_CONTEXT ( 'detailed design', #1, 'design' ) ;
#179 = DIRECTION ( 'NONE',  ( -0.000000000000000000, -1.000000000000000000, -0.000000000000000000 ) ) ;
#180 = CARTESIAN_POINT ( 'NONE',  ( 0.000000000000000000, 0.000000000000000000, 0.000000000000000000 ) ) ;
#181 = DIRECTION ( 'NONE',  ( 0.000000000000000000, 0.000000000000000000, 1.000000000000000000 ) ) ;
#182 = DATE_AND_TIME ( #37, #158 ) ;
#183 = APPLICATION_CONTEXT ( 'configuration controlled 3d designs of mechanical parts and assemblies' ) ;
#184 = APPROVAL_DATE_TIME ( #249, #109 ) ;
#185 = AXIS2_PLACEMENT_3D ( 'NONE', #12, #110, #25 ) ;
#186 = PERSON_AND_ORGANIZATION_ROLE ( 'classification_officer' ) ;
#187 = ORIENTED_EDGE ( 'NONE', *, *, #235, .T. ) ;
#188 = DIRECTION ( 'NONE',  ( 0.000000000000000000, 0.000000000000000000, 1.000000000000000000 ) ) ;
#189 = CARTESIAN_POINT ( 'NONE',  ( 0.000000000000000000, 4.000000000000000000, 0.000000000000000000 ) ) ;
#190 = AXIS2_PLACEMENT_3D ( 'NONE', #198, #83, #122 ) ;
#191 = VERTEX_POINT ( 'NONE', #115 ) ;
#192 = ADVANCED_FACE ( 'NONE', ( #87 ), #14, .F. ) ;
#193 = FACE_OUTER_BOUND ( 'NONE', #134, .T. ) ;
#194 = AXIS2_PLACEMENT_3D ( 'NONE', #161, #241, #49 ) ;
#195 = LOCAL_TIME ( 12, 7, 8.000000000000000000, #166 ) ;
#196 = CARTESIAN_POINT ( 'NONE',  ( 0.000000000000000000, 4.000000000000000000, 0.000000000000000000 ) ) ;
#197 = LINE ( 'NONE', #30, #98 ) ;
#198 = CARTESIAN_POINT ( 'NONE',  ( 0.000000000000000000, 0.000000000000000000, 0.000000000000000000 ) ) ;
#199 = CARTESIAN_POINT ( 'NONE',  ( 1.037888162277381958E-14, 4.000000000000000000, 84.75000000000001421 ) ) ;
#200 = PERSON ( 'UNSPECIFIED', 'UNSPECIFIED', 'UNSPECIFIED', ('UNSPECIFIED'), ('UNSPECIFIED'), ('UNSPECIFIED') ) ;
#201 = COORDINATED_UNIVERSAL_TIME_OFFSET ( 1, 0, .AHEAD. ) ;
#202 = APPROVAL_PERSON_ORGANIZATION ( #206, #92, #124 ) ;
#203 = EDGE_CURVE ( 'NONE', #7, #191, #5, .T. ) ;
#204 = PERSON_AND_ORGANIZATION ( #200, #154 ) ;
#205 = APPROVAL ( #120, 'UNSPECIFIED' ) ;
#206 = PERSON_AND_ORGANIZATION ( #200, #154 ) ;
#207 = ORIENTED_EDGE ( 'NONE', *, *, #210, .F. ) ;
#208 = CIRCLE ( 'NONE', #26, 114.7500000000000000 ) ;
#209 =( LENGTH_UNIT ( ) NAMED_UNIT ( * ) SI_UNIT ( .MILLI., .METRE. ) );
#210 = EDGE_CURVE ( 'NONE', #126, #7, #244, .T. ) ;
#211 = PERSON_AND_ORGANIZATION_ROLE ( 'design_owner' ) ;
#212 = VERTEX_POINT ( 'NONE', #199 ) ;
#213 = AXIS2_PLACEMENT_3D ( 'NONE', #88, #242, #70 ) ;
#214 = ORIENTED_EDGE ( 'NONE', *, *, #169, .T. ) ;
#215 = APPROVAL_PERSON_ORGANIZATION ( #118, #205, #13 ) ;
#216 = ORIENTED_EDGE ( 'NONE', *, *, #160, .F. ) ;
#217 = ADVANCED_FACE ( 'NONE', ( #145, #66 ), #31, .F. ) ;
#218 = EDGE_CURVE ( 'NONE', #171, #22, #89, .T. ) ;
#219 = DIRECTION ( 'NONE',  ( -0.000000000000000000, -1.000000000000000000, -0.000000000000000000 ) ) ;
#220 = CC_DESIGN_APPROVAL ( #109, ( #112 ) ) ;
#221 = DIRECTION ( 'NONE',  ( 0.000000000000000000, -0.000000000000000000, 1.000000000000000000 ) ) ;
#222 = DIRECTION ( 'NONE',  ( 0.000000000000000000, 0.000000000000000000, -1.000000000000000000 ) ) ;
#223 = DIRECTION ( 'NONE',  ( -0.000000000000000000, -1.000000000000000000, -0.000000000000000000 ) ) ;
#224 = CC_DESIGN_PERSON_AND_ORGANIZATION_ASSIGNMENT ( #105, #78, ( #112 ) ) ;
#225 = DIRECTION ( 'NONE',  ( -0.000000000000000000, -1.000000000000000000, -0.000000000000000000 ) ) ;
#226 = AXIS2_PLACEMENT_3D ( 'NONE', #180, #101, #33 ) ;
#227 = DIRECTION ( 'NONE',  ( 1.000000000000000000, 0.000000000000000000, 0.000000000000000000 ) ) ;
#228 = ORIENTED_EDGE ( 'NONE', *, *, #106, .T. ) ;
#229 = EDGE_CURVE ( 'NONE', #191, #7, #139, .T. ) ;
#230 = PERSON_AND_ORGANIZATION ( #200, #154 ) ;
#231 = PRODUCT_RELATED_PRODUCT_CATEGORY ( 'detail', '', ( #121 ) ) ;
#232 = DATE_TIME_ROLE ( 'creation_date' ) ;
#233 = ORIENTED_EDGE ( 'NONE', *, *, #203, .F. ) ;
#234 = ORIENTED_EDGE ( 'NONE', *, *, #229, .T. ) ;
#235 = EDGE_CURVE ( 'NONE', #212, #171, #21, .T. ) ;
#236 = ORIENTED_EDGE ( 'NONE', *, *, #169, .F. ) ;
#237 = EDGE_LOOP ( 'NONE', ( #96, #214, #4, #128 ) ) ;
#238 = PRODUCT_DEFINITION_FORMATION_WITH_SPECIFIED_SOURCE ( 'ANY', '', #121, .NOT_KNOWN. ) ;
#239 = DIRECTION ( 'NONE',  ( -0.000000000000000000, -1.000000000000000000, -0.000000000000000000 ) ) ;
#240 = DIRECTION ( 'NONE',  ( -0.000000000000000000, -1.000000000000000000, -0.000000000000000000 ) ) ;
#241 = DIRECTION ( 'NONE',  ( 0.000000000000000000, 1.000000000000000000, 0.000000000000000000 ) ) ;
#242 = DIRECTION ( 'NONE',  ( 0.000000000000000000, 1.000000000000000000, 0.000000000000000000 ) ) ;
#243 = DATE_AND_TIME ( #176, #100 ) ;
#244 = LINE ( 'NONE', #71, #174 ) ;
#245 = DIRECTION ( 'NONE',  ( -0.000000000000000000, -1.000000000000000000, -0.000000000000000000 ) ) ;
#246 = AXIS2_PLACEMENT_3D ( 'NONE', #119, #225, #11 ) ;
#247 = AXIS2_PLACEMENT_3D ( 'NONE', #42, #23, #188 ) ;
#248 = MANIFOLD_SOLID_BREP ( 'Aufsatz-Linear austragen1', #35 ) ;
#249 = DATE_AND_TIME ( #3, #195 ) ;
ENDSEC;
END-ISO-10303-21;
