ISO-10303-21;
HEADER;
FILE_DESCRIPTION (( 'STEP AP203' ),
    '1' );
FILE_NAME ('3D-LR-131-SE_18-14_17106520.STEP',
    '2024-09-02T20:23:40',
    ( '' ),
    ( '' ),
    'SwSTEP 2.0',
    'SolidWorks 2024',
    '' );
FILE_SCHEMA (( 'CONFIG_CONTROL_DESIGN' ));
ENDSEC;

DATA;
#1 = COORDINATED_UNIVERSAL_TIME_OFFSET ( 1, 0, .AHEAD. ) ;
#2 = ORIENTED_EDGE ( 'NONE', *, *, #23, .F. ) ;
#3 = COORDINATED_UNIVERSAL_TIME_OFFSET ( 1, 0, .AHEAD. ) ;
#4 = VERTEX_POINT ( 'NONE', #124 ) ;
#5 =( GEOMETRIC_REPRESENTATION_CONTEXT ( 3 ) GLOBAL_UNCERTAINTY_ASSIGNED_CONTEXT ( ( #329 ) ) GLOBAL_UNIT_ASSIGNED_CONTEXT ( ( #67, #360, #287 ) ) REPRESENTATION_CONTEXT ( 'NONE', 'WORKASPACE' ) );
#6 = CIRCLE ( 'NONE', #290, 6.999999999999997335 ) ;
#7 = VERTEX_POINT ( 'NONE', #254 ) ;
#8 = SHAPE_DEFINITION_REPRESENTATION ( #39, #300 ) ;
#9 = EDGE_LOOP ( 'NONE', ( #250, #386, #319, #237 ) ) ;
#10 = ORIENTED_EDGE ( 'NONE', *, *, #308, .F. ) ;
#11 = AXIS2_PLACEMENT_3D ( 'NONE', #362, #97, #163 ) ;
#12 = CIRCLE ( 'NONE', #278, 9.000000000000000000 ) ;
#13 = DIRECTION ( 'NONE',  ( 0.000000000000000000, 0.000000000000000000, 1.000000000000000000 ) ) ;
#14 = DIRECTION ( 'NONE',  ( 0.000000000000000000, 0.000000000000000000, 1.000000000000000000 ) ) ;
#15 = ORIENTED_EDGE ( 'NONE', *, *, #422, .F. ) ;
#16 = CARTESIAN_POINT ( 'NONE',  ( -8.000000000000003553, 0.000000000000000000, 0.000000000000000000 ) ) ;
#17 = ORIENTED_EDGE ( 'NONE', *, *, #398, .T. ) ;
#18 = AXIS2_PLACEMENT_3D ( 'NONE', #238, #113, #235 ) ;
#19 = AXIS2_PLACEMENT_3D ( 'NONE', #429, #364, #192 ) ;
#20 = CLOSED_SHELL ( 'NONE', ( #241, #153, #332, #98, #184, #117, #174, #394, #34, #189, #340, #416, #131 ) ) ;
#21 = CC_DESIGN_APPROVAL ( #342, ( #302 ) ) ;
#22 = FACE_OUTER_BOUND ( 'NONE', #115, .T. ) ;
#23 = EDGE_CURVE ( 'NONE', #4, #92, #224, .T. ) ;
#24 = AXIS2_PLACEMENT_3D ( 'NONE', #118, #123, #220 ) ;
#25 = PRODUCT_DEFINITION ( 'UNKNOWN', '', #321, #260 ) ;
#26 = DIRECTION ( 'NONE',  ( 0.000000000000000000, 0.000000000000000000, 1.000000000000000000 ) ) ;
#27 = PERSON_AND_ORGANIZATION ( #193, #140 ) ;
#28 = AXIS2_PLACEMENT_3D ( 'NONE', #119, #253, #280 ) ;
#29 = EDGE_CURVE ( 'NONE', #80, #47, #35, .T. ) ;
#30 = LINE ( 'NONE', #63, #68 ) ;
#31 = VECTOR ( 'NONE', #343, 1000.000000000000000 ) ;
#32 = EDGE_CURVE ( 'NONE', #139, #384, #401, .T. ) ;
#33 = CIRCLE ( 'NONE', #316, 8.999999999999998224 ) ;
#34 = ADVANCED_FACE ( 'NONE', ( #382 ), #408, .T. ) ;
#35 = LINE ( 'NONE', #294, #275 ) ;
#36 = APPROVAL_STATUS ( 'not_yet_approved' ) ;
#37 = DIRECTION ( 'NONE',  ( -1.000000000000000000, -0.000000000000000000, -0.000000000000000000 ) ) ;
#38 = ORIENTED_EDGE ( 'NONE', *, *, #116, .T. ) ;
#39 = PRODUCT_DEFINITION_SHAPE ( 'NONE', 'NONE',  #25 ) ;
#40 = COORDINATED_UNIVERSAL_TIME_OFFSET ( 1, 0, .AHEAD. ) ;
#41 = CARTESIAN_POINT ( 'NONE',  ( -6.800000000000004263, 1.469576158976823947E-15, -12.00000000000000000 ) ) ;
#42 = ORIENTED_EDGE ( 'NONE', *, *, #407, .F. ) ;
#43 = CALENDAR_DATE ( 2024, 2, 9 ) ;
#44 = AXIS2_PLACEMENT_3D ( 'NONE', #380, #37, #298 ) ;
#45 = VERTEX_POINT ( 'NONE', #208 ) ;
#46 = FACE_OUTER_BOUND ( 'NONE', #403, .T. ) ;
#47 = VERTEX_POINT ( 'NONE', #371 ) ;
#48 = LINE ( 'NONE', #177, #214 ) ;
#49 = DIRECTION ( 'NONE',  ( -1.000000000000000000, -0.000000000000000000, -0.000000000000000000 ) ) ;
#50 = ORIENTED_EDGE ( 'NONE', *, *, #376, .T. ) ;
#51 = DIRECTION ( 'NONE',  ( -1.000000000000000000, -0.000000000000000000, -0.000000000000000000 ) ) ;
#52 = CIRCLE ( 'NONE', #288, 9.000000000000000000 ) ;
#53 = AXIS2_PLACEMENT_3D ( 'NONE', #361, #65, #64 ) ;
#54 = DIRECTION ( 'NONE',  ( -1.000000000000000000, -0.000000000000000000, -0.000000000000000000 ) ) ;
#55 = ORIENTED_EDGE ( 'NONE', *, *, #251, .T. ) ;
#56 = CARTESIAN_POINT ( 'NONE',  ( -36.70332301863295754, 0.000000000000000000, 12.00000000000000000 ) ) ;
#57 = ORIENTED_EDGE ( 'NONE', *, *, #352, .T. ) ;
#58 = EDGE_CURVE ( 'NONE', #45, #139, #48, .T. ) ;
#59 = DIRECTION ( 'NONE',  ( 0.000000000000000000, 0.000000000000000000, 1.000000000000000000 ) ) ;
#60 = ORIENTED_EDGE ( 'NONE', *, *, #164, .F. ) ;
#61 = AXIS2_PLACEMENT_3D ( 'NONE', #320, #399, #132 ) ;
#62 = CYLINDRICAL_SURFACE ( 'NONE', #317, 10.25000000000000178 ) ;
#63 = CARTESIAN_POINT ( 'NONE',  ( -36.70332301863295754, 8.572527594031468259E-16, -6.999999999999996447 ) ) ;
#64 = DIRECTION ( 'NONE',  ( 1.000000000000000000, 0.000000000000000000, 0.000000000000000000 ) ) ;
#65 = DIRECTION ( 'NONE',  ( 0.000000000000000000, 0.000000000000000000, 1.000000000000000000 ) ) ;
#66 = CIRCLE ( 'NONE', #167, 12.00000000000000000 ) ;
#67 =( LENGTH_UNIT ( ) NAMED_UNIT ( * ) SI_UNIT ( .MILLI., .METRE. ) );
#68 = VECTOR ( 'NONE', #191, 1000.000000000000000 ) ;
#69 = EDGE_CURVE ( 'NONE', #181, #217, #210, .T. ) ;
#70 = CARTESIAN_POINT ( 'NONE',  ( 8.000000000000000000, 8.572527594031470232E-16, -6.999999999999998224 ) ) ;
#71 = DIRECTION ( 'NONE',  ( -1.000000000000000000, -0.000000000000000000, -0.000000000000000000 ) ) ;
#72 = DATE_TIME_ROLE ( 'classification_date' ) ;
#73 = VECTOR ( 'NONE', #375, 999.9999999999998863 ) ;
#74 = LINE ( 'NONE', #306, #96 ) ;
#75 = CONICAL_SURFACE ( 'NONE', #166, 12.00000000000000000, 1.396263401595467135 ) ;
#76 = COORDINATED_UNIVERSAL_TIME_OFFSET ( 1, 0, .AHEAD. ) ;
#77 = CARTESIAN_POINT ( 'NONE',  ( 8.000000000000000000, 0.000000000000000000, 6.999999999999997335 ) ) ;
#78 = EDGE_LOOP ( 'NONE', ( #10, #204 ) ) ;
#79 = PLANE ( 'NONE',  #347 ) ;
#80 = VERTEX_POINT ( 'NONE', #77 ) ;
#81 = DATE_AND_TIME ( #304, #88 ) ;
#82 = FACE_OUTER_BOUND ( 'NONE', #201, .T. ) ;
#83 = CIRCLE ( 'NONE', #378, 8.999999999999998224 ) ;
#84 = CARTESIAN_POINT ( 'NONE',  ( -36.70332301863295754, 0.000000000000000000, 0.000000000000000000 ) ) ;
#85 = ORIENTED_EDGE ( 'NONE', *, *, #219, .F. ) ;
#86 = DIRECTION ( 'NONE',  ( -1.000000000000000000, -0.000000000000000000, -0.000000000000000000 ) ) ;
#87 = DIRECTION ( 'NONE',  ( -1.000000000000000000, -0.000000000000000000, -0.000000000000000000 ) ) ;
#88 = LOCAL_TIME ( 22, 23, 40.00000000000000000, #76 ) ;
#89 = DIRECTION ( 'NONE',  ( 0.000000000000000000, 0.000000000000000000, 1.000000000000000000 ) ) ;
#90 = CARTESIAN_POINT ( 'NONE',  ( -8.000000000000003553, 0.000000000000000000, 0.000000000000000000 ) ) ;
#91 = DIRECTION ( 'NONE',  ( -1.000000000000000000, -0.000000000000000000, -0.000000000000000000 ) ) ;
#92 = VERTEX_POINT ( 'NONE', #114 ) ;
#93 = CARTESIAN_POINT ( 'NONE',  ( -8.000000000000003553, 6.999999999999995559, 0.000000000000000000 ) ) ;
#94 = EDGE_LOOP ( 'NONE', ( #175, #212, #85, #169 ) ) ;
#95 = APPLICATION_PROTOCOL_DEFINITION ( 'international standard', 'config_control_design', 1994, #425 ) ;
#96 = VECTOR ( 'NONE', #330, 1000.000000000000000 ) ;
#97 = DIRECTION ( 'NONE',  ( -1.000000000000000000, -0.000000000000000000, -0.000000000000000000 ) ) ;
#98 = ADVANCED_FACE ( 'NONE', ( #110 ), #268, .T. ) ;
#99 = DIRECTION ( 'NONE',  ( 0.000000000000000000, 0.000000000000000000, 1.000000000000000000 ) ) ;
#100 = CC_DESIGN_PERSON_AND_ORGANIZATION_ASSIGNMENT ( #199, #134, ( #321 ) ) ;
#101 = CALENDAR_DATE ( 2024, 2, 9 ) ;
#102 = CARTESIAN_POINT ( 'NONE',  ( -36.70332301863295754, 1.469576158976823947E-15, -12.00000000000000000 ) ) ;
#103 = CARTESIAN_POINT ( 'NONE',  ( 8.000000000000000000, 0.000000000000000000, 0.000000000000000000 ) ) ;
#104 = ORIENTED_EDGE ( 'NONE', *, *, #116, .F. ) ;
#105 = AXIS2_PLACEMENT_3D ( 'NONE', #122, #247, #282 ) ;
#106 = LOCAL_TIME ( 22, 23, 40.00000000000000000, #1 ) ;
#107 = AXIS2_PLACEMENT_3D ( 'NONE', #16, #218, #353 ) ;
#108 = EDGE_CURVE ( 'NONE', #7, #148, #404, .T. ) ;
#109 = APPROVAL_DATE_TIME ( #400, #423 ) ;
#110 = FACE_OUTER_BOUND ( 'NONE', #94, .T. ) ;
#111 = VERTEX_POINT ( 'NONE', #331 ) ;
#112 = ORIENTED_EDGE ( 'NONE', *, *, #32, .F. ) ;
#113 = DIRECTION ( 'NONE',  ( -1.000000000000000000, -0.000000000000000000, -0.000000000000000000 ) ) ;
#114 = CARTESIAN_POINT ( 'NONE',  ( 0.9999999999999940048, 1.255262969126037241E-15, -10.25000000000000178 ) ) ;
#115 = EDGE_LOOP ( 'NONE', ( #15, #17, #125, #414 ) ) ;
#116 = EDGE_CURVE ( 'NONE', #418, #181, #52, .T. ) ;
#117 = ADVANCED_FACE ( 'NONE', ( #205, #372 ), #79, .T. ) ;
#118 = CARTESIAN_POINT ( 'NONE',  ( -6.800000000000004263, 0.000000000000000000, 0.000000000000000000 ) ) ;
#119 = CARTESIAN_POINT ( 'NONE',  ( -36.70332301863295754, 0.000000000000000000, 0.000000000000000000 ) ) ;
#120 = ORIENTED_EDGE ( 'NONE', *, *, #352, .F. ) ;
#121 = CYLINDRICAL_SURFACE ( 'NONE', #336, 8.999999999999998224 ) ;
#122 = CARTESIAN_POINT ( 'NONE',  ( -36.70332301863295754, 0.000000000000000000, 0.000000000000000000 ) ) ;
#123 = DIRECTION ( 'NONE',  ( -1.000000000000000000, -0.000000000000000000, -0.000000000000000000 ) ) ;
#124 = CARTESIAN_POINT ( 'NONE',  ( 0.9999999999999940048, 0.000000000000000000, 10.25000000000000178 ) ) ;
#125 = ORIENTED_EDGE ( 'NONE', *, *, #325, .T. ) ;
#126 = VECTOR ( 'NONE', #202, 1000.000000000000000 ) ;
#127 = DIRECTION ( 'NONE',  ( -1.000000000000000000, 0.000000000000000000, -0.000000000000000000 ) ) ;
#128 = AXIS2_PLACEMENT_3D ( 'NONE', #90, #147, #216 ) ;
#129 = PLANE ( 'NONE',  #130 ) ;
#130 = AXIS2_PLACEMENT_3D ( 'NONE', #93, #127, #158 ) ;
#131 = ADVANCED_FACE ( 'NONE', ( #82 ), #338, .T. ) ;
#132 = DIRECTION ( 'NONE',  ( 0.000000000000000000, 0.000000000000000000, 1.000000000000000000 ) ) ;
#133 = CIRCLE ( 'NONE', #11, 10.25000000000000000 ) ;
#134 = PERSON_AND_ORGANIZATION_ROLE ( 'design_supplier' ) ;
#135 = CARTESIAN_POINT ( 'NONE',  ( -36.70332301863295754, 0.000000000000000000, 0.000000000000000000 ) ) ;
#136 = EDGE_LOOP ( 'NONE', ( #112, #50, #281, #42 ) ) ;
#137 = DATE_AND_TIME ( #101, #289 ) ;
#138 = AXIS2_PLACEMENT_3D ( 'NONE', #135, #49, #178 ) ;
#139 = VERTEX_POINT ( 'NONE', #41 ) ;
#140 = ORGANIZATION ( 'UNSPECIFIED', 'UNSPECIFIED', '' ) ;
#141 = APPROVAL_DATE_TIME ( #265, #342 ) ;
#142 = DIRECTION ( 'NONE',  ( 1.000000000000000000, 0.000000000000000000, 0.000000000000000000 ) ) ;
#143 = EDGE_LOOP ( 'NONE', ( #157, #381 ) ) ;
#144 = CIRCLE ( 'NONE', #162, 6.999999999999997335 ) ;
#145 = PERSON_AND_ORGANIZATION ( #193, #140 ) ;
#146 = ORIENTED_EDGE ( 'NONE', *, *, #23, .T. ) ;
#147 = DIRECTION ( 'NONE',  ( -1.000000000000000000, -0.000000000000000000, -0.000000000000000000 ) ) ;
#148 = VERTEX_POINT ( 'NONE', #367 ) ;
#149 = LOCAL_TIME ( 22, 23, 40.00000000000000000, #40 ) ;
#150 = LINE ( 'NONE', #318, #277 ) ;
#151 = DIRECTION ( 'NONE',  ( -1.000000000000000000, -0.000000000000000000, -0.000000000000000000 ) ) ;
#152 = ORIENTED_EDGE ( 'NONE', *, *, #301, .T. ) ;
#153 = ADVANCED_FACE ( 'NONE', ( #46 ), #168, .T. ) ;
#154 = CARTESIAN_POINT ( 'NONE',  ( 0.9999999999999940048, 0.000000000000000000, 0.000000000000000000 ) ) ;
#155 = VECTOR ( 'NONE', #91, 1000.000000000000000 ) ;
#156 = CARTESIAN_POINT ( 'NONE',  ( -8.000000000000003553, 0.000000000000000000, 0.000000000000000000 ) ) ;
#157 = ORIENTED_EDGE ( 'NONE', *, *, #195, .T. ) ;
#158 = DIRECTION ( 'NONE',  ( -0.000000000000000000, 0.000000000000000000, 1.000000000000000000 ) ) ;
#159 = APPROVAL_PERSON_ORGANIZATION ( #262, #423, #272 ) ;
#160 = CARTESIAN_POINT ( 'NONE',  ( -8.000000000000003553, 1.469576158976823947E-15, -12.00000000000000000 ) ) ;
#161 = CONICAL_SURFACE ( 'NONE', #24, 12.00000000000000000, 1.396263401595467135 ) ;
#162 = AXIS2_PLACEMENT_3D ( 'NONE', #424, #396, #196 ) ;
#163 = DIRECTION ( 'NONE',  ( 0.000000000000000000, 0.000000000000000000, 1.000000000000000000 ) ) ;
#164 = EDGE_CURVE ( 'NONE', #4, #7, #74, .T. ) ;
#165 = FACE_BOUND ( 'NONE', #345, .T. ) ;
#166 = AXIS2_PLACEMENT_3D ( 'NONE', #309, #86, #419 ) ;
#167 = AXIS2_PLACEMENT_3D ( 'NONE', #156, #211, #248 ) ;
#168 = CYLINDRICAL_SURFACE ( 'NONE', #138, 10.25000000000000178 ) ;
#169 = ORIENTED_EDGE ( 'NONE', *, *, #323, .F. ) ;
#170 = CARTESIAN_POINT ( 'NONE',  ( 7.999999999999996447, 9.000000000000000000, 0.000000000000000000 ) ) ;
#171 = ORIENTED_EDGE ( 'NONE', *, *, #427, .T. ) ;
#172 = ORIENTED_EDGE ( 'NONE', *, *, #69, .T. ) ;
#173 = APPROVAL_ROLE ( '' ) ;
#174 = ADVANCED_FACE ( 'NONE', ( #266 ), #234, .F. ) ;
#175 = ORIENTED_EDGE ( 'NONE', *, *, #387, .T. ) ;
#176 = CC_DESIGN_PERSON_AND_ORGANIZATION_ASSIGNMENT ( #230, #366, ( #321 ) ) ;
#177 = CARTESIAN_POINT ( 'NONE',  ( -6.800000000000004263, 1.469576158976823947E-15, -12.00000000000000000 ) ) ;
#178 = DIRECTION ( 'NONE',  ( 0.000000000000000000, 0.000000000000000000, 1.000000000000000000 ) ) ;
#179 = ORIENTED_EDGE ( 'NONE', *, *, #252, .F. ) ;
#180 = DIRECTION ( 'NONE',  ( 0.000000000000000000, 0.000000000000000000, 1.000000000000000000 ) ) ;
#181 = VERTEX_POINT ( 'NONE', #415 ) ;
#182 = VECTOR ( 'NONE', #312, 1000.000000000000000 ) ;
#183 = CYLINDRICAL_SURFACE ( 'NONE', #28, 6.999999999999996447 ) ;
#184 = ADVANCED_FACE ( 'NONE', ( #22 ), #183, .F. ) ;
#185 = CARTESIAN_POINT ( 'NONE',  ( 8.000000000000000000, 0.000000000000000000, 0.000000000000000000 ) ) ;
#186 = VERTEX_POINT ( 'NONE', #385 ) ;
#187 = DIRECTION ( 'NONE',  ( 0.000000000000000000, 0.000000000000000000, 1.000000000000000000 ) ) ;
#188 = CARTESIAN_POINT ( 'NONE',  ( -36.70332301863295754, 0.000000000000000000, 0.000000000000000000 ) ) ;
#189 = ADVANCED_FACE ( 'NONE', ( #417 ), #75, .T. ) ;
#190 = EDGE_CURVE ( 'NONE', #45, #7, #357, .T. ) ;
#191 = DIRECTION ( 'NONE',  ( -1.000000000000000000, -0.000000000000000000, -0.000000000000000000 ) ) ;
#192 = DIRECTION ( 'NONE',  ( 0.000000000000000000, 0.000000000000000000, 1.000000000000000000 ) ) ;
#193 = PERSON ( 'UNSPECIFIED', 'UNSPECIFIED', 'UNSPECIFIED', ('UNSPECIFIED'), ('UNSPECIFIED'), ('UNSPECIFIED') ) ;
#194 = DIRECTION ( 'NONE',  ( 0.000000000000000000, 0.000000000000000000, -1.000000000000000000 ) ) ;
#195 = EDGE_CURVE ( 'NONE', #80, #420, #6, .T. ) ;
#196 = DIRECTION ( 'NONE',  ( 0.000000000000000000, 0.000000000000000000, 1.000000000000000000 ) ) ;
#197 = PERSON_AND_ORGANIZATION_ROLE ( 'creator' ) ;
#198 = CC_DESIGN_APPROVAL ( #423, ( #321 ) ) ;
#199 = PERSON_AND_ORGANIZATION ( #193, #140 ) ;
#200 = CARTESIAN_POINT ( 'NONE',  ( -6.800000000000004263, 0.000000000000000000, 12.00000000000000000 ) ) ;
#201 = EDGE_LOOP ( 'NONE', ( #179, #38, #172, #120 ) ) ;
#202 = DIRECTION ( 'NONE',  ( -1.000000000000000000, -0.000000000000000000, -0.000000000000000000 ) ) ;
#203 = CALENDAR_DATE ( 2024, 2, 9 ) ;
#204 = ORIENTED_EDGE ( 'NONE', *, *, #325, .F. ) ;
#205 = FACE_BOUND ( 'NONE', #143, .T. ) ;
#206 = EDGE_LOOP ( 'NONE', ( #171, #315, #350, #240 ) ) ;
#207 = APPROVAL_PERSON_ORGANIZATION ( #258, #409, #326 ) ;
#208 = CARTESIAN_POINT ( 'NONE',  ( -6.491427783760197023, 1.362419564051430495E-15, -10.25000000000000000 ) ) ;
#209 = DIRECTION ( 'NONE',  ( 0.000000000000000000, 0.000000000000000000, 1.000000000000000000 ) ) ;
#210 = LINE ( 'NONE', #346, #31 ) ;
#211 = DIRECTION ( 'NONE',  ( -1.000000000000000000, -0.000000000000000000, -0.000000000000000000 ) ) ;
#212 = ORIENTED_EDGE ( 'NONE', *, *, #32, .T. ) ;
#213 = CARTESIAN_POINT ( 'NONE',  ( -36.70332301863295754, 1.255262969126037241E-15, -10.25000000000000178 ) ) ;
#214 = VECTOR ( 'NONE', #274, 999.9999999999998863 ) ;
#215 = ORIENTED_EDGE ( 'NONE', *, *, #427, .F. ) ;
#216 = DIRECTION ( 'NONE',  ( 0.000000000000000000, 0.000000000000000000, 1.000000000000000000 ) ) ;
#217 = VERTEX_POINT ( 'NONE', #344 ) ;
#218 = DIRECTION ( 'NONE',  ( -1.000000000000000000, -0.000000000000000000, -0.000000000000000000 ) ) ;
#219 = EDGE_CURVE ( 'NONE', #186, #384, #66, .T. ) ;
#220 = DIRECTION ( 'NONE',  ( 0.000000000000000000, 0.000000000000000000, 1.000000000000000000 ) ) ;
#221 = ORIENTED_EDGE ( 'NONE', *, *, #301, .F. ) ;
#222 = CIRCLE ( 'NONE', #19, 12.00000000000000000 ) ;
#223 = CC_DESIGN_PERSON_AND_ORGANIZATION_ASSIGNMENT ( #27, #322, ( #295 ) ) ;
#224 = CIRCLE ( 'NONE', #388, 10.25000000000000178 ) ;
#225 = CC_DESIGN_SECURITY_CLASSIFICATION ( #302, ( #321 ) ) ;
#226 = PLANE ( 'NONE',  #402 ) ;
#227 = APPROVAL_STATUS ( 'not_yet_approved' ) ;
#228 = DIRECTION ( 'NONE',  ( 1.000000000000000000, 0.000000000000000000, 0.000000000000000000 ) ) ;
#229 = AXIS2_PLACEMENT_3D ( 'NONE', #324, #426, #99 ) ;
#230 = PERSON_AND_ORGANIZATION ( #193, #140 ) ;
#231 = DIRECTION ( 'NONE',  ( 0.000000000000000000, 0.000000000000000000, -1.000000000000000000 ) ) ;
#232 = AXIS2_PLACEMENT_3D ( 'NONE', #84, #239, #209 ) ;
#233 = PERSON_AND_ORGANIZATION_ROLE ( 'classification_officer' ) ;
#234 = CYLINDRICAL_SURFACE ( 'NONE', #105, 6.999999999999996447 ) ;
#235 = DIRECTION ( 'NONE',  ( 0.000000000000000000, 0.000000000000000000, 1.000000000000000000 ) ) ;
#236 = DIRECTION ( 'NONE',  ( -1.000000000000000000, -0.000000000000000000, -0.000000000000000000 ) ) ;
#237 = ORIENTED_EDGE ( 'NONE', *, *, #69, .F. ) ;
#238 = CARTESIAN_POINT ( 'NONE',  ( -36.70332301863295754, 0.000000000000000000, 0.000000000000000000 ) ) ;
#239 = DIRECTION ( 'NONE',  ( -1.000000000000000000, -0.000000000000000000, -0.000000000000000000 ) ) ;
#240 = ORIENTED_EDGE ( 'NONE', *, *, #108, .F. ) ;
#241 = ADVANCED_FACE ( 'NONE', ( #392 ), #121, .T. ) ;
#242 = DATE_TIME_ROLE ( 'creation_date' ) ;
#243 = DIRECTION ( 'NONE',  ( 0.000000000000000000, 0.000000000000000000, 1.000000000000000000 ) ) ;
#244 = AXIS2_PLACEMENT_3D ( 'NONE', #245, #87, #59 ) ;
#245 = CARTESIAN_POINT ( 'NONE',  ( 0.9999999999999940048, 0.000000000000000000, 0.000000000000000000 ) ) ;
#246 = ORIENTED_EDGE ( 'NONE', *, *, #190, .F. ) ;
#247 = DIRECTION ( 'NONE',  ( -1.000000000000000000, -0.000000000000000000, -0.000000000000000000 ) ) ;
#248 = DIRECTION ( 'NONE',  ( 0.000000000000000000, 0.000000000000000000, 1.000000000000000000 ) ) ;
#249 = DIRECTION ( 'NONE',  ( -1.000000000000000000, -0.000000000000000000, -0.000000000000000000 ) ) ;
#250 = ORIENTED_EDGE ( 'NONE', *, *, #261, .T. ) ;
#251 = EDGE_CURVE ( 'NONE', #217, #111, #33, .T. ) ;
#252 = EDGE_CURVE ( 'NONE', #418, #111, #150, .T. ) ;
#253 = DIRECTION ( 'NONE',  ( -1.000000000000000000, -0.000000000000000000, -0.000000000000000000 ) ) ;
#254 = CARTESIAN_POINT ( 'NONE',  ( -6.491427783760197023, 0.000000000000000000, 10.25000000000000000 ) ) ;
#255 = CARTESIAN_POINT ( 'NONE',  ( 0.9999999999999963363, 10.25000000000000178, 0.000000000000000000 ) ) ;
#256 = EDGE_CURVE ( 'NONE', #92, #4, #337, .T. ) ;
#257 = CARTESIAN_POINT ( 'NONE',  ( 8.000000000000000000, 1.102182119232617714E-15, -9.000000000000000000 ) ) ;
#258 = PERSON_AND_ORGANIZATION ( #193, #140 ) ;
#259 = FACE_BOUND ( 'NONE', #78, .T. ) ;
#260 = DESIGN_CONTEXT ( 'detailed design', #368, 'design' ) ;
#261 = EDGE_CURVE ( 'NONE', #181, #418, #12, .T. ) ;
#262 = PERSON_AND_ORGANIZATION ( #193, #140 ) ;
#263 = PRODUCT_RELATED_PRODUCT_CATEGORY ( 'detail', '', ( #295 ) ) ;
#264 = DIRECTION ( 'NONE',  ( -1.000000000000000000, -0.000000000000000000, -0.000000000000000000 ) ) ;
#265 = DATE_AND_TIME ( #296, #149 ) ;
#266 = FACE_OUTER_BOUND ( 'NONE', #307, .T. ) ;
#267 = ORIENTED_EDGE ( 'NONE', *, *, #219, .T. ) ;
#268 = CYLINDRICAL_SURFACE ( 'NONE', #232, 12.00000000000000000 ) ;
#269 = ORIENTED_EDGE ( 'NONE', *, *, #256, .F. ) ;
#270 = EDGE_LOOP ( 'NONE', ( #339, #104 ) ) ;
#271 = MANIFOLD_SOLID_BREP ( 'Rotation1', #20 ) ;
#272 = APPROVAL_ROLE ( '' ) ;
#273 = ORIENTED_EDGE ( 'NONE', *, *, #164, .T. ) ;
#274 = DIRECTION ( 'NONE',  ( -0.1736481776669269450, 1.206041662501898607E-16, -0.9848077530122087975 ) ) ;
#275 = VECTOR ( 'NONE', #264, 1000.000000000000000 ) ;
#276 = CARTESIAN_POINT ( 'NONE',  ( -6.491427783760197023, 0.000000000000000000, 0.000000000000000000 ) ) ;
#277 = VECTOR ( 'NONE', #390, 1000.000000000000000 ) ;
#278 = AXIS2_PLACEMENT_3D ( 'NONE', #185, #391, #89 ) ;
#279 = LINE ( 'NONE', #213, #155 ) ;
#280 = DIRECTION ( 'NONE',  ( 0.000000000000000000, 0.000000000000000000, 1.000000000000000000 ) ) ;
#281 = ORIENTED_EDGE ( 'NONE', *, *, #323, .T. ) ;
#282 = DIRECTION ( 'NONE',  ( 0.000000000000000000, 0.000000000000000000, 1.000000000000000000 ) ) ;
#283 = ORIENTED_EDGE ( 'NONE', *, *, #29, .T. ) ;
#284 = CC_DESIGN_PERSON_AND_ORGANIZATION_ASSIGNMENT ( #410, #233, ( #302 ) ) ;
#285 = CARTESIAN_POINT ( 'NONE',  ( 8.000000000000000000, 0.000000000000000000, 0.000000000000000000 ) ) ;
#286 = CARTESIAN_POINT ( 'NONE',  ( -8.000000000000003553, 8.572527594031468259E-16, -6.999999999999995559 ) ) ;
#287 =( NAMED_UNIT ( * ) SI_UNIT ( $, .STERADIAN. ) SOLID_ANGLE_UNIT ( ) );
#288 = AXIS2_PLACEMENT_3D ( 'NONE', #103, #236, #243 ) ;
#289 = LOCAL_TIME ( 22, 23, 40.00000000000000000, #3 ) ;
#290 = AXIS2_PLACEMENT_3D ( 'NONE', #285, #311, #351 ) ;
#291 = MECHANICAL_CONTEXT ( 'NONE', #425, 'mechanical' ) ;
#292 = FACE_OUTER_BOUND ( 'NONE', #395, .T. ) ;
#293 = CC_DESIGN_PERSON_AND_ORGANIZATION_ASSIGNMENT ( #145, #197, ( #25 ) ) ;
#294 = CARTESIAN_POINT ( 'NONE',  ( -36.70332301863295754, 0.000000000000000000, 6.999999999999996447 ) ) ;
#295 = PRODUCT ( '3D-LR-131-SE_18-14_17106520', '3D-LR-131-SE_18-14_17106520', '', ( #291 ) ) ;
#296 = CALENDAR_DATE ( 2024, 2, 9 ) ;
#297 = CIRCLE ( 'NONE', #229, 12.00000000000000000 ) ;
#298 = DIRECTION ( 'NONE',  ( 0.000000000000000000, 0.000000000000000000, 1.000000000000000000 ) ) ;
#299 = ORIENTED_EDGE ( 'NONE', *, *, #376, .F. ) ;
#300 = ADVANCED_BREP_SHAPE_REPRESENTATION ( '3D-LR-131-SE_18-14_17106520', ( #271, #53 ), #5 ) ;
#301 = EDGE_CURVE ( 'NONE', #92, #45, #279, .T. ) ;
#302 = SECURITY_CLASSIFICATION ( '', '', #377 ) ;
#303 = EDGE_LOOP ( 'NONE', ( #373, #406, #411, #299 ) ) ;
#304 = CALENDAR_DATE ( 2024, 2, 9 ) ;
#305 = ORIENTED_EDGE ( 'NONE', *, *, #407, .T. ) ;
#306 = CARTESIAN_POINT ( 'NONE',  ( -36.70332301863295754, 0.000000000000000000, 10.25000000000000178 ) ) ;
#307 = EDGE_LOOP ( 'NONE', ( #334, #393, #283, #405 ) ) ;
#308 = EDGE_CURVE ( 'NONE', #47, #356, #310, .T. ) ;
#309 = CARTESIAN_POINT ( 'NONE',  ( -6.800000000000004263, 0.000000000000000000, 0.000000000000000000 ) ) ;
#310 = CIRCLE ( 'NONE', #128, 6.999999999999995559 ) ;
#311 = DIRECTION ( 'NONE',  ( -1.000000000000000000, -0.000000000000000000, -0.000000000000000000 ) ) ;
#312 = DIRECTION ( 'NONE',  ( -1.000000000000000000, -0.000000000000000000, -0.000000000000000000 ) ) ;
#313 = CIRCLE ( 'NONE', #61, 12.00000000000000000 ) ;
#314 = FACE_OUTER_BOUND ( 'NONE', #206, .T. ) ;
#315 = ORIENTED_EDGE ( 'NONE', *, *, #58, .T. ) ;
#316 = AXIS2_PLACEMENT_3D ( 'NONE', #154, #413, #187 ) ;
#317 = AXIS2_PLACEMENT_3D ( 'NONE', #188, #51, #180 ) ;
#318 = CARTESIAN_POINT ( 'NONE',  ( -36.70332301863295754, 1.102182119232617517E-15, -8.999999999999998224 ) ) ;
#319 = ORIENTED_EDGE ( 'NONE', *, *, #251, .F. ) ;
#320 = CARTESIAN_POINT ( 'NONE',  ( -6.800000000000004263, 0.000000000000000000, 0.000000000000000000 ) ) ;
#321 = PRODUCT_DEFINITION_FORMATION_WITH_SPECIFIED_SOURCE ( 'ANY', '', #295, .NOT_KNOWN. ) ;
#322 = PERSON_AND_ORGANIZATION_ROLE ( 'design_owner' ) ;
#323 = EDGE_CURVE ( 'NONE', #148, #186, #383, .T. ) ;
#324 = CARTESIAN_POINT ( 'NONE',  ( -8.000000000000003553, 0.000000000000000000, 0.000000000000000000 ) ) ;
#325 = EDGE_CURVE ( 'NONE', #356, #47, #359, .T. ) ;
#326 = APPROVAL_ROLE ( '' ) ;
#327 = DIRECTION ( 'NONE',  ( 0.000000000000000000, 0.000000000000000000, 1.000000000000000000 ) ) ;
#328 = PERSON_AND_ORGANIZATION ( #193, #140 ) ;
#329 = UNCERTAINTY_MEASURE_WITH_UNIT (LENGTH_MEASURE( 1.000000000000000082E-05 ), #67, 'distance_accuracy_value', 'NONE');
#330 = DIRECTION ( 'NONE',  ( -1.000000000000000000, -0.000000000000000000, -0.000000000000000000 ) ) ;
#331 = CARTESIAN_POINT ( 'NONE',  ( 0.9999999999999940048, 1.102182119232617517E-15, -8.999999999999998224 ) ) ;
#332 = ADVANCED_FACE ( 'NONE', ( #314 ), #161, .T. ) ;
#333 = COORDINATED_UNIVERSAL_TIME_OFFSET ( 1, 0, .AHEAD. ) ;
#334 = ORIENTED_EDGE ( 'NONE', *, *, #398, .F. ) ;
#335 = DATE_AND_TIME ( #43, #106 ) ;
#336 = AXIS2_PLACEMENT_3D ( 'NONE', #421, #151, #13 ) ;
#337 = CIRCLE ( 'NONE', #244, 10.25000000000000178 ) ;
#338 = CYLINDRICAL_SURFACE ( 'NONE', #44, 8.999999999999998224 ) ;
#339 = ORIENTED_EDGE ( 'NONE', *, *, #261, .F. ) ;
#340 = ADVANCED_FACE ( 'NONE', ( #355 ), #62, .T. ) ;
#341 = EDGE_LOOP ( 'NONE', ( #267, #305 ) ) ;
#342 = APPROVAL ( #36, 'UNSPECIFIED' ) ;
#343 = DIRECTION ( 'NONE',  ( -1.000000000000000000, -0.000000000000000000, -0.000000000000000000 ) ) ;
#344 = CARTESIAN_POINT ( 'NONE',  ( 0.9999999999999940048, 0.000000000000000000, 8.999999999999998224 ) ) ;
#345 = EDGE_LOOP ( 'NONE', ( #55, #57 ) ) ;
#346 = CARTESIAN_POINT ( 'NONE',  ( -36.70332301863295754, 0.000000000000000000, 8.999999999999998224 ) ) ;
#347 = AXIS2_PLACEMENT_3D ( 'NONE', #170, #142, #231 ) ;
#348 = LOCAL_TIME ( 22, 23, 40.00000000000000000, #333 ) ;
#349 = CARTESIAN_POINT ( 'NONE',  ( 0.9999999999999940048, 0.000000000000000000, 0.000000000000000000 ) ) ;
#350 = ORIENTED_EDGE ( 'NONE', *, *, #387, .F. ) ;
#351 = DIRECTION ( 'NONE',  ( 0.000000000000000000, 0.000000000000000000, 1.000000000000000000 ) ) ;
#352 = EDGE_CURVE ( 'NONE', #111, #217, #83, .T. ) ;
#353 = DIRECTION ( 'NONE',  ( 0.000000000000000000, 0.000000000000000000, 1.000000000000000000 ) ) ;
#354 = EDGE_LOOP ( 'NONE', ( #221, #370, #273, #246 ) ) ;
#355 = FACE_OUTER_BOUND ( 'NONE', #354, .T. ) ;
#356 = VERTEX_POINT ( 'NONE', #286 ) ;
#357 = CIRCLE ( 'NONE', #412, 10.25000000000000000 ) ;
#358 = CC_DESIGN_APPROVAL ( #409, ( #25 ) ) ;
#359 = CIRCLE ( 'NONE', #107, 6.999999999999995559 ) ;
#360 =( NAMED_UNIT ( * ) PLANE_ANGLE_UNIT ( ) SI_UNIT ( $, .RADIAN. ) );
#361 = CARTESIAN_POINT ( 'NONE',  ( 0.000000000000000000, 0.000000000000000000, 0.000000000000000000 ) ) ;
#362 = CARTESIAN_POINT ( 'NONE',  ( -6.491427783760197023, 0.000000000000000000, 0.000000000000000000 ) ) ;
#363 = CC_DESIGN_DATE_AND_TIME_ASSIGNMENT ( #81, #242, ( #25 ) ) ;
#364 = DIRECTION ( 'NONE',  ( -1.000000000000000000, -0.000000000000000000, -0.000000000000000000 ) ) ;
#365 = CARTESIAN_POINT ( 'NONE',  ( 0.9999999999999940048, 0.000000000000000000, 0.000000000000000000 ) ) ;
#366 = PERSON_AND_ORGANIZATION_ROLE ( 'creator' ) ;
#367 = CARTESIAN_POINT ( 'NONE',  ( -6.800000000000004263, 0.000000000000000000, 12.00000000000000000 ) ) ;
#368 = APPLICATION_CONTEXT ( 'configuration controlled 3d designs of mechanical parts and assemblies' ) ;
#369 = APPROVAL_STATUS ( 'not_yet_approved' ) ;
#370 = ORIENTED_EDGE ( 'NONE', *, *, #256, .T. ) ;
#371 = CARTESIAN_POINT ( 'NONE',  ( -8.000000000000003553, 0.000000000000000000, 6.999999999999995559 ) ) ;
#372 = FACE_OUTER_BOUND ( 'NONE', #270, .T. ) ;
#373 = ORIENTED_EDGE ( 'NONE', *, *, #58, .F. ) ;
#374 = APPROVAL_DATE_TIME ( #137, #409 ) ;
#375 = DIRECTION ( 'NONE',  ( -0.1736481776669269450, 0.000000000000000000, 0.9848077530122087975 ) ) ;
#376 = EDGE_CURVE ( 'NONE', #139, #148, #222, .T. ) ;
#377 = SECURITY_CLASSIFICATION_LEVEL ( 'unclassified' ) ;
#378 = AXIS2_PLACEMENT_3D ( 'NONE', #349, #54, #26 ) ;
#379 = CC_DESIGN_DATE_AND_TIME_ASSIGNMENT ( #335, #72, ( #302 ) ) ;
#380 = CARTESIAN_POINT ( 'NONE',  ( -36.70332301863295754, 0.000000000000000000, 0.000000000000000000 ) ) ;
#381 = ORIENTED_EDGE ( 'NONE', *, *, #422, .T. ) ;
#382 = FACE_OUTER_BOUND ( 'NONE', #136, .T. ) ;
#383 = LINE ( 'NONE', #56, #182 ) ;
#384 = VERTEX_POINT ( 'NONE', #160 ) ;
#385 = CARTESIAN_POINT ( 'NONE',  ( -8.000000000000003553, 0.000000000000000000, 12.00000000000000000 ) ) ;
#386 = ORIENTED_EDGE ( 'NONE', *, *, #252, .T. ) ;
#387 = EDGE_CURVE ( 'NONE', #148, #139, #313, .T. ) ;
#388 = AXIS2_PLACEMENT_3D ( 'NONE', #365, #71, #327 ) ;
#389 = APPROVAL_PERSON_ORGANIZATION ( #328, #342, #173 ) ;
#390 = DIRECTION ( 'NONE',  ( -1.000000000000000000, -0.000000000000000000, -0.000000000000000000 ) ) ;
#391 = DIRECTION ( 'NONE',  ( -1.000000000000000000, -0.000000000000000000, -0.000000000000000000 ) ) ;
#392 = FACE_OUTER_BOUND ( 'NONE', #9, .T. ) ;
#393 = ORIENTED_EDGE ( 'NONE', *, *, #195, .F. ) ;
#394 = ADVANCED_FACE ( 'NONE', ( #397, #259 ), #129, .T. ) ;
#395 = EDGE_LOOP ( 'NONE', ( #2, #269 ) ) ;
#396 = DIRECTION ( 'NONE',  ( -1.000000000000000000, -0.000000000000000000, -0.000000000000000000 ) ) ;
#397 = FACE_OUTER_BOUND ( 'NONE', #341, .T. ) ;
#398 = EDGE_CURVE ( 'NONE', #420, #356, #30, .T. ) ;
#399 = DIRECTION ( 'NONE',  ( -1.000000000000000000, -0.000000000000000000, -0.000000000000000000 ) ) ;
#400 = DATE_AND_TIME ( #203, #348 ) ;
#401 = LINE ( 'NONE', #102, #126 ) ;
#402 = AXIS2_PLACEMENT_3D ( 'NONE', #255, #228, #194 ) ;
#403 = EDGE_LOOP ( 'NONE', ( #146, #152, #215, #60 ) ) ;
#404 = LINE ( 'NONE', #200, #73 ) ;
#405 = ORIENTED_EDGE ( 'NONE', *, *, #308, .T. ) ;
#406 = ORIENTED_EDGE ( 'NONE', *, *, #190, .T. ) ;
#407 = EDGE_CURVE ( 'NONE', #384, #186, #297, .T. ) ;
#408 = CYLINDRICAL_SURFACE ( 'NONE', #18, 12.00000000000000000 ) ;
#409 = APPROVAL ( #227, 'UNSPECIFIED' ) ;
#410 = PERSON_AND_ORGANIZATION ( #193, #140 ) ;
#411 = ORIENTED_EDGE ( 'NONE', *, *, #108, .T. ) ;
#412 = AXIS2_PLACEMENT_3D ( 'NONE', #276, #249, #14 ) ;
#413 = DIRECTION ( 'NONE',  ( -1.000000000000000000, -0.000000000000000000, -0.000000000000000000 ) ) ;
#414 = ORIENTED_EDGE ( 'NONE', *, *, #29, .F. ) ;
#415 = CARTESIAN_POINT ( 'NONE',  ( 8.000000000000000000, 0.000000000000000000, 9.000000000000000000 ) ) ;
#416 = ADVANCED_FACE ( 'NONE', ( #165, #292 ), #226, .T. ) ;
#417 = FACE_OUTER_BOUND ( 'NONE', #303, .T. ) ;
#418 = VERTEX_POINT ( 'NONE', #257 ) ;
#419 = DIRECTION ( 'NONE',  ( 0.000000000000000000, 0.000000000000000000, 1.000000000000000000 ) ) ;
#420 = VERTEX_POINT ( 'NONE', #70 ) ;
#421 = CARTESIAN_POINT ( 'NONE',  ( -36.70332301863295754, 0.000000000000000000, 0.000000000000000000 ) ) ;
#422 = EDGE_CURVE ( 'NONE', #420, #80, #144, .T. ) ;
#423 = APPROVAL ( #369, 'UNSPECIFIED' ) ;
#424 = CARTESIAN_POINT ( 'NONE',  ( 8.000000000000000000, 0.000000000000000000, 0.000000000000000000 ) ) ;
#425 = APPLICATION_CONTEXT ( 'configuration controlled 3d designs of mechanical parts and assemblies' ) ;
#426 = DIRECTION ( 'NONE',  ( -1.000000000000000000, -0.000000000000000000, -0.000000000000000000 ) ) ;
#427 = EDGE_CURVE ( 'NONE', #7, #45, #133, .T. ) ;
#428 = APPLICATION_PROTOCOL_DEFINITION ( 'international standard', 'config_control_design', 1994, #368 ) ;
#429 = CARTESIAN_POINT ( 'NONE',  ( -6.800000000000004263, 0.000000000000000000, 0.000000000000000000 ) ) ;
ENDSEC;
END-ISO-10303-21;
