ISO-10303-21;
HEADER;
FILE_DESCRIPTION (( 'STEP AP203' ),
    '1' );
FILE_NAME ('3D_GR1442_80 x 5_188741193.STEP',
    '2024-10-22T15:39:27',
    ( '' ),
    ( '' ),
    'SwSTEP 2.0',
    'SolidWorks 2023',
    '' );
FILE_SCHEMA (( 'CONFIG_CONTROL_DESIGN' ));
ENDSEC;

DATA;
#1 = PRODUCT_DEFINITION_FORMATION_WITH_SPECIFIED_SOURCE ( 'ANY', '', #3, .NOT_KNOWN. ) ;
#2 = PRODUCT_DEFINITION ( 'UNKNOWN', '', #1, #165 ) ;
#3 = PRODUCT ( '3D_GR1442_80 x 5_188741193', '3D_GR1442_80 x 5_188741193', '', ( #203 ) ) ;
#4 = FACE_OUTER_BOUND ( 'NONE', #267, .T. ) ;
#5 = FACE_OUTER_BOUND ( 'NONE', #166, .T. ) ;
#6 = EDGE_LOOP ( 'NONE', ( #66, #271, #139, #213 ) ) ;
#7 = CARTESIAN_POINT ( 'NONE',  ( 4.867971026610729239E-15, 4.750000000000000000, -39.75000000000000000 ) ) ;
#8 = ORIENTED_EDGE ( 'NONE', *, *, #20, .F. ) ;
#9 = DIRECTION ( 'NONE',  ( 1.000000000000000000, -0.000000000000000000, 1.224646799147353207E-16 ) ) ;
#10 = ORIENTED_EDGE ( 'NONE', *, *, #240, .F. ) ;
#11 = SECURITY_CLASSIFICATION_LEVEL ( 'unclassified' ) ;
#12 = DIRECTION ( 'NONE',  ( -0.000000000000000000, -1.000000000000000000, -0.000000000000000000 ) ) ;
#13 = ORIENTED_EDGE ( 'NONE', *, *, #128, .F. ) ;
#14 = CC_DESIGN_APPROVAL ( #98, ( #1 ) ) ;
#15 =( NAMED_UNIT ( * ) SI_UNIT ( $, .STERADIAN. ) SOLID_ANGLE_UNIT ( ) );
#16 = DIRECTION ( 'NONE',  ( 0.000000000000000000, -0.000000000000000000, 1.000000000000000000 ) ) ;
#17 = EDGE_CURVE ( 'NONE', #163, #183, #42, .T. ) ;
#18 = PERSON_AND_ORGANIZATION_ROLE ( 'classification_officer' ) ;
#19 = PERSON_AND_ORGANIZATION_ROLE ( 'design_owner' ) ;
#20 = EDGE_CURVE ( 'NONE', #183, #90, #156, .T. ) ;
#21 = APPROVAL_PERSON_ORGANIZATION ( #255, #153, #149 ) ;
#22 = ADVANCED_FACE ( 'NONE', ( #223 ), #110, .T. ) ;
#23 = PRODUCT_RELATED_PRODUCT_CATEGORY ( 'detail', '', ( #3 ) ) ;
#24 = CARTESIAN_POINT ( 'NONE',  ( 0.000000000000000000, 5.000000000000000000, 0.000000000000000000 ) ) ;
#25 = DIRECTION ( 'NONE',  ( 0.000000000000000000, 0.000000000000000000, 1.000000000000000000 ) ) ;
#26 = UNCERTAINTY_MEASURE_WITH_UNIT (LENGTH_MEASURE( 1.000000000000000082E-05 ), #31, 'distance_accuracy_value', 'NONE');
#27 = DIRECTION ( 'NONE',  ( 0.000000000000000000, 0.000000000000000000, 1.000000000000000000 ) ) ;
#28 = CARTESIAN_POINT ( 'NONE',  ( 0.000000000000000000, 4.750000000000000000, 39.75000000000000000 ) ) ;
#29 = DIRECTION ( 'NONE',  ( 0.000000000000000000, 1.000000000000000000, 0.000000000000000000 ) ) ;
#30 = VERTEX_POINT ( 'NONE', #202 ) ;
#31 =( LENGTH_UNIT ( ) NAMED_UNIT ( * ) SI_UNIT ( .MILLI., .METRE. ) );
#32 = ORIENTED_EDGE ( 'NONE', *, *, #260, .T. ) ;
#33 = DATE_AND_TIME ( #37, #261 ) ;
#34 = CARTESIAN_POINT ( 'NONE',  ( 0.000000000000000000, 0.2500000000000002220, 39.75000000000000000 ) ) ;
#35 = EDGE_CURVE ( 'NONE', #276, #90, #252, .T. ) ;
#36 = VECTOR ( 'NONE', #115, 1000.000000000000000 ) ;
#37 = CALENDAR_DATE ( 2024, 22, 10 ) ;
#38 = DIRECTION ( 'NONE',  ( 0.000000000000000000, 0.000000000000000000, 1.000000000000000000 ) ) ;
#39 = DIRECTION ( 'NONE',  ( 0.000000000000000000, 0.000000000000000000, 1.000000000000000000 ) ) ;
#40 = AXIS2_PLACEMENT_3D ( 'NONE', #7, #176, #177 ) ;
#41 = LOCAL_TIME ( 17, 39, 27.00000000000000000, #226 ) ;
#42 = CIRCLE ( 'NONE', #190, 39.75000000000000000 ) ;
#43 = CIRCLE ( 'NONE', #179, 40.00000000000000000 ) ;
#44 = DIRECTION ( 'NONE',  ( 0.000000000000000000, 0.000000000000000000, -1.000000000000000000 ) ) ;
#45 = FACE_OUTER_BOUND ( 'NONE', #216, .T. ) ;
#46 = DIRECTION ( 'NONE',  ( -1.000000000000000000, 0.000000000000000000, 0.000000000000000000 ) ) ;
#47 = ORIENTED_EDGE ( 'NONE', *, *, #256, .F. ) ;
#48 = LINE ( 'NONE', #201, #36 ) ;
#49 = ORIENTED_EDGE ( 'NONE', *, *, #88, .T. ) ;
#50 = AXIS2_PLACEMENT_3D ( 'NONE', #262, #138, #117 ) ;
#51 = EDGE_LOOP ( 'NONE', ( #246, #184, #125, #13 ) ) ;
#52 = PERSON_AND_ORGANIZATION_ROLE ( 'creator' ) ;
#53 = VERTEX_POINT ( 'NONE', #55 ) ;
#54 = PERSON_AND_ORGANIZATION ( #133, #87 ) ;
#55 = CARTESIAN_POINT ( 'NONE',  ( 0.000000000000000000, 5.000000000000000000, 39.75000000000000000 ) ) ;
#56 = AXIS2_PLACEMENT_3D ( 'NONE', #222, #155, #241 ) ;
#57 = LOCAL_TIME ( 17, 39, 27.00000000000000000, #132 ) ;
#58 = APPROVAL_STATUS ( 'not_yet_approved' ) ;
#59 = APPROVAL_ROLE ( '' ) ;
#60 = EDGE_CURVE ( 'NONE', #90, #30, #278, .T. ) ;
#61 = ADVANCED_FACE ( 'NONE', ( #204 ), #274, .F. ) ;
#62 = SHAPE_DEFINITION_REPRESENTATION ( #191, #116 ) ;
#63 = TOROIDAL_SURFACE ( 'NONE', #101, 39.75000000000000000, 0.2500000000000000000 ) ;
#64 = TOROIDAL_SURFACE ( 'NONE', #169, 39.75000000000000000, 0.2500000000000000000 ) ;
#65 = CARTESIAN_POINT ( 'NONE',  ( 0.000000000000000000, 4.750000000000000000, 0.000000000000000000 ) ) ;
#66 = ORIENTED_EDGE ( 'NONE', *, *, #111, .F. ) ;
#67 = EDGE_CURVE ( 'NONE', #276, #100, #43, .T. ) ;
#68 = DIRECTION ( 'NONE',  ( 0.000000000000000000, 0.000000000000000000, 1.000000000000000000 ) ) ;
#69 = EDGE_LOOP ( 'NONE', ( #168, #192, #113, #135 ) ) ;
#70 = CARTESIAN_POINT ( 'NONE',  ( 0.000000000000000000, 4.750000000000000000, -40.00000000000000000 ) ) ;
#71 = DIRECTION ( 'NONE',  ( 0.000000000000000000, 1.000000000000000000, 0.000000000000000000 ) ) ;
#72 = ADVANCED_FACE ( 'NONE', ( #200 ), #63, .T. ) ;
#73 = ORIENTED_EDGE ( 'NONE', *, *, #17, .T. ) ;
#74 = DIRECTION ( 'NONE',  ( 0.000000000000000000, 1.000000000000000000, 0.000000000000000000 ) ) ;
#75 = DIRECTION ( 'NONE',  ( 0.000000000000000000, 0.000000000000000000, 1.000000000000000000 ) ) ;
#76 = APPROVAL ( #171, 'UNSPECIFIED' ) ;
#77 = PERSON_AND_ORGANIZATION ( #133, #87 ) ;
#78 = AXIS2_PLACEMENT_3D ( 'NONE', #34, #127, #83 ) ;
#79 = DIRECTION ( 'NONE',  ( 0.000000000000000000, 0.000000000000000000, 1.000000000000000000 ) ) ;
#80 = AXIS2_PLACEMENT_3D ( 'NONE', #266, #93, #44 ) ;
#81 = DATE_AND_TIME ( #123, #41 ) ;
#82 = ORIENTED_EDGE ( 'NONE', *, *, #260, .F. ) ;
#83 = DIRECTION ( 'NONE',  ( 0.000000000000000000, 0.000000000000000000, 1.000000000000000000 ) ) ;
#84 = PERSON_AND_ORGANIZATION ( #133, #87 ) ;
#85 = AXIS2_PLACEMENT_3D ( 'NONE', #119, #74, #158 ) ;
#86 = CC_DESIGN_APPROVAL ( #76, ( #180 ) ) ;
#87 = ORGANIZATION ( 'UNSPECIFIED', 'UNSPECIFIED', '' ) ;
#88 = EDGE_CURVE ( 'NONE', #225, #53, #220, .T. ) ;
#89 = DATE_AND_TIME ( #152, #57 ) ;
#90 = VERTEX_POINT ( 'NONE', #154 ) ;
#91 = CC_DESIGN_SECURITY_CLASSIFICATION ( #180, ( #1 ) ) ;
#92 = CARTESIAN_POINT ( 'NONE',  ( 4.883279111600071132E-15, 5.000000000000000000, -39.75000000000000000 ) ) ;
#93 = DIRECTION ( 'NONE',  ( -0.000000000000000000, -1.000000000000000000, -0.000000000000000000 ) ) ;
#94 = CARTESIAN_POINT ( 'NONE',  ( 0.000000000000000000, 0.2500000000000002220, 0.000000000000000000 ) ) ;
#95 = DIRECTION ( 'NONE',  ( 0.000000000000000000, 1.000000000000000000, 0.000000000000000000 ) ) ;
#96 = AXIS2_PLACEMENT_3D ( 'NONE', #143, #242, #196 ) ;
#97 = CYLINDRICAL_SURFACE ( 'NONE', #80, 40.00000000000000000 ) ;
#98 = APPROVAL ( #164, 'UNSPECIFIED' ) ;
#99 = DATE_AND_TIME ( #106, #207 ) ;
#100 = VERTEX_POINT ( 'NONE', #70 ) ;
#101 = AXIS2_PLACEMENT_3D ( 'NONE', #94, #195, #68 ) ;
#102 = ORIENTED_EDGE ( 'NONE', *, *, #256, .T. ) ;
#103 = PERSON_AND_ORGANIZATION ( #133, #87 ) ;
#104 = CARTESIAN_POINT ( 'NONE',  ( 0.000000000000000000, 4.750000000000000000, 0.000000000000000000 ) ) ;
#105 = CC_DESIGN_DATE_AND_TIME_ASSIGNMENT ( #99, #129, ( #180 ) ) ;
#106 = CALENDAR_DATE ( 2024, 22, 10 ) ;
#107 = EDGE_CURVE ( 'NONE', #163, #30, #161, .T. ) ;
#108 = AXIS2_PLACEMENT_3D ( 'NONE', #140, #9, #178 ) ;
#109 = CIRCLE ( 'NONE', #175, 39.75000000000000000 ) ;
#110 = TOROIDAL_SURFACE ( 'NONE', #185, 39.75000000000000000, 0.2500000000000000000 ) ;
#111 = EDGE_CURVE ( 'NONE', #100, #225, #258, .T. ) ;
#112 = CARTESIAN_POINT ( 'NONE',  ( 0.000000000000000000, 5.000000000000000000, 0.000000000000000000 ) ) ;
#113 = ORIENTED_EDGE ( 'NONE', *, *, #218, .T. ) ;
#114 = ADVANCED_FACE ( 'NONE', ( #235 ), #136, .T. ) ;
#115 = DIRECTION ( 'NONE',  ( -0.000000000000000000, -1.000000000000000000, -0.000000000000000000 ) ) ;
#116 = ADVANCED_BREP_SHAPE_REPRESENTATION ( '3D_GR1442_80 x 5_188741193', ( #272, #254 ), #198 ) ;
#117 = DIRECTION ( 'NONE',  ( 0.000000000000000000, 0.000000000000000000, 1.000000000000000000 ) ) ;
#118 = DIRECTION ( 'NONE',  ( 0.000000000000000000, 0.000000000000000000, 1.000000000000000000 ) ) ;
#119 = CARTESIAN_POINT ( 'NONE',  ( 0.000000000000000000, 0.2500000000000002220, 0.000000000000000000 ) ) ;
#120 = DIRECTION ( 'NONE',  ( 0.000000000000000000, 1.000000000000000000, 0.000000000000000000 ) ) ;
#121 = ADVANCED_FACE ( 'NONE', ( #5 ), #253, .T. ) ;
#122 = CARTESIAN_POINT ( 'NONE',  ( 4.898587196589413026E-15, 5.000000000000000000, 40.00000000000000000 ) ) ;
#123 = CALENDAR_DATE ( 2024, 22, 10 ) ;
#124 = AXIS2_PLACEMENT_3D ( 'NONE', #65, #159, #199 ) ;
#125 = ORIENTED_EDGE ( 'NONE', *, *, #20, .T. ) ;
#126 = PERSON_AND_ORGANIZATION ( #133, #87 ) ;
#127 = DIRECTION ( 'NONE',  ( -1.000000000000000000, 0.000000000000000000, 0.000000000000000000 ) ) ;
#128 = EDGE_CURVE ( 'NONE', #30, #90, #210, .T. ) ;
#129 = DATE_TIME_ROLE ( 'classification_date' ) ;
#130 = PERSON_AND_ORGANIZATION_ROLE ( 'design_supplier' ) ;
#131 = CIRCLE ( 'NONE', #124, 40.00000000000000000 ) ;
#132 = COORDINATED_UNIVERSAL_TIME_OFFSET ( 1, 0, .AHEAD. ) ;
#133 = PERSON ( 'UNSPECIFIED', 'UNSPECIFIED', 'UNSPECIFIED', ('UNSPECIFIED'), ('UNSPECIFIED'), ('UNSPECIFIED') ) ;
#134 = CC_DESIGN_APPROVAL ( #153, ( #2 ) ) ;
#135 = ORIENTED_EDGE ( 'NONE', *, *, #128, .T. ) ;
#136 = CYLINDRICAL_SURFACE ( 'NONE', #172, 40.00000000000000000 ) ;
#137 = CLOSED_SHELL ( 'NONE', ( #22, #121, #194, #114, #209, #61, #72, #174 ) ) ;
#138 = DIRECTION ( 'NONE',  ( -0.000000000000000000, -1.000000000000000000, -0.000000000000000000 ) ) ;
#139 = ORIENTED_EDGE ( 'NONE', *, *, #240, .T. ) ;
#140 = CARTESIAN_POINT ( 'NONE',  ( 4.867971026610729239E-15, 0.2500000000000002220, -39.75000000000000000 ) ) ;
#141 = EDGE_LOOP ( 'NONE', ( #82, #243, #47, #10 ) ) ;
#142 = CC_DESIGN_PERSON_AND_ORGANIZATION_ASSIGNMENT ( #54, #18, ( #180 ) ) ;
#143 = CARTESIAN_POINT ( 'NONE',  ( 0.000000000000000000, 5.000000000000000000, 0.000000000000000000 ) ) ;
#144 = CARTESIAN_POINT ( 'NONE',  ( 0.000000000000000000, 0.000000000000000000, 0.000000000000000000 ) ) ;
#145 = ORIENTED_EDGE ( 'NONE', *, *, #107, .T. ) ;
#146 = ORIENTED_EDGE ( 'NONE', *, *, #35, .T. ) ;
#147 = CARTESIAN_POINT ( 'NONE',  ( 4.898587196589413026E-15, 4.750000000000000000, 40.00000000000000000 ) ) ;
#148 = DIRECTION ( 'NONE',  ( 0.000000000000000000, 1.000000000000000000, 0.000000000000000000 ) ) ;
#149 = APPROVAL_ROLE ( '' ) ;
#150 = CALENDAR_DATE ( 2024, 22, 10 ) ;
#151 = CC_DESIGN_PERSON_AND_ORGANIZATION_ASSIGNMENT ( #187, #19, ( #3 ) ) ;
#152 = CALENDAR_DATE ( 2024, 22, 10 ) ;
#153 = APPROVAL ( #58, 'UNSPECIFIED' ) ;
#154 = CARTESIAN_POINT ( 'NONE',  ( 4.898587196589413026E-15, 0.2500000000000002220, 40.00000000000000000 ) ) ;
#155 = DIRECTION ( 'NONE',  ( 0.000000000000000000, 1.000000000000000000, 0.000000000000000000 ) ) ;
#156 = CIRCLE ( 'NONE', #78, 0.2500000000000002220 ) ;
#157 = APPROVAL_PERSON_ORGANIZATION ( #126, #98, #59 ) ;
#158 = DIRECTION ( 'NONE',  ( 0.000000000000000000, 0.000000000000000000, 1.000000000000000000 ) ) ;
#159 = DIRECTION ( 'NONE',  ( -0.000000000000000000, -1.000000000000000000, -0.000000000000000000 ) ) ;
#160 = CARTESIAN_POINT ( 'NONE',  ( 0.000000000000000000, 4.750000000000000000, 0.000000000000000000 ) ) ;
#161 = CIRCLE ( 'NONE', #108, 0.2500000000000002220 ) ;
#162 = PERSON_AND_ORGANIZATION_ROLE ( 'creator' ) ;
#163 = VERTEX_POINT ( 'NONE', #268 ) ;
#164 = APPROVAL_STATUS ( 'not_yet_approved' ) ;
#165 = DESIGN_CONTEXT ( 'detailed design', #211, 'design' ) ;
#166 = EDGE_LOOP ( 'NONE', ( #212, #145, #197, #8 ) ) ;
#167 = APPLICATION_PROTOCOL_DEFINITION ( 'international standard', 'config_control_design', 1994, #173 ) ;
#168 = ORIENTED_EDGE ( 'NONE', *, *, #35, .F. ) ;
#169 = AXIS2_PLACEMENT_3D ( 'NONE', #219, #95, #27 ) ;
#170 = APPROVAL_DATE_TIME ( #81, #153 ) ;
#171 = APPROVAL_STATUS ( 'not_yet_approved' ) ;
#172 = AXIS2_PLACEMENT_3D ( 'NONE', #24, #217, #263 ) ;
#173 = APPLICATION_CONTEXT ( 'configuration controlled 3d designs of mechanical parts and assemblies' ) ;
#174 = ADVANCED_FACE ( 'NONE', ( #239 ), #64, .T. ) ;
#175 = AXIS2_PLACEMENT_3D ( 'NONE', #215, #71, #25 ) ;
#176 = DIRECTION ( 'NONE',  ( 1.000000000000000000, -0.000000000000000000, 1.224646799147353207E-16 ) ) ;
#177 = DIRECTION ( 'NONE',  ( 1.224646799147349509E-16, 0.000000000000000000, -1.000000000000000000 ) ) ;
#178 = DIRECTION ( 'NONE',  ( 1.224646799147349509E-16, 0.000000000000000000, -1.000000000000000000 ) ) ;
#179 = AXIS2_PLACEMENT_3D ( 'NONE', #104, #206, #118 ) ;
#180 = SECURITY_CLASSIFICATION ( '', '', #11 ) ;
#181 = DIRECTION ( 'NONE',  ( 0.000000000000000000, 0.000000000000000000, 1.000000000000000000 ) ) ;
#182 = ORIENTED_EDGE ( 'NONE', *, *, #60, .T. ) ;
#183 = VERTEX_POINT ( 'NONE', #193 ) ;
#184 = ORIENTED_EDGE ( 'NONE', *, *, #247, .F. ) ;
#185 = AXIS2_PLACEMENT_3D ( 'NONE', #160, #120, #79 ) ;
#186 = EDGE_LOOP ( 'NONE', ( #236, #73 ) ) ;
#187 = PERSON_AND_ORGANIZATION ( #133, #87 ) ;
#188 = DIRECTION ( 'NONE',  ( 1.000000000000000000, 0.000000000000000000, 0.000000000000000000 ) ) ;
#189 = APPLICATION_PROTOCOL_DEFINITION ( 'international standard', 'config_control_design', 1994, #211 ) ;
#190 = AXIS2_PLACEMENT_3D ( 'NONE', #144, #269, #75 ) ;
#191 = PRODUCT_DEFINITION_SHAPE ( 'NONE', 'NONE',  #2 ) ;
#192 = ORIENTED_EDGE ( 'NONE', *, *, #67, .T. ) ;
#193 = CARTESIAN_POINT ( 'NONE',  ( 0.000000000000000000, 0.000000000000000000, 39.75000000000000000 ) ) ;
#194 = ADVANCED_FACE ( 'NONE', ( #45 ), #97, .T. ) ;
#195 = DIRECTION ( 'NONE',  ( 0.000000000000000000, 1.000000000000000000, 0.000000000000000000 ) ) ;
#196 = DIRECTION ( 'NONE',  ( 0.000000000000000000, -0.000000000000000000, 1.000000000000000000 ) ) ;
#197 = ORIENTED_EDGE ( 'NONE', *, *, #60, .F. ) ;
#198 =( GEOMETRIC_REPRESENTATION_CONTEXT ( 3 ) GLOBAL_UNCERTAINTY_ASSIGNED_CONTEXT ( ( #26 ) ) GLOBAL_UNIT_ASSIGNED_CONTEXT ( ( #31, #270, #15 ) ) REPRESENTATION_CONTEXT ( 'NONE', 'WORKASPACE' ) );
#199 = DIRECTION ( 'NONE',  ( 0.000000000000000000, 0.000000000000000000, 1.000000000000000000 ) ) ;
#200 = FACE_OUTER_BOUND ( 'NONE', #51, .T. ) ;
#201 = CARTESIAN_POINT ( 'NONE',  ( 0.000000000000000000, 5.000000000000000000, -40.00000000000000000 ) ) ;
#202 = CARTESIAN_POINT ( 'NONE',  ( 0.000000000000000000, 0.2500000000000002220, -40.00000000000000000 ) ) ;
#203 = MECHANICAL_CONTEXT ( 'NONE', #173, 'mechanical' ) ;
#204 = FACE_OUTER_BOUND ( 'NONE', #186, .T. ) ;
#205 = CARTESIAN_POINT ( 'NONE',  ( 0.000000000000000000, 0.2500000000000002220, 0.000000000000000000 ) ) ;
#206 = DIRECTION ( 'NONE',  ( -0.000000000000000000, -1.000000000000000000, -0.000000000000000000 ) ) ;
#207 = LOCAL_TIME ( 17, 39, 27.00000000000000000, #228 ) ;
#208 = APPROVAL_DATE_TIME ( #89, #76 ) ;
#209 = ADVANCED_FACE ( 'NONE', ( #4 ), #237, .T. ) ;
#210 = CIRCLE ( 'NONE', #85, 40.00000000000000000 ) ;
#211 = APPLICATION_CONTEXT ( 'configuration controlled 3d designs of mechanical parts and assemblies' ) ;
#212 = ORIENTED_EDGE ( 'NONE', *, *, #17, .F. ) ;
#213 = ORIENTED_EDGE ( 'NONE', *, *, #88, .F. ) ;
#214 = APPROVAL_PERSON_ORGANIZATION ( #84, #76, #233 ) ;
#215 = CARTESIAN_POINT ( 'NONE',  ( 0.000000000000000000, 5.000000000000000000, 0.000000000000000000 ) ) ;
#216 = EDGE_LOOP ( 'NONE', ( #32, #146, #182, #227 ) ) ;
#217 = DIRECTION ( 'NONE',  ( -0.000000000000000000, -1.000000000000000000, -0.000000000000000000 ) ) ;
#218 = EDGE_CURVE ( 'NONE', #100, #30, #48, .T. ) ;
#219 = CARTESIAN_POINT ( 'NONE',  ( 0.000000000000000000, 4.750000000000000000, 0.000000000000000000 ) ) ;
#220 = CIRCLE ( 'NONE', #273, 39.75000000000000000 ) ;
#221 = CC_DESIGN_PERSON_AND_ORGANIZATION_ASSIGNMENT ( #103, #130, ( #1 ) ) ;
#222 = CARTESIAN_POINT ( 'NONE',  ( 0.000000000000000000, 0.2500000000000002220, 0.000000000000000000 ) ) ;
#223 = FACE_OUTER_BOUND ( 'NONE', #141, .T. ) ;
#224 = COORDINATED_UNIVERSAL_TIME_OFFSET ( 1, 0, .AHEAD. ) ;
#225 = VERTEX_POINT ( 'NONE', #92 ) ;
#226 = COORDINATED_UNIVERSAL_TIME_OFFSET ( 1, 0, .AHEAD. ) ;
#227 = ORIENTED_EDGE ( 'NONE', *, *, #218, .F. ) ;
#228 = COORDINATED_UNIVERSAL_TIME_OFFSET ( 1, 0, .AHEAD. ) ;
#229 = DIRECTION ( 'NONE',  ( 0.000000000000000000, 1.000000000000000000, 0.000000000000000000 ) ) ;
#230 = DATE_TIME_ROLE ( 'creation_date' ) ;
#231 = APPROVAL_DATE_TIME ( #275, #98 ) ;
#232 = AXIS2_PLACEMENT_3D ( 'NONE', #28, #46, #181 ) ;
#233 = APPROVAL_ROLE ( '' ) ;
#234 = CIRCLE ( 'NONE', #232, 0.2500000000000002220 ) ;
#235 = FACE_OUTER_BOUND ( 'NONE', #69, .T. ) ;
#236 = ORIENTED_EDGE ( 'NONE', *, *, #247, .T. ) ;
#237 = PLANE ( 'NONE',  #96 ) ;
#238 = CIRCLE ( 'NONE', #50, 39.75000000000000000 ) ;
#239 = FACE_OUTER_BOUND ( 'NONE', #6, .T. ) ;
#240 = EDGE_CURVE ( 'NONE', #276, #53, #234, .T. ) ;
#241 = DIRECTION ( 'NONE',  ( 0.000000000000000000, 0.000000000000000000, 1.000000000000000000 ) ) ;
#242 = DIRECTION ( 'NONE',  ( 0.000000000000000000, 1.000000000000000000, 0.000000000000000000 ) ) ;
#243 = ORIENTED_EDGE ( 'NONE', *, *, #111, .T. ) ;
#244 = AXIS2_PLACEMENT_3D ( 'NONE', #249, #229, #16 ) ;
#245 = LOCAL_TIME ( 17, 39, 27.00000000000000000, #224 ) ;
#246 = ORIENTED_EDGE ( 'NONE', *, *, #107, .F. ) ;
#247 = EDGE_CURVE ( 'NONE', #183, #163, #238, .T. ) ;
#248 = CARTESIAN_POINT ( 'NONE',  ( 0.000000000000000000, 0.000000000000000000, 0.000000000000000000 ) ) ;
#249 = CARTESIAN_POINT ( 'NONE',  ( 0.000000000000000000, 0.000000000000000000, 0.000000000000000000 ) ) ;
#250 = COORDINATED_UNIVERSAL_TIME_OFFSET ( 1, 0, .AHEAD. ) ;
#251 = CC_DESIGN_PERSON_AND_ORGANIZATION_ASSIGNMENT ( #77, #162, ( #2 ) ) ;
#252 = LINE ( 'NONE', #122, #265 ) ;
#253 = TOROIDAL_SURFACE ( 'NONE', #56, 39.75000000000000000, 0.2500000000000000000 ) ;
#254 = AXIS2_PLACEMENT_3D ( 'NONE', #248, #39, #188 ) ;
#255 = PERSON_AND_ORGANIZATION ( #133, #87 ) ;
#256 = EDGE_CURVE ( 'NONE', #53, #225, #109, .T. ) ;
#257 = CC_DESIGN_DATE_AND_TIME_ASSIGNMENT ( #33, #230, ( #2 ) ) ;
#258 = CIRCLE ( 'NONE', #40, 0.2500000000000002220 ) ;
#259 = AXIS2_PLACEMENT_3D ( 'NONE', #205, #148, #38 ) ;
#260 = EDGE_CURVE ( 'NONE', #100, #276, #131, .T. ) ;
#261 = LOCAL_TIME ( 17, 39, 27.00000000000000000, #250 ) ;
#262 = CARTESIAN_POINT ( 'NONE',  ( 0.000000000000000000, 0.000000000000000000, 0.000000000000000000 ) ) ;
#263 = DIRECTION ( 'NONE',  ( 0.000000000000000000, 0.000000000000000000, -1.000000000000000000 ) ) ;
#264 = DIRECTION ( 'NONE',  ( 0.000000000000000000, 0.000000000000000000, 1.000000000000000000 ) ) ;
#265 = VECTOR ( 'NONE', #12, 1000.000000000000000 ) ;
#266 = CARTESIAN_POINT ( 'NONE',  ( 0.000000000000000000, 5.000000000000000000, 0.000000000000000000 ) ) ;
#267 = EDGE_LOOP ( 'NONE', ( #102, #49 ) ) ;
#268 = CARTESIAN_POINT ( 'NONE',  ( 4.883279111600071132E-15, 0.000000000000000000, -39.75000000000000000 ) ) ;
#269 = DIRECTION ( 'NONE',  ( -0.000000000000000000, -1.000000000000000000, -0.000000000000000000 ) ) ;
#270 =( NAMED_UNIT ( * ) PLANE_ANGLE_UNIT ( ) SI_UNIT ( $, .RADIAN. ) );
#271 = ORIENTED_EDGE ( 'NONE', *, *, #67, .F. ) ;
#272 = MANIFOLD_SOLID_BREP ( 'Verrundung1', #137 ) ;
#273 = AXIS2_PLACEMENT_3D ( 'NONE', #112, #29, #264 ) ;
#274 = PLANE ( 'NONE',  #244 ) ;
#275 = DATE_AND_TIME ( #150, #245 ) ;
#276 = VERTEX_POINT ( 'NONE', #147 ) ;
#277 = PERSON_AND_ORGANIZATION ( #133, #87 ) ;
#278 = CIRCLE ( 'NONE', #259, 40.00000000000000000 ) ;
#279 = CC_DESIGN_PERSON_AND_ORGANIZATION_ASSIGNMENT ( #277, #52, ( #1 ) ) ;
ENDSEC;
END-ISO-10303-21;
