ISO-10303-21;
HEADER;
/* Generated by software containing ST-Developer
 * from STEP Tools, Inc. (www.steptools.com) 
 */

FILE_DESCRIPTION(
/* description */ (''),
/* implementation_level */ '2;1');

FILE_NAME(
/* name */ 
'C:\\Users\\cad\\Desktop\\Zeichnungen neu von Ralph\\3D_Kupplung_R666-
E\\3D_R666-E-DN32-DN50_17113150.stp',
/* time_stamp */ '2021-06-17T09:15:02+02:00',
/* author */ ('cad'),
/* organization */ (''),
/* preprocessor_version */ 'ST-DEVELOPER v18.1',
/* originating_system */ 'Autodesk Inventor 2022',
/* authorisation */ '');

FILE_SCHEMA (('AUTOMOTIVE_DESIGN { 1 0 10303 214 3 1 1 }'));
ENDSEC;

DATA;
#10=MECHANICAL_DESIGN_GEOMETRIC_PRESENTATION_REPRESENTATION('',(#13),#546);
#11=SHAPE_REPRESENTATION_RELATIONSHIP('SRR','None',#553,#12);
#12=ADVANCED_BREP_SHAPE_REPRESENTATION('',(#14),#545);
#13=STYLED_ITEM('',(#562),#14);
#14=MANIFOLD_SOLID_BREP('Volumenk\X\F6rper1',#295);
#15=TOROIDAL_SURFACE('',#351,24.3,0.8);
#16=FACE_BOUND('',#77,.T.);
#17=FACE_BOUND('',#83,.T.);
#18=FACE_BOUND('',#86,.T.);
#19=CONICAL_SURFACE('',#327,23.35,0.785398163397456);
#20=CONICAL_SURFACE('',#329,19.626,0.785398163397445);
#21=CONICAL_SURFACE('',#337,27.1,0.785398163397445);
#22=CONICAL_SURFACE('',#343,27.1,0.785398163397443);
#23=CONICAL_SURFACE('',#347,23.35,0.785398163397456);
#24=CONICAL_SURFACE('',#353,20.476,0.785398163397447);
#25=CIRCLE('',#322,23.5);
#26=CIRCLE('',#323,23.5);
#27=CIRCLE('',#324,23.5);
#28=CIRCLE('',#325,23.5);
#29=CIRCLE('',#326,23.5);
#30=CIRCLE('',#328,23.2);
#31=CIRCLE('',#330,19.776);
#32=CIRCLE('',#331,19.476);
#33=CIRCLE('',#333,26.95);
#34=CIRCLE('',#335,19.476);
#35=CIRCLE('',#336,19.476);
#36=CIRCLE('',#338,27.25);
#37=CIRCLE('',#339,27.25);
#38=CIRCLE('',#341,27.25);
#39=CIRCLE('',#342,27.25);
#40=CIRCLE('',#344,26.95);
#41=CIRCLE('',#346,24.3);
#42=CIRCLE('',#348,23.2);
#43=CIRCLE('',#350,21.476);
#44=CIRCLE('',#352,0.8);
#45=CYLINDRICAL_SURFACE('',#321,23.5);
#46=CYLINDRICAL_SURFACE('',#334,19.476);
#47=CYLINDRICAL_SURFACE('',#340,27.25);
#48=(
BOUNDED_CURVE()
B_SPLINE_CURVE(2,(#459,#460,#461),.UNSPECIFIED.,.F.,.F.)
B_SPLINE_CURVE_WITH_KNOTS((3,3),(0.,0.116569073960353),.UNSPECIFIED.)
CURVE()
GEOMETRIC_REPRESENTATION_ITEM()
RATIONAL_B_SPLINE_CURVE((1.,1.00029099127672,1.))
REPRESENTATION_ITEM('')
);
#49=(
BOUNDED_CURVE()
B_SPLINE_CURVE(2,(#465,#466,#467),.UNSPECIFIED.,.F.,.F.)
B_SPLINE_CURVE_WITH_KNOTS((3,3),(0.,0.116569073960353),.UNSPECIFIED.)
CURVE()
GEOMETRIC_REPRESENTATION_ITEM()
RATIONAL_B_SPLINE_CURVE((1.,1.00029099127802,1.))
REPRESENTATION_ITEM('')
);
#50=(
BOUNDED_CURVE()
B_SPLINE_CURVE(2,(#478,#479,#480),.UNSPECIFIED.,.F.,.F.)
B_SPLINE_CURVE_WITH_KNOTS((3,3),(0.,0.116569073960352),.UNSPECIFIED.)
CURVE()
GEOMETRIC_REPRESENTATION_ITEM()
RATIONAL_B_SPLINE_CURVE((1.,1.0002909912768,1.))
REPRESENTATION_ITEM('')
);
#51=(
BOUNDED_CURVE()
B_SPLINE_CURVE(2,(#484,#485,#486),.UNSPECIFIED.,.F.,.F.)
B_SPLINE_CURVE_WITH_KNOTS((3,3),(0.,0.116569073960352),.UNSPECIFIED.)
CURVE()
GEOMETRIC_REPRESENTATION_ITEM()
RATIONAL_B_SPLINE_CURVE((1.,1.0002909912768,1.))
REPRESENTATION_ITEM('')
);
#52=FACE_OUTER_BOUND('',#69,.T.);
#53=FACE_OUTER_BOUND('',#70,.T.);
#54=FACE_OUTER_BOUND('',#71,.T.);
#55=FACE_OUTER_BOUND('',#72,.T.);
#56=FACE_OUTER_BOUND('',#73,.T.);
#57=FACE_OUTER_BOUND('',#74,.T.);
#58=FACE_OUTER_BOUND('',#75,.T.);
#59=FACE_OUTER_BOUND('',#76,.T.);
#60=FACE_OUTER_BOUND('',#78,.T.);
#61=FACE_OUTER_BOUND('',#79,.T.);
#62=FACE_OUTER_BOUND('',#80,.T.);
#63=FACE_OUTER_BOUND('',#81,.T.);
#64=FACE_OUTER_BOUND('',#82,.T.);
#65=FACE_OUTER_BOUND('',#84,.T.);
#66=FACE_OUTER_BOUND('',#85,.T.);
#67=FACE_OUTER_BOUND('',#87,.T.);
#68=FACE_OUTER_BOUND('',#88,.T.);
#69=EDGE_LOOP('',(#189,#190));
#70=EDGE_LOOP('',(#191,#192,#193,#194,#195,#196));
#71=EDGE_LOOP('',(#197,#198));
#72=EDGE_LOOP('',(#199,#200,#201,#202,#203,#204));
#73=EDGE_LOOP('',(#205,#206,#207,#208,#209,#210,#211,#212,#213,#214,#215,
#216,#217));
#74=EDGE_LOOP('',(#218,#219,#220,#221,#222));
#75=EDGE_LOOP('',(#223,#224,#225,#226));
#76=EDGE_LOOP('',(#227));
#77=EDGE_LOOP('',(#228));
#78=EDGE_LOOP('',(#229,#230,#231,#232,#233));
#79=EDGE_LOOP('',(#234,#235,#236,#237,#238));
#80=EDGE_LOOP('',(#239,#240,#241,#242,#243,#244));
#81=EDGE_LOOP('',(#245,#246,#247,#248,#249));
#82=EDGE_LOOP('',(#250));
#83=EDGE_LOOP('',(#251));
#84=EDGE_LOOP('',(#252,#253,#254,#255));
#85=EDGE_LOOP('',(#256,#257,#258,#259));
#86=EDGE_LOOP('',(#260));
#87=EDGE_LOOP('',(#261,#262,#263,#264,#265));
#88=EDGE_LOOP('',(#266,#267,#268,#269,#270));
#89=LINE('',#454,#104);
#90=LINE('',#457,#105);
#91=LINE('',#463,#106);
#92=LINE('',#468,#107);
#93=LINE('',#473,#108);
#94=LINE('',#476,#109);
#95=LINE('',#482,#110);
#96=LINE('',#487,#111);
#97=LINE('',#493,#112);
#98=LINE('',#504,#113);
#99=LINE('',#514,#114);
#100=LINE('',#517,#115);
#101=LINE('',#523,#116);
#102=LINE('',#529,#117);
#103=LINE('',#542,#118);
#104=VECTOR('',#360,10.);
#105=VECTOR('',#363,10.);
#106=VECTOR('',#364,10.);
#107=VECTOR('',#365,10.);
#108=VECTOR('',#370,10.);
#109=VECTOR('',#373,10.);
#110=VECTOR('',#374,10.);
#111=VECTOR('',#375,10.);
#112=VECTOR('',#380,23.5);
#113=VECTOR('',#397,19.626);
#114=VECTOR('',#410,19.476);
#115=VECTOR('',#413,27.1);
#116=VECTOR('',#420,27.25);
#117=VECTOR('',#427,27.1);
#118=VECTOR('',#448,20.476);
#119=ELLIPSE('',#316,33.2340187157677,23.5);
#120=ELLIPSE('',#319,33.2340187157677,23.5);
#121=VERTEX_POINT('',#451);
#122=VERTEX_POINT('',#452);
#123=VERTEX_POINT('',#456);
#124=VERTEX_POINT('',#458);
#125=VERTEX_POINT('',#462);
#126=VERTEX_POINT('',#464);
#127=VERTEX_POINT('',#470);
#128=VERTEX_POINT('',#471);
#129=VERTEX_POINT('',#475);
#130=VERTEX_POINT('',#477);
#131=VERTEX_POINT('',#481);
#132=VERTEX_POINT('',#483);
#133=VERTEX_POINT('',#489);
#134=VERTEX_POINT('',#490);
#135=VERTEX_POINT('',#492);
#136=VERTEX_POINT('',#501);
#137=VERTEX_POINT('',#503);
#138=VERTEX_POINT('',#507);
#139=VERTEX_POINT('',#510);
#140=VERTEX_POINT('',#511);
#141=VERTEX_POINT('',#516);
#142=VERTEX_POINT('',#518);
#143=VERTEX_POINT('',#522);
#144=VERTEX_POINT('',#524);
#145=VERTEX_POINT('',#528);
#146=VERTEX_POINT('',#532);
#147=VERTEX_POINT('',#537);
#148=EDGE_CURVE('',#121,#122,#119,.T.);
#149=EDGE_CURVE('',#122,#121,#89,.T.);
#150=EDGE_CURVE('',#123,#121,#90,.T.);
#151=EDGE_CURVE('',#124,#123,#48,.T.);
#152=EDGE_CURVE('',#125,#124,#91,.T.);
#153=EDGE_CURVE('',#126,#125,#49,.T.);
#154=EDGE_CURVE('',#122,#126,#92,.T.);
#155=EDGE_CURVE('',#127,#128,#120,.T.);
#156=EDGE_CURVE('',#128,#127,#93,.T.);
#157=EDGE_CURVE('',#129,#127,#94,.T.);
#158=EDGE_CURVE('',#130,#129,#50,.T.);
#159=EDGE_CURVE('',#131,#130,#95,.T.);
#160=EDGE_CURVE('',#132,#131,#51,.T.);
#161=EDGE_CURVE('',#128,#132,#96,.T.);
#162=EDGE_CURVE('',#133,#134,#25,.T.);
#163=EDGE_CURVE('',#133,#135,#97,.T.);
#164=EDGE_CURVE('',#129,#135,#26,.T.);
#165=EDGE_CURVE('',#123,#132,#27,.T.);
#166=EDGE_CURVE('',#135,#126,#28,.T.);
#167=EDGE_CURVE('',#134,#133,#29,.T.);
#168=EDGE_CURVE('',#125,#130,#30,.T.);
#169=EDGE_CURVE('',#136,#136,#31,.T.);
#170=EDGE_CURVE('',#136,#137,#98,.T.);
#171=EDGE_CURVE('',#137,#137,#32,.T.);
#172=EDGE_CURVE('',#138,#138,#33,.T.);
#173=EDGE_CURVE('',#139,#140,#34,.T.);
#174=EDGE_CURVE('',#140,#139,#35,.T.);
#175=EDGE_CURVE('',#140,#137,#99,.T.);
#176=EDGE_CURVE('',#138,#141,#100,.T.);
#177=EDGE_CURVE('',#141,#142,#36,.T.);
#178=EDGE_CURVE('',#142,#141,#37,.T.);
#179=EDGE_CURVE('',#142,#143,#101,.T.);
#180=EDGE_CURVE('',#144,#143,#38,.T.);
#181=EDGE_CURVE('',#143,#144,#39,.T.);
#182=EDGE_CURVE('',#144,#145,#102,.T.);
#183=EDGE_CURVE('',#145,#145,#40,.T.);
#184=EDGE_CURVE('',#146,#146,#41,.T.);
#185=EDGE_CURVE('',#131,#124,#42,.T.);
#186=EDGE_CURVE('',#147,#147,#43,.T.);
#187=EDGE_CURVE('',#134,#146,#44,.T.);
#188=EDGE_CURVE('',#147,#139,#103,.T.);
#189=ORIENTED_EDGE('',*,*,#148,.F.);
#190=ORIENTED_EDGE('',*,*,#149,.F.);
#191=ORIENTED_EDGE('',*,*,#150,.F.);
#192=ORIENTED_EDGE('',*,*,#151,.F.);
#193=ORIENTED_EDGE('',*,*,#152,.F.);
#194=ORIENTED_EDGE('',*,*,#153,.F.);
#195=ORIENTED_EDGE('',*,*,#154,.F.);
#196=ORIENTED_EDGE('',*,*,#149,.T.);
#197=ORIENTED_EDGE('',*,*,#155,.F.);
#198=ORIENTED_EDGE('',*,*,#156,.F.);
#199=ORIENTED_EDGE('',*,*,#157,.F.);
#200=ORIENTED_EDGE('',*,*,#158,.F.);
#201=ORIENTED_EDGE('',*,*,#159,.F.);
#202=ORIENTED_EDGE('',*,*,#160,.F.);
#203=ORIENTED_EDGE('',*,*,#161,.F.);
#204=ORIENTED_EDGE('',*,*,#156,.T.);
#205=ORIENTED_EDGE('',*,*,#162,.F.);
#206=ORIENTED_EDGE('',*,*,#163,.T.);
#207=ORIENTED_EDGE('',*,*,#164,.F.);
#208=ORIENTED_EDGE('',*,*,#157,.T.);
#209=ORIENTED_EDGE('',*,*,#155,.T.);
#210=ORIENTED_EDGE('',*,*,#161,.T.);
#211=ORIENTED_EDGE('',*,*,#165,.F.);
#212=ORIENTED_EDGE('',*,*,#150,.T.);
#213=ORIENTED_EDGE('',*,*,#148,.T.);
#214=ORIENTED_EDGE('',*,*,#154,.T.);
#215=ORIENTED_EDGE('',*,*,#166,.F.);
#216=ORIENTED_EDGE('',*,*,#163,.F.);
#217=ORIENTED_EDGE('',*,*,#167,.F.);
#218=ORIENTED_EDGE('',*,*,#153,.T.);
#219=ORIENTED_EDGE('',*,*,#168,.T.);
#220=ORIENTED_EDGE('',*,*,#158,.T.);
#221=ORIENTED_EDGE('',*,*,#164,.T.);
#222=ORIENTED_EDGE('',*,*,#166,.T.);
#223=ORIENTED_EDGE('',*,*,#169,.T.);
#224=ORIENTED_EDGE('',*,*,#170,.T.);
#225=ORIENTED_EDGE('',*,*,#171,.T.);
#226=ORIENTED_EDGE('',*,*,#170,.F.);
#227=ORIENTED_EDGE('',*,*,#172,.F.);
#228=ORIENTED_EDGE('',*,*,#169,.F.);
#229=ORIENTED_EDGE('',*,*,#173,.F.);
#230=ORIENTED_EDGE('',*,*,#174,.F.);
#231=ORIENTED_EDGE('',*,*,#175,.T.);
#232=ORIENTED_EDGE('',*,*,#171,.F.);
#233=ORIENTED_EDGE('',*,*,#175,.F.);
#234=ORIENTED_EDGE('',*,*,#172,.T.);
#235=ORIENTED_EDGE('',*,*,#176,.T.);
#236=ORIENTED_EDGE('',*,*,#177,.T.);
#237=ORIENTED_EDGE('',*,*,#178,.T.);
#238=ORIENTED_EDGE('',*,*,#176,.F.);
#239=ORIENTED_EDGE('',*,*,#177,.F.);
#240=ORIENTED_EDGE('',*,*,#178,.F.);
#241=ORIENTED_EDGE('',*,*,#179,.T.);
#242=ORIENTED_EDGE('',*,*,#180,.F.);
#243=ORIENTED_EDGE('',*,*,#181,.F.);
#244=ORIENTED_EDGE('',*,*,#179,.F.);
#245=ORIENTED_EDGE('',*,*,#180,.T.);
#246=ORIENTED_EDGE('',*,*,#181,.T.);
#247=ORIENTED_EDGE('',*,*,#182,.T.);
#248=ORIENTED_EDGE('',*,*,#183,.T.);
#249=ORIENTED_EDGE('',*,*,#182,.F.);
#250=ORIENTED_EDGE('',*,*,#183,.F.);
#251=ORIENTED_EDGE('',*,*,#184,.F.);
#252=ORIENTED_EDGE('',*,*,#151,.T.);
#253=ORIENTED_EDGE('',*,*,#165,.T.);
#254=ORIENTED_EDGE('',*,*,#160,.T.);
#255=ORIENTED_EDGE('',*,*,#185,.T.);
#256=ORIENTED_EDGE('',*,*,#152,.T.);
#257=ORIENTED_EDGE('',*,*,#185,.F.);
#258=ORIENTED_EDGE('',*,*,#159,.T.);
#259=ORIENTED_EDGE('',*,*,#168,.F.);
#260=ORIENTED_EDGE('',*,*,#186,.F.);
#261=ORIENTED_EDGE('',*,*,#162,.T.);
#262=ORIENTED_EDGE('',*,*,#187,.T.);
#263=ORIENTED_EDGE('',*,*,#184,.T.);
#264=ORIENTED_EDGE('',*,*,#187,.F.);
#265=ORIENTED_EDGE('',*,*,#167,.T.);
#266=ORIENTED_EDGE('',*,*,#186,.T.);
#267=ORIENTED_EDGE('',*,*,#188,.T.);
#268=ORIENTED_EDGE('',*,*,#173,.T.);
#269=ORIENTED_EDGE('',*,*,#174,.T.);
#270=ORIENTED_EDGE('',*,*,#188,.F.);
#271=PLANE('',#315);
#272=PLANE('',#317);
#273=PLANE('',#318);
#274=PLANE('',#320);
#275=PLANE('',#332);
#276=PLANE('',#345);
#277=PLANE('',#349);
#278=ADVANCED_FACE('',(#52),#271,.F.);
#279=ADVANCED_FACE('',(#53),#272,.F.);
#280=ADVANCED_FACE('',(#54),#273,.F.);
#281=ADVANCED_FACE('',(#55),#274,.F.);
#282=ADVANCED_FACE('',(#56),#45,.T.);
#283=ADVANCED_FACE('',(#57),#19,.T.);
#284=ADVANCED_FACE('',(#58),#20,.F.);
#285=ADVANCED_FACE('',(#59,#16),#275,.T.);
#286=ADVANCED_FACE('',(#60),#46,.F.);
#287=ADVANCED_FACE('',(#61),#21,.T.);
#288=ADVANCED_FACE('',(#62),#47,.T.);
#289=ADVANCED_FACE('',(#63),#22,.T.);
#290=ADVANCED_FACE('',(#64,#17),#276,.T.);
#291=ADVANCED_FACE('',(#65),#23,.T.);
#292=ADVANCED_FACE('',(#66,#18),#277,.T.);
#293=ADVANCED_FACE('',(#67),#15,.F.);
#294=ADVANCED_FACE('',(#68),#24,.F.);
#295=CLOSED_SHELL('',(#278,#279,#280,#281,#282,#283,#284,#285,#286,#287,
#288,#289,#290,#291,#292,#293,#294));
#296=DERIVED_UNIT_ELEMENT(#298,1.);
#297=DERIVED_UNIT_ELEMENT(#548,-3.);
#298=(
MASS_UNIT()
NAMED_UNIT(*)
SI_UNIT($,.GRAM.)
);
#299=DERIVED_UNIT((#296,#297));
#300=MEASURE_REPRESENTATION_ITEM('density measure',
POSITIVE_RATIO_MEASURE(1.),#299);
#301=PROPERTY_DEFINITION_REPRESENTATION(#306,#303);
#302=PROPERTY_DEFINITION_REPRESENTATION(#307,#304);
#303=REPRESENTATION('material name',(#305),#545);
#304=REPRESENTATION('density',(#300),#545);
#305=DESCRIPTIVE_REPRESENTATION_ITEM('Generisch','Generisch');
#306=PROPERTY_DEFINITION('material property','material name',#555);
#307=PROPERTY_DEFINITION('material property','density of part',#555);
#308=DATE_TIME_ROLE('creation_date');
#309=APPLIED_DATE_AND_TIME_ASSIGNMENT(#310,#308,(#555));
#310=DATE_AND_TIME(#311,#312);
#311=CALENDAR_DATE(2021,17,6);
#312=LOCAL_TIME(0,0,0.,#313);
#313=COORDINATED_UNIVERSAL_TIME_OFFSET(0,0,.BEHIND.);
#314=AXIS2_PLACEMENT_3D('placement',#449,#354,#355);
#315=AXIS2_PLACEMENT_3D('',#450,#356,#357);
#316=AXIS2_PLACEMENT_3D('',#453,#358,#359);
#317=AXIS2_PLACEMENT_3D('',#455,#361,#362);
#318=AXIS2_PLACEMENT_3D('',#469,#366,#367);
#319=AXIS2_PLACEMENT_3D('',#472,#368,#369);
#320=AXIS2_PLACEMENT_3D('',#474,#371,#372);
#321=AXIS2_PLACEMENT_3D('',#488,#376,#377);
#322=AXIS2_PLACEMENT_3D('',#491,#378,#379);
#323=AXIS2_PLACEMENT_3D('',#494,#381,#382);
#324=AXIS2_PLACEMENT_3D('',#495,#383,#384);
#325=AXIS2_PLACEMENT_3D('',#496,#385,#386);
#326=AXIS2_PLACEMENT_3D('',#497,#387,#388);
#327=AXIS2_PLACEMENT_3D('',#498,#389,#390);
#328=AXIS2_PLACEMENT_3D('',#499,#391,#392);
#329=AXIS2_PLACEMENT_3D('',#500,#393,#394);
#330=AXIS2_PLACEMENT_3D('',#502,#395,#396);
#331=AXIS2_PLACEMENT_3D('',#505,#398,#399);
#332=AXIS2_PLACEMENT_3D('',#506,#400,#401);
#333=AXIS2_PLACEMENT_3D('',#508,#402,#403);
#334=AXIS2_PLACEMENT_3D('',#509,#404,#405);
#335=AXIS2_PLACEMENT_3D('',#512,#406,#407);
#336=AXIS2_PLACEMENT_3D('',#513,#408,#409);
#337=AXIS2_PLACEMENT_3D('',#515,#411,#412);
#338=AXIS2_PLACEMENT_3D('',#519,#414,#415);
#339=AXIS2_PLACEMENT_3D('',#520,#416,#417);
#340=AXIS2_PLACEMENT_3D('',#521,#418,#419);
#341=AXIS2_PLACEMENT_3D('',#525,#421,#422);
#342=AXIS2_PLACEMENT_3D('',#526,#423,#424);
#343=AXIS2_PLACEMENT_3D('',#527,#425,#426);
#344=AXIS2_PLACEMENT_3D('',#530,#428,#429);
#345=AXIS2_PLACEMENT_3D('',#531,#430,#431);
#346=AXIS2_PLACEMENT_3D('',#533,#432,#433);
#347=AXIS2_PLACEMENT_3D('',#534,#434,#435);
#348=AXIS2_PLACEMENT_3D('',#535,#436,#437);
#349=AXIS2_PLACEMENT_3D('',#536,#438,#439);
#350=AXIS2_PLACEMENT_3D('',#538,#440,#441);
#351=AXIS2_PLACEMENT_3D('',#539,#442,#443);
#352=AXIS2_PLACEMENT_3D('',#540,#444,#445);
#353=AXIS2_PLACEMENT_3D('',#541,#446,#447);
#354=DIRECTION('axis',(0.,0.,1.));
#355=DIRECTION('refdir',(1.,0.,0.));
#356=DIRECTION('center_axis',(0.707106781186548,4.45294665180632E-17,-0.707106781186548));
#357=DIRECTION('ref_axis',(-0.707106781186548,-1.84447089570204E-17,-0.707106781186548));
#358=DIRECTION('center_axis',(0.707106781186548,4.45294665180632E-17,-0.707106781186548));
#359=DIRECTION('ref_axis',(0.707106781186548,0.,0.707106781186548));
#360=DIRECTION('',(0.,1.,6.29741754750836E-17));
#361=DIRECTION('center_axis',(0.,6.29741754750836E-17,-1.));
#362=DIRECTION('ref_axis',(0.,1.,6.29741754750836E-17));
#363=DIRECTION('',(1.,0.,0.));
#364=DIRECTION('',(0.,1.,6.29741754750836E-17));
#365=DIRECTION('',(-1.,0.,0.));
#366=DIRECTION('center_axis',(0.707106781186548,0.,0.707106781186548));
#367=DIRECTION('ref_axis',(0.707106781186548,0.,-0.707106781186548));
#368=DIRECTION('center_axis',(0.707106781186548,0.,0.707106781186548));
#369=DIRECTION('ref_axis',(-0.707106781186548,0.,0.707106781186548));
#370=DIRECTION('',(0.,-1.,0.));
#371=DIRECTION('center_axis',(0.,0.,1.));
#372=DIRECTION('ref_axis',(0.,-1.,0.));
#373=DIRECTION('',(1.,0.,0.));
#374=DIRECTION('',(0.,-1.,0.));
#375=DIRECTION('',(-1.,0.,0.));
#376=DIRECTION('center_axis',(1.,0.,0.));
#377=DIRECTION('ref_axis',(0.,1.,0.));
#378=DIRECTION('center_axis',(1.,0.,0.));
#379=DIRECTION('ref_axis',(0.,-1.,1.83697019872103E-16));
#380=DIRECTION('',(-1.,0.,0.));
#381=DIRECTION('center_axis',(-1.,0.,0.));
#382=DIRECTION('ref_axis',(0.,-1.,0.));
#383=DIRECTION('center_axis',(-1.,0.,0.));
#384=DIRECTION('ref_axis',(0.,-1.,0.));
#385=DIRECTION('center_axis',(-1.,0.,0.));
#386=DIRECTION('ref_axis',(0.,-1.,0.));
#387=DIRECTION('center_axis',(1.,0.,0.));
#388=DIRECTION('ref_axis',(0.,-1.,1.83697019872103E-16));
#389=DIRECTION('center_axis',(1.,0.,0.));
#390=DIRECTION('ref_axis',(0.,-1.,0.));
#391=DIRECTION('center_axis',(1.,0.,0.));
#392=DIRECTION('ref_axis',(0.,-1.,0.));
#393=DIRECTION('center_axis',(1.,0.,0.));
#394=DIRECTION('ref_axis',(0.,0.,1.));
#395=DIRECTION('center_axis',(1.,0.,0.));
#396=DIRECTION('ref_axis',(0.,0.,1.));
#397=DIRECTION('',(-0.70710678118655,-8.6595605623549E-17,0.707106781186545));
#398=DIRECTION('center_axis',(-1.,0.,0.));
#399=DIRECTION('ref_axis',(0.,0.,1.));
#400=DIRECTION('center_axis',(1.,0.,0.));
#401=DIRECTION('ref_axis',(0.,0.,-1.));
#402=DIRECTION('center_axis',(-1.,0.,0.));
#403=DIRECTION('ref_axis',(0.,-1.,0.));
#404=DIRECTION('center_axis',(-1.,0.,0.));
#405=DIRECTION('ref_axis',(0.,0.,1.));
#406=DIRECTION('center_axis',(1.,0.,0.));
#407=DIRECTION('ref_axis',(0.,0.,-1.));
#408=DIRECTION('center_axis',(1.,0.,0.));
#409=DIRECTION('ref_axis',(0.,0.,-1.));
#410=DIRECTION('',(1.,0.,0.));
#411=DIRECTION('center_axis',(-1.,0.,0.));
#412=DIRECTION('ref_axis',(0.,-1.,0.));
#413=DIRECTION('',(-0.70710678118655,0.707106781186545,8.65956056235491E-17));
#414=DIRECTION('center_axis',(1.,0.,0.));
#415=DIRECTION('ref_axis',(0.,-1.,0.));
#416=DIRECTION('center_axis',(1.,0.,0.));
#417=DIRECTION('ref_axis',(0.,-1.,0.));
#418=DIRECTION('center_axis',(1.,0.,0.));
#419=DIRECTION('ref_axis',(0.,1.,0.));
#420=DIRECTION('',(-1.,0.,0.));
#421=DIRECTION('center_axis',(-1.,0.,0.));
#422=DIRECTION('ref_axis',(0.,-1.,0.));
#423=DIRECTION('center_axis',(-1.,0.,0.));
#424=DIRECTION('ref_axis',(0.,-1.,0.));
#425=DIRECTION('center_axis',(1.,0.,0.));
#426=DIRECTION('ref_axis',(0.,-1.,0.));
#427=DIRECTION('',(-0.707106781186551,-0.707106781186544,-8.65956056235488E-17));
#428=DIRECTION('center_axis',(1.,0.,0.));
#429=DIRECTION('ref_axis',(0.,-1.,0.));
#430=DIRECTION('center_axis',(-1.,0.,0.));
#431=DIRECTION('ref_axis',(0.,0.,1.));
#432=DIRECTION('center_axis',(-1.,0.,0.));
#433=DIRECTION('ref_axis',(0.,-1.,1.83697019872103E-16));
#434=DIRECTION('center_axis',(1.,0.,0.));
#435=DIRECTION('ref_axis',(0.,1.,1.22464679914735E-16));
#436=DIRECTION('center_axis',(1.,0.,0.));
#437=DIRECTION('ref_axis',(0.,-1.,0.));
#438=DIRECTION('center_axis',(-1.,0.,0.));
#439=DIRECTION('ref_axis',(0.,0.,1.));
#440=DIRECTION('center_axis',(-1.,0.,0.));
#441=DIRECTION('ref_axis',(0.,0.,-1.));
#442=DIRECTION('center_axis',(1.,0.,0.));
#443=DIRECTION('ref_axis',(0.,0.,-1.));
#444=DIRECTION('center_axis',(0.,-1.,-1.22464679914735E-16));
#445=DIRECTION('ref_axis',(0.,-1.22464679914735E-16,1.));
#446=DIRECTION('center_axis',(-1.,0.,0.));
#447=DIRECTION('ref_axis',(0.,0.,-1.));
#448=DIRECTION('',(0.707106781186548,-8.65956056235492E-17,-0.707106781186547));
#449=CARTESIAN_POINT('',(0.,0.,0.));
#450=CARTESIAN_POINT('Origin',(-5.35385633318829,0.603850678834115,29.1461436668117));
#451=CARTESIAN_POINT('',(-12.,6.78232998312527,22.5));
#452=CARTESIAN_POINT('',(-12.,-6.78232998312528,22.5));
#453=CARTESIAN_POINT('Origin',(-34.5,0.,0.));
#454=CARTESIAN_POINT('',(-12.,35.8634794472784,22.5));
#455=CARTESIAN_POINT('Origin',(-25.,-34.6557780896101,22.5));
#456=CARTESIAN_POINT('',(-24.7,6.78232998312527,22.5));
#457=CARTESIAN_POINT('',(-14.,6.78232998312527,22.5));
#458=CARTESIAN_POINT('',(-25.,5.65597029695168,22.5));
#459=CARTESIAN_POINT('Ctrl Pts',(-25.,5.65597029695168,22.5));
#460=CARTESIAN_POINT('Ctrl Pts',(-24.8635833634115,6.2155322823741,22.5));
#461=CARTESIAN_POINT('Ctrl Pts',(-24.7,6.78232998312525,22.5));
#462=CARTESIAN_POINT('',(-25.,-5.65597029695168,22.5));
#463=CARTESIAN_POINT('',(-25.,-5.57788904480506,22.5));
#464=CARTESIAN_POINT('',(-24.7,-6.78232998312528,22.5));
#465=CARTESIAN_POINT('Ctrl Pts',(-24.7,-6.78232998312525,22.5));
#466=CARTESIAN_POINT('Ctrl Pts',(-24.8635833634115,-6.2155322823741,22.5));
#467=CARTESIAN_POINT('Ctrl Pts',(-25.,-5.65597029695168,22.5));
#468=CARTESIAN_POINT('',(-14.,-6.78232998312528,22.5));
#469=CARTESIAN_POINT('Origin',(-4.44418862460233,0.603850678834115,-30.0558113753977));
#470=CARTESIAN_POINT('',(-12.,-6.78232998312527,-22.5));
#471=CARTESIAN_POINT('',(-12.,6.78232998312527,-22.5));
#472=CARTESIAN_POINT('Origin',(-34.5,0.,0.));
#473=CARTESIAN_POINT('',(-12.,-34.6557780896101,-22.5));
#474=CARTESIAN_POINT('Origin',(-25.,35.8634794472784,-22.5));
#475=CARTESIAN_POINT('',(-24.7,-6.78232998312527,-22.5));
#476=CARTESIAN_POINT('',(-14.,-6.78232998312527,-22.5));
#477=CARTESIAN_POINT('',(-25.,-5.6559702969517,-22.5));
#478=CARTESIAN_POINT('Ctrl Pts',(-25.,-5.6559702969517,-22.5));
#479=CARTESIAN_POINT('Ctrl Pts',(-24.8635833634115,-6.21553228237413,-22.5));
#480=CARTESIAN_POINT('Ctrl Pts',(-24.7,-6.78232998312527,-22.5));
#481=CARTESIAN_POINT('',(-25.,5.6559702969517,-22.5));
#482=CARTESIAN_POINT('',(-25.,29.6817397236392,-22.5));
#483=CARTESIAN_POINT('',(-24.7,6.78232998312527,-22.5));
#484=CARTESIAN_POINT('Ctrl Pts',(-24.7,6.78232998312527,-22.5));
#485=CARTESIAN_POINT('Ctrl Pts',(-24.8635833634115,6.21553228237413,-22.5));
#486=CARTESIAN_POINT('Ctrl Pts',(-25.,5.6559702969517,-22.5));
#487=CARTESIAN_POINT('',(-14.,6.78232998312527,-22.5));
#488=CARTESIAN_POINT('Origin',(-14.,0.,0.));
#489=CARTESIAN_POINT('',(-3.8,-23.5,-2.87791997799628E-15));
#490=CARTESIAN_POINT('',(-3.8,-2.87791997799628E-15,23.5));
#491=CARTESIAN_POINT('Origin',(-3.8,0.,0.));
#492=CARTESIAN_POINT('',(-24.7,-23.5,-2.87791997799628E-15));
#493=CARTESIAN_POINT('',(-14.,-23.5,-2.87791997799628E-15));
#494=CARTESIAN_POINT('Origin',(-24.7,0.,0.));
#495=CARTESIAN_POINT('Origin',(-24.7,0.,0.));
#496=CARTESIAN_POINT('Origin',(-24.7,0.,0.));
#497=CARTESIAN_POINT('Origin',(-3.8,0.,0.));
#498=CARTESIAN_POINT('Origin',(-24.85,0.,0.));
#499=CARTESIAN_POINT('Origin',(-25.,0.,0.));
#500=CARTESIAN_POINT('Origin',(-0.150000000000001,0.,0.));
#501=CARTESIAN_POINT('',(0.,2.42186150999381E-15,-19.776));
#502=CARTESIAN_POINT('Origin',(0.,0.,0.));
#503=CARTESIAN_POINT('',(-0.300000000000002,-2.38512210601939E-15,-19.476));
#504=CARTESIAN_POINT('',(-0.150000000000001,2.4034918080066E-15,-19.626));
#505=CARTESIAN_POINT('Origin',(-0.300000000000002,0.,0.));
#506=CARTESIAN_POINT('Origin',(0.,0.,0.));
#507=CARTESIAN_POINT('',(0.,26.95,-3.30042312370212E-15));
#508=CARTESIAN_POINT('Origin',(0.,0.,0.));
#509=CARTESIAN_POINT('Origin',(56.027773016417,0.,0.));
#510=CARTESIAN_POINT('',(-23.,-2.38512210601939E-15,19.476));
#511=CARTESIAN_POINT('',(-23.,-2.38512210601939E-15,-19.476));
#512=CARTESIAN_POINT('Origin',(-23.,0.,0.));
#513=CARTESIAN_POINT('Origin',(-23.,0.,0.));
#514=CARTESIAN_POINT('',(56.027773016417,-2.38512210601939E-15,-19.476));
#515=CARTESIAN_POINT('Origin',(-0.15,0.,0.));
#516=CARTESIAN_POINT('',(-0.3,27.25,3.33716252767654E-15));
#517=CARTESIAN_POINT('',(-0.15,27.1,3.31879282568933E-15));
#518=CARTESIAN_POINT('',(-0.3,-27.25,-3.33716252767654E-15));
#519=CARTESIAN_POINT('Origin',(-0.3,0.,0.));
#520=CARTESIAN_POINT('Origin',(-0.3,0.,0.));
#521=CARTESIAN_POINT('Origin',(-1.5,0.,0.));
#522=CARTESIAN_POINT('',(-2.7,-27.25,-3.33716252767654E-15));
#523=CARTESIAN_POINT('',(-1.5,-27.25,-3.33716252767654E-15));
#524=CARTESIAN_POINT('',(-2.7,27.25,-3.33716252767654E-15));
#525=CARTESIAN_POINT('Origin',(-2.7,0.,0.));
#526=CARTESIAN_POINT('Origin',(-2.7,0.,0.));
#527=CARTESIAN_POINT('Origin',(-2.85,0.,0.));
#528=CARTESIAN_POINT('',(-3.,26.95,3.30042312370212E-15));
#529=CARTESIAN_POINT('',(-2.85,27.1,3.31879282568933E-15));
#530=CARTESIAN_POINT('Origin',(-3.,0.,0.));
#531=CARTESIAN_POINT('Origin',(-3.,27.25,0.));
#532=CARTESIAN_POINT('',(-3.,-2.97589172192807E-15,24.3));
#533=CARTESIAN_POINT('Origin',(-3.,0.,0.));
#534=CARTESIAN_POINT('Origin',(-24.85,0.,0.));
#535=CARTESIAN_POINT('Origin',(-25.,0.,0.));
#536=CARTESIAN_POINT('Origin',(-25.,23.5,0.));
#537=CARTESIAN_POINT('',(-25.,2.63005146584886E-15,21.476));
#538=CARTESIAN_POINT('Origin',(-25.,0.,0.));
#539=CARTESIAN_POINT('Origin',(-3.8,0.,0.));
#540=CARTESIAN_POINT('Origin',(-3.8,-2.97589172192807E-15,24.3));
#541=CARTESIAN_POINT('Origin',(-24.,0.,0.));
#542=CARTESIAN_POINT('',(-24.,2.50758678593412E-15,20.476));
#543=UNCERTAINTY_MEASURE_WITH_UNIT(LENGTH_MEASURE(0.01),#547,
'DISTANCE_ACCURACY_VALUE',
'Maximum model space distance between geometric entities at asserted c
onnectivities');
#544=UNCERTAINTY_MEASURE_WITH_UNIT(LENGTH_MEASURE(0.01),#547,
'DISTANCE_ACCURACY_VALUE',
'Maximum model space distance between geometric entities at asserted c
onnectivities');
#545=(
GEOMETRIC_REPRESENTATION_CONTEXT(3)
GLOBAL_UNCERTAINTY_ASSIGNED_CONTEXT((#543))
GLOBAL_UNIT_ASSIGNED_CONTEXT((#547,#549,#550))
REPRESENTATION_CONTEXT('','3D')
);
#546=(
GEOMETRIC_REPRESENTATION_CONTEXT(3)
GLOBAL_UNCERTAINTY_ASSIGNED_CONTEXT((#544))
GLOBAL_UNIT_ASSIGNED_CONTEXT((#547,#549,#550))
REPRESENTATION_CONTEXT('','3D')
);
#547=(
LENGTH_UNIT()
NAMED_UNIT(*)
SI_UNIT(.MILLI.,.METRE.)
);
#548=(
LENGTH_UNIT()
NAMED_UNIT(*)
SI_UNIT(.CENTI.,.METRE.)
);
#549=(
NAMED_UNIT(*)
PLANE_ANGLE_UNIT()
SI_UNIT($,.RADIAN.)
);
#550=(
NAMED_UNIT(*)
SI_UNIT($,.STERADIAN.)
SOLID_ANGLE_UNIT()
);
#551=SHAPE_DEFINITION_REPRESENTATION(#552,#553);
#552=PRODUCT_DEFINITION_SHAPE('',$,#555);
#553=SHAPE_REPRESENTATION('',(#314),#545);
#554=PRODUCT_DEFINITION_CONTEXT('part definition',#559,'design');
#555=PRODUCT_DEFINITION('3D_R666-E-DN32-DN50_17113150',
'3D_R666-E-DN32-DN50_17113150',#556,#554);
#556=PRODUCT_DEFINITION_FORMATION('',$,#561);
#557=PRODUCT_RELATED_PRODUCT_CATEGORY('3D_R666-E-DN32-DN50_17113150',
'3D_R666-E-DN32-DN50_17113150',(#561));
#558=APPLICATION_PROTOCOL_DEFINITION('international standard',
'automotive_design',2009,#559);
#559=APPLICATION_CONTEXT(
'Core Data for Automotive Mechanical Design Process');
#560=PRODUCT_CONTEXT('part definition',#559,'mechanical');
#561=PRODUCT('3D_R666-E-DN32-DN50_17113150',
'3D_R666-E-DN32-DN50_17113150',$,(#560));
#562=PRESENTATION_STYLE_ASSIGNMENT((#563));
#563=SURFACE_STYLE_USAGE(.BOTH.,#566);
#564=SURFACE_STYLE_RENDERING_WITH_PROPERTIES($,#570,(#565));
#565=SURFACE_STYLE_TRANSPARENT(0.);
#566=SURFACE_SIDE_STYLE('',(#567,#564));
#567=SURFACE_STYLE_FILL_AREA(#568);
#568=FILL_AREA_STYLE('',(#569));
#569=FILL_AREA_STYLE_COLOUR('',#570);
#570=COLOUR_RGB('',0.749019607843137,0.749019607843137,0.749019607843137);
ENDSEC;
END-ISO-10303-21;
