ISO-10303-21;
HEADER;
FILE_DESCRIPTION (( 'STEP AP203' ),
    '1' );
FILE_NAME ('3D_M-2030P_80_174774055.STEP',
    '2024-09-10T06:59:00',
    ( '' ),
    ( '' ),
    'SwSTEP 2.0',
    'SolidWorks 2024',
    '' );
FILE_SCHEMA (( 'CONFIG_CONTROL_DESIGN' ));
ENDSEC;

DATA;
#1 = DIRECTION ( 'NONE',  ( -1.000000000000000000, -0.000000000000000000, -0.000000000000000000 ) ) ;
#2 = LINE ( 'NONE', #173, #156 ) ;
#3 = ORIENTED_EDGE ( 'NONE', *, *, #50, .T. ) ;
#4 = AXIS2_PLACEMENT_3D ( 'NONE', #229, #123, #215 ) ;
#5 = CARTESIAN_POINT ( 'NONE',  ( -3.999999999999989786, 0.000000000000000000, 0.000000000000000000 ) ) ;
#6 = ORIENTED_EDGE ( 'NONE', *, *, #88, .T. ) ;
#7 = CARTESIAN_POINT ( 'NONE',  ( -108.2865231617622612, 5.694607616035188333E-15, -46.49999999999996447 ) ) ;
#8 = ORIENTED_EDGE ( 'NONE', *, *, #221, .T. ) ;
#9 = FACE_OUTER_BOUND ( 'NONE', #100, .T. ) ;
#10 = CALENDAR_DATE ( 2024, 10, 9 ) ;
#11 = ORIENTED_EDGE ( 'NONE', *, *, #236, .F. ) ;
#12 = CALENDAR_DATE ( 2024, 10, 9 ) ;
#13 = APPROVAL_DATE_TIME ( #35, #252 ) ;
#14 = ORIENTED_EDGE ( 'NONE', *, *, #68, .T. ) ;
#15 = PERSON_AND_ORGANIZATION ( #251, #184 ) ;
#16 = CONICAL_SURFACE ( 'NONE', #38, 49.99999999999997158, 0.3490658503988630090 ) ;
#17 = ADVANCED_FACE ( 'NONE', ( #21 ), #19, .T. ) ;
#18 = APPROVAL_STATUS ( 'not_yet_approved' ) ;
#19 = CYLINDRICAL_SURFACE ( 'NONE', #22, 46.49999999999996447 ) ;
#20 = CC_DESIGN_APPROVAL ( #64, ( #71 ) ) ;
#21 = FACE_OUTER_BOUND ( 'NONE', #128, .T. ) ;
#22 = AXIS2_PLACEMENT_3D ( 'NONE', #121, #208, #98 ) ;
#23 = EDGE_LOOP ( 'NONE', ( #194, #28, #47, #112 ) ) ;
#24 = CARTESIAN_POINT ( 'NONE',  ( -3.999999999999989786, 0.000000000000000000, -49.99999999999997158 ) ) ;
#25 = LINE ( 'NONE', #7, #230 ) ;
#26 = DIRECTION ( 'NONE',  ( -1.000000000000000000, -0.000000000000000000, -0.000000000000000000 ) ) ;
#27 = DIRECTION ( 'NONE',  ( -0.000000000000000000, 0.000000000000000000, 1.000000000000000000 ) ) ;
#28 = ORIENTED_EDGE ( 'NONE', *, *, #33, .T. ) ;
#29 = AXIS2_PLACEMENT_3D ( 'NONE', #5, #58, #217 ) ;
#30 = DIRECTION ( 'NONE',  ( -0.000000000000000000, 0.000000000000000000, 1.000000000000000000 ) ) ;
#31 = CC_DESIGN_APPROVAL ( #252, ( #202 ) ) ;
#32 = DIRECTION ( 'NONE',  ( 0.000000000000000000, 0.000000000000000000, -1.000000000000000000 ) ) ;
#33 = EDGE_CURVE ( 'NONE', #106, #62, #181, .T. ) ;
#34 = CALENDAR_DATE ( 2024, 10, 9 ) ;
#35 = DATE_AND_TIME ( #201, #43 ) ;
#36 = APPROVAL_STATUS ( 'not_yet_approved' ) ;
#37 = PERSON_AND_ORGANIZATION ( #251, #184 ) ;
#38 = AXIS2_PLACEMENT_3D ( 'NONE', #183, #76, #158 ) ;
#39 = CC_DESIGN_APPROVAL ( #162, ( #193 ) ) ;
#40 = VERTEX_POINT ( 'NONE', #161 ) ;
#41 = PLANE ( 'NONE',  #177 ) ;
#42 = DIRECTION ( 'NONE',  ( -1.000000000000000000, -0.000000000000000000, -0.000000000000000000 ) ) ;
#43 = LOCAL_TIME ( 8, 59, 0.000000000000000000, #66 ) ;
#44 = CARTESIAN_POINT ( 'NONE',  ( -3.999999999999989786, 0.000000000000000000, 0.000000000000000000 ) ) ;
#45 = VERTEX_POINT ( 'NONE', #24 ) ;
#46 = DIRECTION ( 'NONE',  ( 0.000000000000000000, 0.000000000000000000, 1.000000000000000000 ) ) ;
#47 = ORIENTED_EDGE ( 'NONE', *, *, #94, .T. ) ;
#48 = CARTESIAN_POINT ( 'NONE',  ( -15.99999999999998579, 5.855793006309354381E-15, 45.63235718880557812 ) ) ;
#49 = CALENDAR_DATE ( 2024, 10, 9 ) ;
#50 = EDGE_CURVE ( 'NONE', #159, #67, #79, .T. ) ;
#51 = PERSON_AND_ORGANIZATION ( #251, #184 ) ;
#52 = APPROVAL_STATUS ( 'not_yet_approved' ) ;
#53 = CONICAL_SURFACE ( 'NONE', #4, 49.99999999999997158, 0.3490658503988630090 ) ;
#54 = ORIENTED_EDGE ( 'NONE', *, *, #122, .T. ) ;
#55 = DIRECTION ( 'NONE',  ( -1.000000000000000000, -0.000000000000000000, -0.000000000000000000 ) ) ;
#56 = CIRCLE ( 'NONE', #210, 49.99999999999997158 ) ;
#57 = ADVANCED_FACE ( 'NONE', ( #186 ), #16, .T. ) ;
#58 = DIRECTION ( 'NONE',  ( -1.000000000000000000, -0.000000000000000000, -0.000000000000000000 ) ) ;
#59 = AXIS2_PLACEMENT_3D ( 'NONE', #60, #143, #27 ) ;
#60 = CARTESIAN_POINT ( 'NONE',  ( 1.734723475976807094E-15, 46.49999999999996447, 0.000000000000000000 ) ) ;
#61 = DIRECTION ( 'NONE',  ( 0.000000000000000000, 0.000000000000000000, 1.000000000000000000 ) ) ;
#62 = VERTEX_POINT ( 'NONE', #235 ) ;
#63 = DIRECTION ( 'NONE',  ( 0.000000000000000000, 0.000000000000000000, 1.000000000000000000 ) ) ;
#64 = APPROVAL ( #18, 'UNSPECIFIED' ) ;
#65 = AXIS2_PLACEMENT_3D ( 'NONE', #250, #231, #136 ) ;
#66 = COORDINATED_UNIVERSAL_TIME_OFFSET ( 1, 0, .AHEAD. ) ;
#67 = VERTEX_POINT ( 'NONE', #244 ) ;
#68 = EDGE_CURVE ( 'NONE', #92, #67, #90, .T. ) ;
#69 = CIRCLE ( 'NONE', #224, 46.49999999999996447 ) ;
#70 = COORDINATED_UNIVERSAL_TIME_OFFSET ( 1, 0, .AHEAD. ) ;
#71 = SECURITY_CLASSIFICATION ( '', '', #218 ) ;
#72 = APPROVAL_DATE_TIME ( #179, #162 ) ;
#73 = DATE_AND_TIME ( #10, #138 ) ;
#74 = AXIS2_PLACEMENT_3D ( 'NONE', #146, #111, #32 ) ;
#75 = CARTESIAN_POINT ( 'NONE',  ( -108.2865231617622612, 0.000000000000000000, 46.49999999999996447 ) ) ;
#76 = DIRECTION ( 'NONE',  ( 1.000000000000000000, 0.000000000000000000, 0.000000000000000000 ) ) ;
#77 = CARTESIAN_POINT ( 'NONE',  ( -3.999999999999989786, 6.123233995736762141E-15, 49.99999999999997158 ) ) ;
#78 = APPLICATION_CONTEXT ( 'configuration controlled 3d designs of mechanical parts and assemblies' ) ;
#79 = LINE ( 'NONE', #75, #249 ) ;
#80 = FACE_OUTER_BOUND ( 'NONE', #155, .T. ) ;
#81 = ADVANCED_FACE ( 'NONE', ( #9 ), #53, .T. ) ;
#82 = FACE_OUTER_BOUND ( 'NONE', #126, .T. ) ;
#83 = DIRECTION ( 'NONE',  ( 0.000000000000000000, 0.000000000000000000, 1.000000000000000000 ) ) ;
#84 =( GEOMETRIC_REPRESENTATION_CONTEXT ( 3 ) GLOBAL_UNCERTAINTY_ASSIGNED_CONTEXT ( ( #212 ) ) GLOBAL_UNIT_ASSIGNED_CONTEXT ( ( #190, #117, #176 ) ) REPRESENTATION_CONTEXT ( 'NONE', 'WORKASPACE' ) );
#85 = ORIENTED_EDGE ( 'NONE', *, *, #236, .T. ) ;
#86 = CARTESIAN_POINT ( 'NONE',  ( -3.999999999999989786, 0.000000000000000000, 0.000000000000000000 ) ) ;
#87 = ORIENTED_EDGE ( 'NONE', *, *, #33, .F. ) ;
#88 = EDGE_CURVE ( 'NONE', #167, #92, #25, .T. ) ;
#89 = DIRECTION ( 'NONE',  ( 0.000000000000000000, 0.000000000000000000, 1.000000000000000000 ) ) ;
#90 = CIRCLE ( 'NONE', #160, 46.49999999999996447 ) ;
#91 = MECHANICAL_CONTEXT ( 'NONE', #78, 'mechanical' ) ;
#92 = VERTEX_POINT ( 'NONE', #213 ) ;
#93 = APPROVAL_DATE_TIME ( #175, #64 ) ;
#94 = EDGE_CURVE ( 'NONE', #62, #45, #151, .T. ) ;
#95 = DATE_AND_TIME ( #49, #234 ) ;
#96 = APPLICATION_CONTEXT ( 'configuration controlled 3d designs of mechanical parts and assemblies' ) ;
#97 = DATE_TIME_ROLE ( 'classification_date' ) ;
#98 = DIRECTION ( 'NONE',  ( 0.000000000000000000, 0.000000000000000000, 1.000000000000000000 ) ) ;
#99 = APPROVAL_PERSON_ORGANIZATION ( #204, #64, #149 ) ;
#100 = EDGE_LOOP ( 'NONE', ( #87, #247, #110, #219 ) ) ;
#101 = CC_DESIGN_PERSON_AND_ORGANIZATION_ASSIGNMENT ( #15, #203, ( #71 ) ) ;
#102 = ADVANCED_BREP_SHAPE_REPRESENTATION ( '3D_M-2030P_80_174774055', ( #237, #65 ), #84 ) ;
#103 = DIRECTION ( 'NONE',  ( -1.000000000000000000, -0.000000000000000000, -0.000000000000000000 ) ) ;
#104 = FACE_BOUND ( 'NONE', #228, .T. ) ;
#105 = CARTESIAN_POINT ( 'NONE',  ( 0.000000000000000000, 0.000000000000000000, 0.000000000000000000 ) ) ;
#106 = VERTEX_POINT ( 'NONE', #48 ) ;
#107 = ORIENTED_EDGE ( 'NONE', *, *, #196, .T. ) ;
#108 = AXIS2_PLACEMENT_3D ( 'NONE', #226, #55, #89 ) ;
#109 = AXIS2_PLACEMENT_3D ( 'NONE', #105, #125, #165 ) ;
#110 = ORIENTED_EDGE ( 'NONE', *, *, #137, .T. ) ;
#111 = DIRECTION ( 'NONE',  ( 1.000000000000000000, 0.000000000000000000, 0.000000000000000000 ) ) ;
#112 = ORIENTED_EDGE ( 'NONE', *, *, #137, .F. ) ;
#113 = PERSON_AND_ORGANIZATION ( #251, #184 ) ;
#114 = CIRCLE ( 'NONE', #255, 45.63235718880557812 ) ;
#115 = APPROVAL_ROLE ( '' ) ;
#116 = ORIENTED_EDGE ( 'NONE', *, *, #68, .F. ) ;
#117 =( NAMED_UNIT ( * ) PLANE_ANGLE_UNIT ( ) SI_UNIT ( $, .RADIAN. ) );
#118 = PERSON_AND_ORGANIZATION_ROLE ( 'design_supplier' ) ;
#119 = CC_DESIGN_PERSON_AND_ORGANIZATION_ASSIGNMENT ( #51, #118, ( #193 ) ) ;
#120 = ORIENTED_EDGE ( 'NONE', *, *, #122, .F. ) ;
#121 = CARTESIAN_POINT ( 'NONE',  ( -108.2865231617622612, 0.000000000000000000, 0.000000000000000000 ) ) ;
#122 = EDGE_CURVE ( 'NONE', #167, #159, #166, .T. ) ;
#123 = DIRECTION ( 'NONE',  ( 1.000000000000000000, 0.000000000000000000, 0.000000000000000000 ) ) ;
#124 = CARTESIAN_POINT ( 'NONE',  ( 0.000000000000000000, 5.694607616035188333E-15, -46.49999999999996447 ) ) ;
#125 = DIRECTION ( 'NONE',  ( -1.000000000000000000, -0.000000000000000000, -0.000000000000000000 ) ) ;
#126 = EDGE_LOOP ( 'NONE', ( #85, #6, #241, #157 ) ) ;
#127 = FACE_OUTER_BOUND ( 'NONE', #214, .T. ) ;
#128 = EDGE_LOOP ( 'NONE', ( #206, #54, #3, #116 ) ) ;
#129 = VECTOR ( 'NONE', #254, 1000.000000000000000 ) ;
#130 = DIRECTION ( 'NONE',  ( -1.000000000000000000, -0.000000000000000000, -0.000000000000000000 ) ) ;
#131 = PRODUCT ( '3D_M-2030P_80_174774055', '3D_M-2030P_80_174774055', '', ( #91 ) ) ;
#132 = CC_DESIGN_PERSON_AND_ORGANIZATION_ASSIGNMENT ( #152, #248, ( #202 ) ) ;
#133 = APPLICATION_PROTOCOL_DEFINITION ( 'international standard', 'config_control_design', 1994, #78 ) ;
#134 = DATE_TIME_ROLE ( 'creation_date' ) ;
#135 = ORIENTED_EDGE ( 'NONE', *, *, #94, .F. ) ;
#136 = DIRECTION ( 'NONE',  ( 1.000000000000000000, 0.000000000000000000, 0.000000000000000000 ) ) ;
#137 = EDGE_CURVE ( 'NONE', #40, #45, #2, .T. ) ;
#138 = LOCAL_TIME ( 8, 59, 0.000000000000000000, #197 ) ;
#139 = ADVANCED_FACE ( 'NONE', ( #80 ), #243, .F. ) ;
#140 = CARTESIAN_POINT ( 'NONE',  ( -15.99999999999998579, 0.000000000000000000, 0.000000000000000000 ) ) ;
#141 = AXIS2_PLACEMENT_3D ( 'NONE', #140, #42, #46 ) ;
#142 = DESIGN_CONTEXT ( 'detailed design', #96, 'design' ) ;
#143 = DIRECTION ( 'NONE',  ( -1.000000000000000000, 0.000000000000000000, -0.000000000000000000 ) ) ;
#144 = CC_DESIGN_PERSON_AND_ORGANIZATION_ASSIGNMENT ( #113, #233, ( #193 ) ) ;
#145 = DIRECTION ( 'NONE',  ( -1.000000000000000000, -0.000000000000000000, -0.000000000000000000 ) ) ;
#146 = CARTESIAN_POINT ( 'NONE',  ( -15.99999999999999289, -3.315318599521195210E-14, 0.000000000000000000 ) ) ;
#147 = CYLINDRICAL_SURFACE ( 'NONE', #108, 46.49999999999996447 ) ;
#148 = APPROVAL_PERSON_ORGANIZATION ( #232, #162, #115 ) ;
#149 = APPROVAL_ROLE ( '' ) ;
#150 = PERSON_AND_ORGANIZATION_ROLE ( 'design_owner' ) ;
#151 = CIRCLE ( 'NONE', #29, 49.99999999999997158 ) ;
#152 = PERSON_AND_ORGANIZATION ( #251, #184 ) ;
#153 = APPROVAL_PERSON_ORGANIZATION ( #37, #252, #220 ) ;
#154 = COORDINATED_UNIVERSAL_TIME_OFFSET ( 1, 0, .AHEAD. ) ;
#155 = EDGE_LOOP ( 'NONE', ( #8, #107 ) ) ;
#156 = VECTOR ( 'NONE', #239, 1000.000000000000000 ) ;
#157 = ORIENTED_EDGE ( 'NONE', *, *, #50, .F. ) ;
#158 = DIRECTION ( 'NONE',  ( 0.000000000000000000, 0.000000000000000000, -1.000000000000000000 ) ) ;
#159 = VERTEX_POINT ( 'NONE', #195 ) ;
#160 = AXIS2_PLACEMENT_3D ( 'NONE', #86, #145, #61 ) ;
#161 = CARTESIAN_POINT ( 'NONE',  ( -15.99999999999998579, 0.000000000000000000, -45.63235718880557812 ) ) ;
#162 = APPROVAL ( #36, 'UNSPECIFIED' ) ;
#163 = DIRECTION ( 'NONE',  ( 0.000000000000000000, 0.000000000000000000, 1.000000000000000000 ) ) ;
#164 = CC_DESIGN_SECURITY_CLASSIFICATION ( #71, ( #193 ) ) ;
#165 = DIRECTION ( 'NONE',  ( 0.000000000000000000, 0.000000000000000000, 1.000000000000000000 ) ) ;
#166 = CIRCLE ( 'NONE', #191, 46.49999999999996447 ) ;
#167 = VERTEX_POINT ( 'NONE', #124 ) ;
#168 = CC_DESIGN_DATE_AND_TIME_ASSIGNMENT ( #95, #134, ( #202 ) ) ;
#169 = CARTESIAN_POINT ( 'NONE',  ( 0.000000000000000000, 0.000000000000000000, 0.000000000000000000 ) ) ;
#170 = ORIENTED_EDGE ( 'NONE', *, *, #172, .T. ) ;
#171 = CARTESIAN_POINT ( 'NONE',  ( -3.999999999999989786, 0.000000000000000000, 0.000000000000000000 ) ) ;
#172 = EDGE_CURVE ( 'NONE', #67, #92, #69, .T. ) ;
#173 = CARTESIAN_POINT ( 'NONE',  ( -3.999999999999989786, 0.000000000000000000, -49.99999999999997158 ) ) ;
#174 = LOCAL_TIME ( 8, 59, 0.000000000000000000, #70 ) ;
#175 = DATE_AND_TIME ( #12, #180 ) ;
#176 =( NAMED_UNIT ( * ) SI_UNIT ( $, .STERADIAN. ) SOLID_ANGLE_UNIT ( ) );
#177 = AXIS2_PLACEMENT_3D ( 'NONE', #209, #187, #30 ) ;
#178 = PRODUCT_RELATED_PRODUCT_CATEGORY ( 'detail', '', ( #131 ) ) ;
#179 = DATE_AND_TIME ( #34, #174 ) ;
#180 = LOCAL_TIME ( 8, 59, 0.000000000000000000, #200 ) ;
#181 = LINE ( 'NONE', #77, #129 ) ;
#182 = CIRCLE ( 'NONE', #141, 45.63235718880557812 ) ;
#183 = CARTESIAN_POINT ( 'NONE',  ( -3.999999999999989786, 0.000000000000000000, 0.000000000000000000 ) ) ;
#184 = ORGANIZATION ( 'UNSPECIFIED', 'UNSPECIFIED', '' ) ;
#185 = ADVANCED_FACE ( 'NONE', ( #82 ), #147, .T. ) ;
#186 = FACE_OUTER_BOUND ( 'NONE', #23, .T. ) ;
#187 = DIRECTION ( 'NONE',  ( -1.000000000000000000, 0.000000000000000000, -0.000000000000000000 ) ) ;
#188 = DIRECTION ( 'NONE',  ( -1.000000000000000000, -0.000000000000000000, -0.000000000000000000 ) ) ;
#189 = ADVANCED_FACE ( 'NONE', ( #211, #104 ), #41, .F. ) ;
#190 =( LENGTH_UNIT ( ) NAMED_UNIT ( * ) SI_UNIT ( .MILLI., .METRE. ) );
#191 = AXIS2_PLACEMENT_3D ( 'NONE', #169, #130, #63 ) ;
#192 = ORIENTED_EDGE ( 'NONE', *, *, #222, .F. ) ;
#193 = PRODUCT_DEFINITION_FORMATION_WITH_SPECIFIED_SOURCE ( 'ANY', '', #131, .NOT_KNOWN. ) ;
#194 = ORIENTED_EDGE ( 'NONE', *, *, #196, .F. ) ;
#195 = CARTESIAN_POINT ( 'NONE',  ( 0.000000000000000000, 0.000000000000000000, 46.49999999999996447 ) ) ;
#196 = EDGE_CURVE ( 'NONE', #106, #40, #114, .T. ) ;
#197 = COORDINATED_UNIVERSAL_TIME_OFFSET ( 1, 0, .AHEAD. ) ;
#198 = PRODUCT_DEFINITION_SHAPE ( 'NONE', 'NONE',  #202 ) ;
#199 = CLOSED_SHELL ( 'NONE', ( #185, #57, #139, #81, #189, #17, #238 ) ) ;
#200 = COORDINATED_UNIVERSAL_TIME_OFFSET ( 1, 0, .AHEAD. ) ;
#201 = CALENDAR_DATE ( 2024, 10, 9 ) ;
#202 = PRODUCT_DEFINITION ( 'UNKNOWN', '', #193, #142 ) ;
#203 = PERSON_AND_ORGANIZATION_ROLE ( 'classification_officer' ) ;
#204 = PERSON_AND_ORGANIZATION ( #251, #184 ) ;
#205 = CC_DESIGN_PERSON_AND_ORGANIZATION_ASSIGNMENT ( #245, #150, ( #131 ) ) ;
#206 = ORIENTED_EDGE ( 'NONE', *, *, #88, .F. ) ;
#207 = CIRCLE ( 'NONE', #109, 46.49999999999996447 ) ;
#208 = DIRECTION ( 'NONE',  ( -1.000000000000000000, -0.000000000000000000, -0.000000000000000000 ) ) ;
#209 = CARTESIAN_POINT ( 'NONE',  ( -3.999999999999991562, 49.99999999999997158, 0.000000000000000000 ) ) ;
#210 = AXIS2_PLACEMENT_3D ( 'NONE', #44, #26, #83 ) ;
#211 = FACE_OUTER_BOUND ( 'NONE', #216, .T. ) ;
#212 = UNCERTAINTY_MEASURE_WITH_UNIT (LENGTH_MEASURE( 1.000000000000000082E-05 ), #190, 'distance_accuracy_value', 'NONE');
#213 = CARTESIAN_POINT ( 'NONE',  ( -3.999999999999989786, 5.694607616035188333E-15, -46.49999999999996447 ) ) ;
#214 = EDGE_LOOP ( 'NONE', ( #11, #120 ) ) ;
#215 = DIRECTION ( 'NONE',  ( 0.000000000000000000, 0.000000000000000000, -1.000000000000000000 ) ) ;
#216 = EDGE_LOOP ( 'NONE', ( #192, #135 ) ) ;
#217 = DIRECTION ( 'NONE',  ( 0.000000000000000000, 0.000000000000000000, 1.000000000000000000 ) ) ;
#218 = SECURITY_CLASSIFICATION_LEVEL ( 'unclassified' ) ;
#219 = ORIENTED_EDGE ( 'NONE', *, *, #222, .T. ) ;
#220 = APPROVAL_ROLE ( '' ) ;
#221 = EDGE_CURVE ( 'NONE', #40, #106, #182, .T. ) ;
#222 = EDGE_CURVE ( 'NONE', #45, #62, #56, .T. ) ;
#223 = CC_DESIGN_DATE_AND_TIME_ASSIGNMENT ( #73, #97, ( #71 ) ) ;
#224 = AXIS2_PLACEMENT_3D ( 'NONE', #171, #227, #225 ) ;
#225 = DIRECTION ( 'NONE',  ( 0.000000000000000000, 0.000000000000000000, 1.000000000000000000 ) ) ;
#226 = CARTESIAN_POINT ( 'NONE',  ( -108.2865231617622612, 0.000000000000000000, 0.000000000000000000 ) ) ;
#227 = DIRECTION ( 'NONE',  ( -1.000000000000000000, -0.000000000000000000, -0.000000000000000000 ) ) ;
#228 = EDGE_LOOP ( 'NONE', ( #170, #14 ) ) ;
#229 = CARTESIAN_POINT ( 'NONE',  ( -3.999999999999989786, 0.000000000000000000, 0.000000000000000000 ) ) ;
#230 = VECTOR ( 'NONE', #188, 1000.000000000000000 ) ;
#231 = DIRECTION ( 'NONE',  ( 0.000000000000000000, 0.000000000000000000, 1.000000000000000000 ) ) ;
#232 = PERSON_AND_ORGANIZATION ( #251, #184 ) ;
#233 = PERSON_AND_ORGANIZATION_ROLE ( 'creator' ) ;
#234 = LOCAL_TIME ( 8, 59, 0.000000000000000000, #154 ) ;
#235 = CARTESIAN_POINT ( 'NONE',  ( -3.999999999999989786, 6.123233995736762141E-15, 49.99999999999997158 ) ) ;
#236 = EDGE_CURVE ( 'NONE', #159, #167, #207, .T. ) ;
#237 = MANIFOLD_SOLID_BREP ( 'Rotation1', #199 ) ;
#238 = ADVANCED_FACE ( 'NONE', ( #127 ), #240, .F. ) ;
#239 = DIRECTION ( 'NONE',  ( 0.9396926207859094271, 0.000000000000000000, -0.3420201433256659929 ) ) ;
#240 = PLANE ( 'NONE',  #59 ) ;
#241 = ORIENTED_EDGE ( 'NONE', *, *, #172, .F. ) ;
#242 = CARTESIAN_POINT ( 'NONE',  ( -15.99999999999998579, 0.000000000000000000, 0.000000000000000000 ) ) ;
#243 = PLANE ( 'NONE',  #74 ) ;
#244 = CARTESIAN_POINT ( 'NONE',  ( -3.999999999999989786, 0.000000000000000000, 46.49999999999996447 ) ) ;
#245 = PERSON_AND_ORGANIZATION ( #251, #184 ) ;
#246 = SHAPE_DEFINITION_REPRESENTATION ( #198, #102 ) ;
#247 = ORIENTED_EDGE ( 'NONE', *, *, #221, .F. ) ;
#248 = PERSON_AND_ORGANIZATION_ROLE ( 'creator' ) ;
#249 = VECTOR ( 'NONE', #103, 1000.000000000000000 ) ;
#250 = CARTESIAN_POINT ( 'NONE',  ( 0.000000000000000000, 0.000000000000000000, 0.000000000000000000 ) ) ;
#251 = PERSON ( 'UNSPECIFIED', 'UNSPECIFIED', 'UNSPECIFIED', ('UNSPECIFIED'), ('UNSPECIFIED'), ('UNSPECIFIED') ) ;
#252 = APPROVAL ( #52, 'UNSPECIFIED' ) ;
#253 = APPLICATION_PROTOCOL_DEFINITION ( 'international standard', 'config_control_design', 1994, #96 ) ;
#254 = DIRECTION ( 'NONE',  ( 0.9396926207859094271, 4.188538737676958485E-17, 0.3420201433256659929 ) ) ;
#255 = AXIS2_PLACEMENT_3D ( 'NONE', #242, #1, #163 ) ;
ENDSEC;
END-ISO-10303-21;
