ISO-10303-21;
HEADER;
FILE_DESCRIPTION (( 'STEP AP203' ),
    '1' );
FILE_NAME ('3D_R1650_21.3x2_17353120.STEP',
    '2024-08-03T07:37:17',
    ( '' ),
    ( '' ),
    'SwSTEP 2.0',
    'SolidWorks 2024',
    '' );
FILE_SCHEMA (( 'CONFIG_CONTROL_DESIGN' ));
ENDSEC;

DATA;
#1 = EDGE_CURVE ( 'NONE', #154, #5, #48, .T. ) ;
#2 = PERSON_AND_ORGANIZATION ( #188, #62 ) ;
#3 = CIRCLE ( 'NONE', #75, 8.649999999999998579 ) ;
#4 = CARTESIAN_POINT ( 'NONE',  ( -19.44543648263014290, 0.000000000000000000, -19.44543648262996172 ) ) ;
#5 = VERTEX_POINT ( 'NONE', #8 ) ;
#6 = LOCAL_TIME ( 9, 37, 17.00000000000000000, #19 ) ;
#7 = DIRECTION ( 'NONE',  ( 0.7071067811865507924, 0.000000000000000000, 0.7071067811865443531 ) ) ;
#8 = CARTESIAN_POINT ( 'NONE',  ( -11.91474926299338222, -1.304248841091930866E-15, -11.91474926299326142 ) ) ;
#9 = ORIENTED_EDGE ( 'NONE', *, *, #248, .F. ) ;
#10 = CIRCLE ( 'NONE', #51, 38.14999999999999147 ) ;
#11 = DIRECTION ( 'NONE',  ( -2.220446049250313574E-16, 0.000000000000000000, 1.000000000000000000 ) ) ;
#12 = DIRECTION ( 'NONE',  ( 0.7071067811865509034, 0.000000000000000000, 0.7071067811865441310 ) ) ;
#13 = EDGE_CURVE ( 'NONE', #167, #223, #177, .T. ) ;
#14 = APPLICATION_PROTOCOL_DEFINITION ( 'international standard', 'config_control_design', 1994, #203 ) ;
#15 = ORIENTED_EDGE ( 'NONE', *, *, #13, .T. ) ;
#16 = AXIS2_PLACEMENT_3D ( 'NONE', #171, #11, #249 ) ;
#17 = COORDINATED_UNIVERSAL_TIME_OFFSET ( 1, 0, .AHEAD. ) ;
#18 = ORIENTED_EDGE ( 'NONE', *, *, #41, .T. ) ;
#19 = COORDINATED_UNIVERSAL_TIME_OFFSET ( 1, 0, .AHEAD. ) ;
#20 = CC_DESIGN_PERSON_AND_ORGANIZATION_ASSIGNMENT ( #219, #217, ( #125 ) ) ;
#21 = APPROVAL_DATE_TIME ( #39, #164 ) ;
#22 = CALENDAR_DATE ( 2024, 3, 8 ) ;
#23 = AXIS2_PLACEMENT_3D ( 'NONE', #92, #34, #247 ) ;
#24 = ORIENTED_EDGE ( 'NONE', *, *, #83, .T. ) ;
#25 = AXIS2_PLACEMENT_3D ( 'NONE', #208, #121, #109 ) ;
#26 = ORIENTED_EDGE ( 'NONE', *, *, #129, .T. ) ;
#27 = CARTESIAN_POINT ( 'NONE',  ( 0.000000000000000000, 0.000000000000000000, 0.000000000000000000 ) ) ;
#28 = ORIENTED_EDGE ( 'NONE', *, *, #248, .T. ) ;
#29 = FACE_OUTER_BOUND ( 'NONE', #61, .T. ) ;
#30 = CC_DESIGN_PERSON_AND_ORGANIZATION_ASSIGNMENT ( #78, #116, ( #47 ) ) ;
#31 = MECHANICAL_CONTEXT ( 'NONE', #203, 'mechanical' ) ;
#32 = FACE_OUTER_BOUND ( 'NONE', #126, .T. ) ;
#33 = CC_DESIGN_SECURITY_CLASSIFICATION ( #125, ( #42 ) ) ;
#34 = DIRECTION ( 'NONE',  ( 0.000000000000000000, 1.000000000000000000, 0.000000000000000000 ) ) ;
#35 = APPROVAL_DATE_TIME ( #216, #215 ) ;
#36 = TOROIDAL_SURFACE ( 'NONE', #222, 27.49999999999999289, 8.649999999999998579 ) ;
#37 = CALENDAR_DATE ( 2024, 3, 8 ) ;
#38 = EDGE_CURVE ( 'NONE', #117, #139, #54, .T. ) ;
#39 = DATE_AND_TIME ( #57, #181 ) ;
#40 = APPROVAL_ROLE ( '' ) ;
#41 = EDGE_CURVE ( 'NONE', #223, #167, #120, .T. ) ;
#42 = PRODUCT_DEFINITION_FORMATION_WITH_SPECIFIED_SOURCE ( 'ANY', '', #103, .NOT_KNOWN. ) ;
#43 = EDGE_LOOP ( 'NONE', ( #244, #172 ) ) ;
#44 = DIRECTION ( 'NONE',  ( 0.000000000000000000, 0.000000000000000000, 1.000000000000000000 ) ) ;
#45 = EDGE_LOOP ( 'NONE', ( #85, #24, #49, #9 ) ) ;
#46 = ORIENTED_EDGE ( 'NONE', *, *, #173, .F. ) ;
#47 = PRODUCT_DEFINITION ( 'UNKNOWN', '', #42, #55 ) ;
#48 = CIRCLE ( 'NONE', #230, 10.64999999999999858 ) ;
#49 = ORIENTED_EDGE ( 'NONE', *, *, #13, .F. ) ;
#50 = PLANE ( 'NONE',  #58 ) ;
#51 = AXIS2_PLACEMENT_3D ( 'NONE', #27, #123, #202 ) ;
#52 = DIRECTION ( 'NONE',  ( 0.000000000000000000, 0.000000000000000000, 1.000000000000000000 ) ) ;
#53 = CIRCLE ( 'NONE', #141, 8.649999999999998579 ) ;
#54 = CIRCLE ( 'NONE', #201, 8.649999999999998579 ) ;
#55 = DESIGN_CONTEXT ( 'detailed design', #91, 'design' ) ;
#56 = ADVANCED_FACE ( 'NONE', ( #29 ), #101, .T. ) ;
#57 = CALENDAR_DATE ( 2024, 3, 8 ) ;
#58 = AXIS2_PLACEMENT_3D ( 'NONE', #170, #212, #251 ) ;
#59 = PERSON_AND_ORGANIZATION ( #188, #62 ) ;
#60 = PERSON_AND_ORGANIZATION ( #188, #62 ) ;
#61 = EDGE_LOOP ( 'NONE', ( #207, #227, #28, #196 ) ) ;
#62 = ORGANIZATION ( 'UNSPECIFIED', 'UNSPECIFIED', '' ) ;
#63 = DIRECTION ( 'NONE',  ( -2.220446049250313574E-16, 0.000000000000000000, 1.000000000000000000 ) ) ;
#64 = CARTESIAN_POINT ( 'NONE',  ( -19.44543648263014646, 0.000000000000000000, -19.44543648262995816 ) ) ;
#65 = EDGE_CURVE ( 'NONE', #88, #165, #53, .T. ) ;
#66 = DIRECTION ( 'NONE',  ( 0.000000000000000000, 1.000000000000000000, 0.000000000000000000 ) ) ;
#67 = AXIS2_PLACEMENT_3D ( 'NONE', #185, #160, #44 ) ;
#68 = ORIENTED_EDGE ( 'NONE', *, *, #38, .T. ) ;
#69 = EDGE_LOOP ( 'NONE', ( #15, #18 ) ) ;
#70 = CARTESIAN_POINT ( 'NONE',  ( 0.000000000000000000, 0.000000000000000000, 0.000000000000000000 ) ) ;
#71 = CC_DESIGN_APPROVAL ( #164, ( #125 ) ) ;
#72 =( LENGTH_UNIT ( ) NAMED_UNIT ( * ) SI_UNIT ( .MILLI., .METRE. ) );
#73 = FACE_OUTER_BOUND ( 'NONE', #45, .T. ) ;
#74 = APPROVAL_STATUS ( 'not_yet_approved' ) ;
#75 = AXIS2_PLACEMENT_3D ( 'NONE', #96, #113, #12 ) ;
#76 = ORIENTED_EDGE ( 'NONE', *, *, #129, .F. ) ;
#77 = CC_DESIGN_PERSON_AND_ORGANIZATION_ASSIGNMENT ( #97, #99, ( #103 ) ) ;
#78 = PERSON_AND_ORGANIZATION ( #188, #62 ) ;
#79 = LOCAL_TIME ( 9, 37, 17.00000000000000000, #17 ) ;
#80 = DIRECTION ( 'NONE',  ( 1.000000000000000000, 0.000000000000000000, 2.775557561562891844E-16 ) ) ;
#81 = AXIS2_PLACEMENT_3D ( 'NONE', #209, #211, #149 ) ;
#82 = DIRECTION ( 'NONE',  ( 0.7071067811865509034, 0.000000000000000000, 0.7071067811865441310 ) ) ;
#83 = EDGE_CURVE ( 'NONE', #154, #223, #10, .T. ) ;
#84 = DIRECTION ( 'NONE',  ( 0.7071067811865507924, 0.000000000000000000, 0.7071067811865441310 ) ) ;
#85 = ORIENTED_EDGE ( 'NONE', *, *, #173, .T. ) ;
#86 = PRODUCT_RELATED_PRODUCT_CATEGORY ( 'detail', '', ( #103 ) ) ;
#87 =( GEOMETRIC_REPRESENTATION_CONTEXT ( 3 ) GLOBAL_UNCERTAINTY_ASSIGNED_CONTEXT ( ( #252 ) ) GLOBAL_UNIT_ASSIGNED_CONTEXT ( ( #72, #229, #192 ) ) REPRESENTATION_CONTEXT ( 'NONE', 'WORKASPACE' ) );
#88 = VERTEX_POINT ( 'NONE', #243 ) ;
#89 = ADVANCED_BREP_SHAPE_REPRESENTATION ( '3D_R1650_21.3x2_17353120', ( #163, #226 ), #87 ) ;
#90 = CARTESIAN_POINT ( 'NONE',  ( 0.000000000000000000, 0.000000000000000000, 0.000000000000000000 ) ) ;
#91 = APPLICATION_CONTEXT ( 'configuration controlled 3d designs of mechanical parts and assemblies' ) ;
#92 = CARTESIAN_POINT ( 'NONE',  ( 0.000000000000000000, 0.000000000000000000, 0.000000000000000000 ) ) ;
#93 = CIRCLE ( 'NONE', #81, 16.84999999999999787 ) ;
#94 = ADVANCED_FACE ( 'NONE', ( #180, #161 ), #242, .F. ) ;
#95 = DIRECTION ( 'NONE',  ( 0.000000000000000000, 1.000000000000000000, 0.000000000000000000 ) ) ;
#96 = CARTESIAN_POINT ( 'NONE',  ( -19.44543648263014290, 0.000000000000000000, -19.44543648262996172 ) ) ;
#97 = PERSON_AND_ORGANIZATION ( #188, #62 ) ;
#98 = ORIENTED_EDGE ( 'NONE', *, *, #106, .F. ) ;
#99 = PERSON_AND_ORGANIZATION_ROLE ( 'design_owner' ) ;
#100 = APPROVAL_DATE_TIME ( #237, #241 ) ;
#101 = TOROIDAL_SURFACE ( 'NONE', #67, 27.49999999999999289, 10.64999999999999858 ) ;
#102 = APPROVAL_STATUS ( 'not_yet_approved' ) ;
#103 = PRODUCT ( '3D_R1650_21.3x2_17353120', '3D_R1650_21.3x2_17353120', '', ( #31 ) ) ;
#104 = ORIENTED_EDGE ( 'NONE', *, *, #65, .T. ) ;
#105 = DIRECTION ( 'NONE',  ( -2.220446049250313574E-16, 0.000000000000000000, 1.000000000000000000 ) ) ;
#106 = EDGE_CURVE ( 'NONE', #117, #88, #153, .T. ) ;
#107 = APPROVAL_PERSON_ORGANIZATION ( #59, #241, #199 ) ;
#108 = DIRECTION ( 'NONE',  ( -0.7071067811865442421, 0.000000000000000000, 0.7071067811865509034 ) ) ;
#109 = DIRECTION ( 'NONE',  ( 1.000000000000000000, 0.000000000000000000, 2.775557561562891844E-16 ) ) ;
#110 = ORIENTED_EDGE ( 'NONE', *, *, #205, .T. ) ;
#111 = CC_DESIGN_APPROVAL ( #215, ( #42 ) ) ;
#112 = CARTESIAN_POINT ( 'NONE',  ( -26.97612370226691070, 0.000000000000000000, -26.97612370226664780 ) ) ;
#113 = DIRECTION ( 'NONE',  ( -0.7071067811865442421, 0.000000000000000000, 0.7071067811865509034 ) ) ;
#114 = CARTESIAN_POINT ( 'NONE',  ( -38.14999999999999147, 0.000000000000000000, -4.395095398734838297E-15 ) ) ;
#115 = FACE_OUTER_BOUND ( 'NONE', #182, .T. ) ;
#116 = PERSON_AND_ORGANIZATION_ROLE ( 'creator' ) ;
#117 = VERTEX_POINT ( 'NONE', #225 ) ;
#118 = PERSON_AND_ORGANIZATION_ROLE ( 'design_supplier' ) ;
#119 = DATE_TIME_ROLE ( 'classification_date' ) ;
#120 = CIRCLE ( 'NONE', #169, 10.64999999999999680 ) ;
#121 = DIRECTION ( 'NONE',  ( -2.220446049250313574E-16, 0.000000000000000000, 1.000000000000000000 ) ) ;
#122 = ADVANCED_FACE ( 'NONE', ( #32 ), #191, .F. ) ;
#123 = DIRECTION ( 'NONE',  ( 0.000000000000000000, 1.000000000000000000, 0.000000000000000000 ) ) ;
#124 = CARTESIAN_POINT ( 'NONE',  ( -19.44543648263014646, 0.000000000000000000, -19.44543648262995816 ) ) ;
#125 = SECURITY_CLASSIFICATION ( '', '', #197 ) ;
#126 = EDGE_LOOP ( 'NONE', ( #76, #218, #110, #98 ) ) ;
#127 = DIRECTION ( 'NONE',  ( -0.7071067811865442421, 0.000000000000000000, 0.7071067811865509034 ) ) ;
#128 = CARTESIAN_POINT ( 'NONE',  ( 0.000000000000000000, 0.000000000000000000, 0.000000000000000000 ) ) ;
#129 = EDGE_CURVE ( 'NONE', #139, #117, #3, .T. ) ;
#130 = CARTESIAN_POINT ( 'NONE',  ( -16.84999999999999787, 0.000000000000000000, 1.221245327087671800E-15 ) ) ;
#131 = FACE_BOUND ( 'NONE', #43, .T. ) ;
#132 = DIRECTION ( 'NONE',  ( 0.000000000000000000, 0.000000000000000000, 1.000000000000000000 ) ) ;
#133 = CIRCLE ( 'NONE', #166, 10.64999999999999858 ) ;
#134 = EDGE_CURVE ( 'NONE', #139, #165, #195, .T. ) ;
#135 = PERSON_AND_ORGANIZATION ( #188, #62 ) ;
#136 = CALENDAR_DATE ( 2024, 3, 8 ) ;
#137 = PERSON_AND_ORGANIZATION_ROLE ( 'creator' ) ;
#138 = ADVANCED_FACE ( 'NONE', ( #131, #231 ), #50, .T. ) ;
#139 = VERTEX_POINT ( 'NONE', #151 ) ;
#140 = ADVANCED_FACE ( 'NONE', ( #73 ), #245, .T. ) ;
#141 = AXIS2_PLACEMENT_3D ( 'NONE', #240, #63, #142 ) ;
#142 = DIRECTION ( 'NONE',  ( 1.000000000000000000, 0.000000000000000000, 2.220446049250314067E-16 ) ) ;
#143 = CARTESIAN_POINT ( 'NONE',  ( -27.49999999999999289, 0.000000000000000000, -1.734723475976807094E-15 ) ) ;
#144 = DIRECTION ( 'NONE',  ( 0.000000000000000000, 0.000000000000000000, 1.000000000000000000 ) ) ;
#145 = APPROVAL_PERSON_ORGANIZATION ( #135, #164, #40 ) ;
#146 = ORIENTED_EDGE ( 'NONE', *, *, #38, .F. ) ;
#147 = CC_DESIGN_PERSON_AND_ORGANIZATION_ASSIGNMENT ( #60, #118, ( #42 ) ) ;
#148 = AXIS2_PLACEMENT_3D ( 'NONE', #128, #168, #52 ) ;
#149 = DIRECTION ( 'NONE',  ( 0.000000000000000000, 0.000000000000000000, 1.000000000000000000 ) ) ;
#150 = CLOSED_SHELL ( 'NONE', ( #122, #140, #56, #138, #94, #232 ) ) ;
#151 = CARTESIAN_POINT ( 'NONE',  ( -25.56191013989380423, 0.000000000000000000, -25.56191013989356264 ) ) ;
#152 = SHAPE_DEFINITION_REPRESENTATION ( #159, #89 ) ;
#153 = CIRCLE ( 'NONE', #200, 18.84999999999999432 ) ;
#154 = VERTEX_POINT ( 'NONE', #112 ) ;
#155 = CC_DESIGN_DATE_AND_TIME_ASSIGNMENT ( #156, #198, ( #47 ) ) ;
#156 = DATE_AND_TIME ( #136, #79 ) ;
#157 = AXIS2_PLACEMENT_3D ( 'NONE', #70, #95, #234 ) ;
#158 = CALENDAR_DATE ( 2024, 3, 8 ) ;
#159 = PRODUCT_DEFINITION_SHAPE ( 'NONE', 'NONE',  #47 ) ;
#160 = DIRECTION ( 'NONE',  ( 0.000000000000000000, 1.000000000000000000, 0.000000000000000000 ) ) ;
#161 = FACE_OUTER_BOUND ( 'NONE', #220, .T. ) ;
#162 = CARTESIAN_POINT ( 'NONE',  ( 0.000000000000000000, -1.059319481262460373E-15, 0.000000000000000000 ) ) ;
#163 = MANIFOLD_SOLID_BREP ( 'Wandung1', #150 ) ;
#164 = APPROVAL ( #74, 'UNSPECIFIED' ) ;
#165 = VERTEX_POINT ( 'NONE', #187 ) ;
#166 = AXIS2_PLACEMENT_3D ( 'NONE', #190, #250, #189 ) ;
#167 = VERTEX_POINT ( 'NONE', #130 ) ;
#168 = DIRECTION ( 'NONE',  ( 0.000000000000000000, 1.000000000000000000, 0.000000000000000000 ) ) ;
#169 = AXIS2_PLACEMENT_3D ( 'NONE', #143, #105, #80 ) ;
#170 = CARTESIAN_POINT ( 'NONE',  ( -27.49999999999999289, 0.000000000000000000, -1.734723475976807094E-15 ) ) ;
#171 = CARTESIAN_POINT ( 'NONE',  ( -27.49999999999999289, 0.000000000000000000, -6.106226635438360972E-15 ) ) ;
#172 = ORIENTED_EDGE ( 'NONE', *, *, #205, .F. ) ;
#173 = EDGE_CURVE ( 'NONE', #5, #154, #133, .T. ) ;
#174 = APPROVAL_ROLE ( '' ) ;
#175 = COORDINATED_UNIVERSAL_TIME_OFFSET ( 1, 0, .AHEAD. ) ;
#176 = LOCAL_TIME ( 9, 37, 17.00000000000000000, #175 ) ;
#177 = CIRCLE ( 'NONE', #25, 10.64999999999999680 ) ;
#178 = DATE_AND_TIME ( #22, #6 ) ;
#179 = EDGE_LOOP ( 'NONE', ( #68, #26 ) ) ;
#180 = FACE_BOUND ( 'NONE', #179, .T. ) ;
#181 = LOCAL_TIME ( 9, 37, 17.00000000000000000, #253 ) ;
#182 = EDGE_LOOP ( 'NONE', ( #221, #146, #184, #104 ) ) ;
#183 = CC_DESIGN_DATE_AND_TIME_ASSIGNMENT ( #178, #119, ( #125 ) ) ;
#184 = ORIENTED_EDGE ( 'NONE', *, *, #106, .T. ) ;
#185 = CARTESIAN_POINT ( 'NONE',  ( 0.000000000000000000, 0.000000000000000000, 0.000000000000000000 ) ) ;
#186 = LOCAL_TIME ( 9, 37, 17.00000000000000000, #236 ) ;
#187 = CARTESIAN_POINT ( 'NONE',  ( -36.14999999999998437, 0.000000000000000000, -8.026912468039881472E-15 ) ) ;
#188 = PERSON ( 'UNSPECIFIED', 'UNSPECIFIED', 'UNSPECIFIED', ('UNSPECIFIED'), ('UNSPECIFIED'), ('UNSPECIFIED') ) ;
#189 = DIRECTION ( 'NONE',  ( 0.7071067811865507924, 0.000000000000000000, 0.7071067811865443531 ) ) ;
#190 = CARTESIAN_POINT ( 'NONE',  ( -19.44543648263014646, 0.000000000000000000, -19.44543648262995816 ) ) ;
#191 = TOROIDAL_SURFACE ( 'NONE', #157, 27.49999999999999289, 8.649999999999998579 ) ;
#192 =( NAMED_UNIT ( * ) SI_UNIT ( $, .STERADIAN. ) SOLID_ANGLE_UNIT ( ) );
#193 = PERSON_AND_ORGANIZATION ( #188, #62 ) ;
#194 = CC_DESIGN_PERSON_AND_ORGANIZATION_ASSIGNMENT ( #193, #137, ( #42 ) ) ;
#195 = CIRCLE ( 'NONE', #23, 36.14999999999998437 ) ;
#196 = ORIENTED_EDGE ( 'NONE', *, *, #41, .F. ) ;
#197 = SECURITY_CLASSIFICATION_LEVEL ( 'unclassified' ) ;
#198 = DATE_TIME_ROLE ( 'creation_date' ) ;
#199 = APPROVAL_ROLE ( '' ) ;
#200 = AXIS2_PLACEMENT_3D ( 'NONE', #162, #66, #144 ) ;
#201 = AXIS2_PLACEMENT_3D ( 'NONE', #4, #204, #82 ) ;
#202 = DIRECTION ( 'NONE',  ( 0.000000000000000000, 0.000000000000000000, 1.000000000000000000 ) ) ;
#203 = APPLICATION_CONTEXT ( 'configuration controlled 3d designs of mechanical parts and assemblies' ) ;
#204 = DIRECTION ( 'NONE',  ( -0.7071067811865442421, 0.000000000000000000, 0.7071067811865509034 ) ) ;
#205 = EDGE_CURVE ( 'NONE', #165, #88, #206, .T. ) ;
#206 = CIRCLE ( 'NONE', #16, 8.649999999999998579 ) ;
#207 = ORIENTED_EDGE ( 'NONE', *, *, #83, .F. ) ;
#208 = CARTESIAN_POINT ( 'NONE',  ( -27.49999999999999289, 0.000000000000000000, -1.734723475976807094E-15 ) ) ;
#209 = CARTESIAN_POINT ( 'NONE',  ( 0.000000000000000000, -1.304248841091931063E-15, 0.000000000000000000 ) ) ;
#210 = CARTESIAN_POINT ( 'NONE',  ( 0.000000000000000000, 0.000000000000000000, 0.000000000000000000 ) ) ;
#211 = DIRECTION ( 'NONE',  ( 0.000000000000000000, 1.000000000000000000, 0.000000000000000000 ) ) ;
#212 = DIRECTION ( 'NONE',  ( -2.775557561562891351E-16, 0.000000000000000000, 1.000000000000000000 ) ) ;
#213 = AXIS2_PLACEMENT_3D ( 'NONE', #124, #108, #84 ) ;
#214 = APPROVAL_STATUS ( 'not_yet_approved' ) ;
#215 = APPROVAL ( #102, 'UNSPECIFIED' ) ;
#216 = DATE_AND_TIME ( #158, #186 ) ;
#217 = PERSON_AND_ORGANIZATION_ROLE ( 'classification_officer' ) ;
#218 = ORIENTED_EDGE ( 'NONE', *, *, #134, .T. ) ;
#219 = PERSON_AND_ORGANIZATION ( #188, #62 ) ;
#220 = EDGE_LOOP ( 'NONE', ( #46, #224 ) ) ;
#221 = ORIENTED_EDGE ( 'NONE', *, *, #134, .F. ) ;
#222 = AXIS2_PLACEMENT_3D ( 'NONE', #90, #233, #228 ) ;
#223 = VERTEX_POINT ( 'NONE', #114 ) ;
#224 = ORIENTED_EDGE ( 'NONE', *, *, #1, .F. ) ;
#225 = CARTESIAN_POINT ( 'NONE',  ( -13.32896282536647803, -1.059319481262460373E-15, -13.32896282536635368 ) ) ;
#226 = AXIS2_PLACEMENT_3D ( 'NONE', #210, #132, #246 ) ;
#227 = ORIENTED_EDGE ( 'NONE', *, *, #1, .T. ) ;
#228 = DIRECTION ( 'NONE',  ( 0.000000000000000000, 0.000000000000000000, 1.000000000000000000 ) ) ;
#229 =( NAMED_UNIT ( * ) PLANE_ANGLE_UNIT ( ) SI_UNIT ( $, .RADIAN. ) );
#230 = AXIS2_PLACEMENT_3D ( 'NONE', #64, #127, #7 ) ;
#231 = FACE_OUTER_BOUND ( 'NONE', #69, .T. ) ;
#232 = ADVANCED_FACE ( 'NONE', ( #115 ), #36, .F. ) ;
#233 = DIRECTION ( 'NONE',  ( 0.000000000000000000, 1.000000000000000000, 0.000000000000000000 ) ) ;
#234 = DIRECTION ( 'NONE',  ( 0.000000000000000000, 0.000000000000000000, 1.000000000000000000 ) ) ;
#235 = CC_DESIGN_APPROVAL ( #241, ( #47 ) ) ;
#236 = COORDINATED_UNIVERSAL_TIME_OFFSET ( 1, 0, .AHEAD. ) ;
#237 = DATE_AND_TIME ( #37, #176 ) ;
#238 = APPLICATION_PROTOCOL_DEFINITION ( 'international standard', 'config_control_design', 1994, #91 ) ;
#239 = APPROVAL_PERSON_ORGANIZATION ( #2, #215, #174 ) ;
#240 = CARTESIAN_POINT ( 'NONE',  ( -27.49999999999999289, 0.000000000000000000, -6.106226635438360972E-15 ) ) ;
#241 = APPROVAL ( #214, 'UNSPECIFIED' ) ;
#242 = PLANE ( 'NONE',  #213 ) ;
#243 = CARTESIAN_POINT ( 'NONE',  ( -18.84999999999999432, 0.000000000000000000, -4.185540802836839684E-15 ) ) ;
#244 = ORIENTED_EDGE ( 'NONE', *, *, #65, .F. ) ;
#245 = TOROIDAL_SURFACE ( 'NONE', #148, 27.49999999999999289, 10.64999999999999858 ) ;
#246 = DIRECTION ( 'NONE',  ( 1.000000000000000000, 0.000000000000000000, 0.000000000000000000 ) ) ;
#247 = DIRECTION ( 'NONE',  ( 0.000000000000000000, 0.000000000000000000, 1.000000000000000000 ) ) ;
#248 = EDGE_CURVE ( 'NONE', #5, #167, #93, .T. ) ;
#249 = DIRECTION ( 'NONE',  ( 1.000000000000000000, 0.000000000000000000, 2.220446049250314067E-16 ) ) ;
#250 = DIRECTION ( 'NONE',  ( -0.7071067811865442421, 0.000000000000000000, 0.7071067811865509034 ) ) ;
#251 = DIRECTION ( 'NONE',  ( 1.000000000000000000, 0.000000000000000000, 2.775557561562891351E-16 ) ) ;
#252 = UNCERTAINTY_MEASURE_WITH_UNIT (LENGTH_MEASURE( 1.000000000000000082E-05 ), #72, 'distance_accuracy_value', 'NONE');
#253 = COORDINATED_UNIVERSAL_TIME_OFFSET ( 1, 0, .AHEAD. ) ;
ENDSEC;
END-ISO-10303-21;
