ISO-10303-21;
HEADER;
/* Generated by software containing ST-Developer
 * from STEP Tools, Inc. (www.steptools.com) 
 */

FILE_DESCRIPTION(
/* description */ ('PharmCom Bundstutzen ISO DIN11864-A 33,7-114,3'),
/* implementation_level */ '2;1');

FILE_NAME(
/* name */ 
'G:\\Technik\\Internes Serviceportal\\STEP\\6-Hygienearmaturen\\10113\\
10113100X000.stp',
/* time_stamp */ '2019-06-13T09:04:30+02:00',
/* author */ ('mbohlen'),
/* organization */ (''),
/* preprocessor_version */ 'ST-DEVELOPER v15.6',
/* originating_system */ 'Autodesk Inventor 2015',
/* authorisation */ '');

FILE_SCHEMA (('AUTOMOTIVE_DESIGN { 1 0 10303 214 3 1 1 }'));
ENDSEC;

DATA;
#10=MECHANICAL_DESIGN_GEOMETRIC_PRESENTATION_REPRESENTATION('',(#13),#323);
#11=SHAPE_REPRESENTATION_RELATIONSHIP('SRR','None',#332,#12);
#12=ADVANCED_BREP_SHAPE_REPRESENTATION($,(#14),#322);
#13=STYLED_ITEM('',(#341),#14);
#14=MANIFOLD_SOLID_BREP('Volumenk\X\F6rper1',#180);
#15=TOROIDAL_SURFACE('',#197,55.35,0.499999999999998);
#16=TOROIDAL_SURFACE('',#201,55.4410009964131,1.);
#17=TOROIDAL_SURFACE('',#203,57.95,2.45);
#18=TOROIDAL_SURFACE('',#205,60.4752475126213,0.5);
#19=TOROIDAL_SURFACE('',#209,70.0304381211483,0.500000000000008);
#20=CONICAL_SURFACE('',#189,62.825,60.);
#21=CONICAL_SURFACE('',#211,70.7317005171464,15.0000000000002);
#22=PLANE('',#185);
#23=PLANE('',#193);
#24=PLANE('',#199);
#25=PLANE('',#207);
#26=FACE_BOUND('',#57,.T.);
#27=FACE_BOUND('',#59,.T.);
#28=FACE_BOUND('',#61,.T.);
#29=FACE_BOUND('',#63,.T.);
#30=FACE_BOUND('',#65,.T.);
#31=FACE_BOUND('',#67,.T.);
#32=FACE_BOUND('',#69,.T.);
#33=FACE_BOUND('',#71,.T.);
#34=FACE_BOUND('',#73,.T.);
#35=FACE_BOUND('',#75,.T.);
#36=FACE_BOUND('',#77,.T.);
#37=FACE_BOUND('',#79,.T.);
#38=FACE_BOUND('',#81,.T.);
#39=FACE_BOUND('',#83,.T.);
#40=FACE_BOUND('',#85,.T.);
#41=FACE_OUTER_BOUND('',#56,.T.);
#42=FACE_OUTER_BOUND('',#58,.T.);
#43=FACE_OUTER_BOUND('',#60,.T.);
#44=FACE_OUTER_BOUND('',#62,.T.);
#45=FACE_OUTER_BOUND('',#64,.T.);
#46=FACE_OUTER_BOUND('',#66,.T.);
#47=FACE_OUTER_BOUND('',#68,.T.);
#48=FACE_OUTER_BOUND('',#70,.T.);
#49=FACE_OUTER_BOUND('',#72,.T.);
#50=FACE_OUTER_BOUND('',#74,.T.);
#51=FACE_OUTER_BOUND('',#76,.T.);
#52=FACE_OUTER_BOUND('',#78,.T.);
#53=FACE_OUTER_BOUND('',#80,.T.);
#54=FACE_OUTER_BOUND('',#82,.T.);
#55=FACE_OUTER_BOUND('',#84,.T.);
#56=EDGE_LOOP('',(#131));
#57=EDGE_LOOP('',(#132));
#58=EDGE_LOOP('',(#133));
#59=EDGE_LOOP('',(#134));
#60=EDGE_LOOP('',(#135));
#61=EDGE_LOOP('',(#136));
#62=EDGE_LOOP('',(#137));
#63=EDGE_LOOP('',(#138));
#64=EDGE_LOOP('',(#139));
#65=EDGE_LOOP('',(#140));
#66=EDGE_LOOP('',(#141));
#67=EDGE_LOOP('',(#142));
#68=EDGE_LOOP('',(#143));
#69=EDGE_LOOP('',(#144));
#70=EDGE_LOOP('',(#145));
#71=EDGE_LOOP('',(#146));
#72=EDGE_LOOP('',(#147));
#73=EDGE_LOOP('',(#148));
#74=EDGE_LOOP('',(#149));
#75=EDGE_LOOP('',(#150));
#76=EDGE_LOOP('',(#151));
#77=EDGE_LOOP('',(#152));
#78=EDGE_LOOP('',(#153));
#79=EDGE_LOOP('',(#154));
#80=EDGE_LOOP('',(#155));
#81=EDGE_LOOP('',(#156));
#82=EDGE_LOOP('',(#157));
#83=EDGE_LOOP('',(#158));
#84=EDGE_LOOP('',(#159));
#85=EDGE_LOOP('',(#160));
#86=CIRCLE('',#183,70.95);
#87=CIRCLE('',#184,70.95);
#88=CIRCLE('',#186,68.5);
#89=CIRCLE('',#188,68.5);
#90=CIRCLE('',#190,57.15);
#91=CIRCLE('',#192,57.15);
#92=CIRCLE('',#194,54.85);
#93=CIRCLE('',#196,54.85);
#94=CIRCLE('',#198,55.35);
#95=CIRCLE('',#200,55.4410009964131);
#96=CIRCLE('',#202,56.1682470844093);
#97=CIRCLE('',#204,60.0472394596346);
#98=CIRCLE('',#206,60.4752475126213);
#99=CIRCLE('',#208,70.0304381211483);
#100=CIRCLE('',#210,70.5134010342928);
#101=VERTEX_POINT('',#276);
#102=VERTEX_POINT('',#278);
#103=VERTEX_POINT('',#281);
#104=VERTEX_POINT('',#284);
#105=VERTEX_POINT('',#287);
#106=VERTEX_POINT('',#290);
#107=VERTEX_POINT('',#293);
#108=VERTEX_POINT('',#296);
#109=VERTEX_POINT('',#299);
#110=VERTEX_POINT('',#302);
#111=VERTEX_POINT('',#305);
#112=VERTEX_POINT('',#308);
#113=VERTEX_POINT('',#311);
#114=VERTEX_POINT('',#314);
#115=VERTEX_POINT('',#317);
#116=EDGE_CURVE('',#101,#101,#86,.T.);
#117=EDGE_CURVE('',#102,#102,#87,.T.);
#118=EDGE_CURVE('',#103,#103,#88,.T.);
#119=EDGE_CURVE('',#104,#104,#89,.T.);
#120=EDGE_CURVE('',#105,#105,#90,.T.);
#121=EDGE_CURVE('',#106,#106,#91,.T.);
#122=EDGE_CURVE('',#107,#107,#92,.T.);
#123=EDGE_CURVE('',#108,#108,#93,.T.);
#124=EDGE_CURVE('',#109,#109,#94,.T.);
#125=EDGE_CURVE('',#110,#110,#95,.T.);
#126=EDGE_CURVE('',#111,#111,#96,.T.);
#127=EDGE_CURVE('',#112,#112,#97,.T.);
#128=EDGE_CURVE('',#113,#113,#98,.T.);
#129=EDGE_CURVE('',#114,#114,#99,.T.);
#130=EDGE_CURVE('',#115,#115,#100,.T.);
#131=ORIENTED_EDGE('',*,*,#116,.F.);
#132=ORIENTED_EDGE('',*,*,#117,.T.);
#133=ORIENTED_EDGE('',*,*,#116,.T.);
#134=ORIENTED_EDGE('',*,*,#118,.F.);
#135=ORIENTED_EDGE('',*,*,#119,.F.);
#136=ORIENTED_EDGE('',*,*,#118,.T.);
#137=ORIENTED_EDGE('',*,*,#120,.F.);
#138=ORIENTED_EDGE('',*,*,#119,.T.);
#139=ORIENTED_EDGE('',*,*,#121,.F.);
#140=ORIENTED_EDGE('',*,*,#120,.T.);
#141=ORIENTED_EDGE('',*,*,#121,.T.);
#142=ORIENTED_EDGE('',*,*,#122,.F.);
#143=ORIENTED_EDGE('',*,*,#123,.F.);
#144=ORIENTED_EDGE('',*,*,#122,.T.);
#145=ORIENTED_EDGE('',*,*,#124,.F.);
#146=ORIENTED_EDGE('',*,*,#123,.T.);
#147=ORIENTED_EDGE('',*,*,#125,.F.);
#148=ORIENTED_EDGE('',*,*,#124,.T.);
#149=ORIENTED_EDGE('',*,*,#126,.F.);
#150=ORIENTED_EDGE('',*,*,#125,.T.);
#151=ORIENTED_EDGE('',*,*,#127,.F.);
#152=ORIENTED_EDGE('',*,*,#126,.T.);
#153=ORIENTED_EDGE('',*,*,#128,.F.);
#154=ORIENTED_EDGE('',*,*,#127,.T.);
#155=ORIENTED_EDGE('',*,*,#129,.F.);
#156=ORIENTED_EDGE('',*,*,#128,.T.);
#157=ORIENTED_EDGE('',*,*,#130,.F.);
#158=ORIENTED_EDGE('',*,*,#129,.T.);
#159=ORIENTED_EDGE('',*,*,#117,.F.);
#160=ORIENTED_EDGE('',*,*,#130,.T.);
#161=CYLINDRICAL_SURFACE('',#182,70.95);
#162=CYLINDRICAL_SURFACE('',#187,68.5);
#163=CYLINDRICAL_SURFACE('',#191,57.15);
#164=CYLINDRICAL_SURFACE('',#195,54.85);
#165=ADVANCED_FACE('',(#41,#26),#161,.T.);
#166=ADVANCED_FACE('',(#42,#27),#22,.T.);
#167=ADVANCED_FACE('',(#43,#28),#162,.T.);
#168=ADVANCED_FACE('',(#44,#29),#20,.T.);
#169=ADVANCED_FACE('',(#45,#30),#163,.T.);
#170=ADVANCED_FACE('',(#46,#31),#23,.T.);
#171=ADVANCED_FACE('',(#47,#32),#164,.F.);
#172=ADVANCED_FACE('',(#48,#33),#15,.T.);
#173=ADVANCED_FACE('',(#49,#34),#24,.T.);
#174=ADVANCED_FACE('',(#50,#35),#16,.T.);
#175=ADVANCED_FACE('',(#51,#36),#17,.F.);
#176=ADVANCED_FACE('',(#52,#37),#18,.T.);
#177=ADVANCED_FACE('',(#53,#38),#25,.T.);
#178=ADVANCED_FACE('',(#54,#39),#19,.T.);
#179=ADVANCED_FACE('',(#55,#40),#21,.T.);
#180=CLOSED_SHELL('',(#165,#166,#167,#168,#169,#170,#171,#172,#173,#174,
#175,#176,#177,#178,#179));
#181=AXIS2_PLACEMENT_3D('placement',#274,#212,#213);
#182=AXIS2_PLACEMENT_3D('',#275,#214,#215);
#183=AXIS2_PLACEMENT_3D('',#277,#216,#217);
#184=AXIS2_PLACEMENT_3D('',#279,#218,#219);
#185=AXIS2_PLACEMENT_3D('',#280,#220,#221);
#186=AXIS2_PLACEMENT_3D('',#282,#222,#223);
#187=AXIS2_PLACEMENT_3D('',#283,#224,#225);
#188=AXIS2_PLACEMENT_3D('',#285,#226,#227);
#189=AXIS2_PLACEMENT_3D('',#286,#228,#229);
#190=AXIS2_PLACEMENT_3D('',#288,#230,#231);
#191=AXIS2_PLACEMENT_3D('',#289,#232,#233);
#192=AXIS2_PLACEMENT_3D('',#291,#234,#235);
#193=AXIS2_PLACEMENT_3D('',#292,#236,#237);
#194=AXIS2_PLACEMENT_3D('',#294,#238,#239);
#195=AXIS2_PLACEMENT_3D('',#295,#240,#241);
#196=AXIS2_PLACEMENT_3D('',#297,#242,#243);
#197=AXIS2_PLACEMENT_3D('',#298,#244,#245);
#198=AXIS2_PLACEMENT_3D('',#300,#246,#247);
#199=AXIS2_PLACEMENT_3D('',#301,#248,#249);
#200=AXIS2_PLACEMENT_3D('',#303,#250,#251);
#201=AXIS2_PLACEMENT_3D('',#304,#252,#253);
#202=AXIS2_PLACEMENT_3D('',#306,#254,#255);
#203=AXIS2_PLACEMENT_3D('',#307,#256,#257);
#204=AXIS2_PLACEMENT_3D('',#309,#258,#259);
#205=AXIS2_PLACEMENT_3D('',#310,#260,#261);
#206=AXIS2_PLACEMENT_3D('',#312,#262,#263);
#207=AXIS2_PLACEMENT_3D('',#313,#264,#265);
#208=AXIS2_PLACEMENT_3D('',#315,#266,#267);
#209=AXIS2_PLACEMENT_3D('',#316,#268,#269);
#210=AXIS2_PLACEMENT_3D('',#318,#270,#271);
#211=AXIS2_PLACEMENT_3D('',#319,#272,#273);
#212=DIRECTION('axis',(0.,0.,1.));
#213=DIRECTION('refdir',(1.,0.,0.));
#214=DIRECTION('center_axis',(1.,0.,0.));
#215=DIRECTION('ref_axis',(0.,1.,0.));
#216=DIRECTION('center_axis',(1.,0.,0.));
#217=DIRECTION('ref_axis',(0.,1.,0.));
#218=DIRECTION('center_axis',(1.,0.,0.));
#219=DIRECTION('ref_axis',(0.,1.,0.));
#220=DIRECTION('center_axis',(1.,0.,0.));
#221=DIRECTION('ref_axis',(0.,0.,-1.));
#222=DIRECTION('center_axis',(1.,0.,0.));
#223=DIRECTION('ref_axis',(0.,1.,0.));
#224=DIRECTION('center_axis',(1.,0.,0.));
#225=DIRECTION('ref_axis',(0.,1.,0.));
#226=DIRECTION('center_axis',(1.,0.,0.));
#227=DIRECTION('ref_axis',(0.,1.,0.));
#228=DIRECTION('center_axis',(-1.,0.,0.));
#229=DIRECTION('ref_axis',(0.,1.,0.));
#230=DIRECTION('center_axis',(1.,0.,0.));
#231=DIRECTION('ref_axis',(0.,1.,0.));
#232=DIRECTION('center_axis',(1.,0.,0.));
#233=DIRECTION('ref_axis',(0.,1.,0.));
#234=DIRECTION('center_axis',(1.,0.,0.));
#235=DIRECTION('ref_axis',(0.,1.,0.));
#236=DIRECTION('center_axis',(1.,0.,0.));
#237=DIRECTION('ref_axis',(0.,0.,-1.));
#238=DIRECTION('center_axis',(1.,0.,0.));
#239=DIRECTION('ref_axis',(0.,1.,0.));
#240=DIRECTION('center_axis',(1.,0.,0.));
#241=DIRECTION('ref_axis',(0.,1.,0.));
#242=DIRECTION('center_axis',(1.,0.,0.));
#243=DIRECTION('ref_axis',(0.,1.,0.));
#244=DIRECTION('center_axis',(1.,0.,0.));
#245=DIRECTION('ref_axis',(0.,0.,-1.));
#246=DIRECTION('center_axis',(1.,0.,0.));
#247=DIRECTION('ref_axis',(0.,1.,0.));
#248=DIRECTION('center_axis',(-1.,0.,0.));
#249=DIRECTION('ref_axis',(0.,0.,1.));
#250=DIRECTION('center_axis',(1.,0.,0.));
#251=DIRECTION('ref_axis',(0.,1.,0.));
#252=DIRECTION('center_axis',(1.,0.,0.));
#253=DIRECTION('ref_axis',(0.,0.,-1.));
#254=DIRECTION('center_axis',(1.,0.,0.));
#255=DIRECTION('ref_axis',(0.,1.,0.));
#256=DIRECTION('center_axis',(1.,0.,0.));
#257=DIRECTION('ref_axis',(0.,0.,-1.));
#258=DIRECTION('center_axis',(1.,0.,0.));
#259=DIRECTION('ref_axis',(0.,1.,0.));
#260=DIRECTION('center_axis',(1.,0.,0.));
#261=DIRECTION('ref_axis',(0.,0.,-1.));
#262=DIRECTION('center_axis',(1.,0.,0.));
#263=DIRECTION('ref_axis',(0.,1.,0.));
#264=DIRECTION('center_axis',(-1.,0.,0.));
#265=DIRECTION('ref_axis',(0.,0.,1.));
#266=DIRECTION('center_axis',(1.,0.,0.));
#267=DIRECTION('ref_axis',(0.,1.,0.));
#268=DIRECTION('center_axis',(1.,0.,0.));
#269=DIRECTION('ref_axis',(0.,0.,-1.));
#270=DIRECTION('center_axis',(1.,0.,0.));
#271=DIRECTION('ref_axis',(0.,1.,0.));
#272=DIRECTION('center_axis',(1.,0.,0.));
#273=DIRECTION('ref_axis',(0.,1.,0.));
#274=CARTESIAN_POINT('',(0.,0.,0.));
#275=CARTESIAN_POINT('Origin',(8.49999999999998,0.,0.));
#276=CARTESIAN_POINT('',(15.,70.95,0.));
#277=CARTESIAN_POINT('Origin',(15.,0.,0.));
#278=CARTESIAN_POINT('',(1.99999999999999,70.95,0.));
#279=CARTESIAN_POINT('Origin',(1.99999999999999,0.,0.));
#280=CARTESIAN_POINT('Origin',(15.,69.725,0.));
#281=CARTESIAN_POINT('',(15.,68.5,0.));
#282=CARTESIAN_POINT('Origin',(15.,0.,0.));
#283=CARTESIAN_POINT('Origin',(17.5,0.,0.));
#284=CARTESIAN_POINT('',(20.,68.5,0.));
#285=CARTESIAN_POINT('Origin',(20.,0.,0.));
#286=CARTESIAN_POINT('Origin',(23.2764627776511,0.,0.));
#287=CARTESIAN_POINT('',(26.5529255553023,57.15,0.));
#288=CARTESIAN_POINT('Origin',(26.5529255553023,0.,0.));
#289=CARTESIAN_POINT('Origin',(49.2764627776511,0.,0.));
#290=CARTESIAN_POINT('',(72.,57.15,0.));
#291=CARTESIAN_POINT('Origin',(72.,0.,0.));
#292=CARTESIAN_POINT('Origin',(72.,56.,0.));
#293=CARTESIAN_POINT('',(72.,54.85,0.));
#294=CARTESIAN_POINT('Origin',(72.,0.,0.));
#295=CARTESIAN_POINT('Origin',(37.9465,0.,0.));
#296=CARTESIAN_POINT('',(3.89299999999999,54.85,0.));
#297=CARTESIAN_POINT('Origin',(3.89299999999999,0.,0.));
#298=CARTESIAN_POINT('Origin',(3.89299999999999,0.,0.));
#299=CARTESIAN_POINT('',(3.39299999999999,55.35,0.));
#300=CARTESIAN_POINT('Origin',(3.39299999999999,0.,0.));
#301=CARTESIAN_POINT('Origin',(3.39299999999999,55.3955004982066,0.));
#302=CARTESIAN_POINT('',(3.39299999999999,55.4410009964131,0.));
#303=CARTESIAN_POINT('Origin',(3.39299999999999,0.,0.));
#304=CARTESIAN_POINT('Origin',(4.39299999999999,0.,0.));
#305=CARTESIAN_POINT('',(3.70662318840579,56.1682470844093,0.));
#306=CARTESIAN_POINT('Origin',(3.70662318840579,0.,0.));
#307=CARTESIAN_POINT('Origin',(2.02499999999999,0.,0.));
#308=CARTESIAN_POINT('',(0.758474576271179,60.0472394596346,0.));
#309=CARTESIAN_POINT('Origin',(0.758474576271179,0.,0.));
#310=CARTESIAN_POINT('Origin',(0.499999999999989,0.,0.));
#311=CARTESIAN_POINT('',(-1.11716191852906E-14,60.4752475126213,0.));
#312=CARTESIAN_POINT('Origin',(-1.11022302462516E-14,0.,0.));
#313=CARTESIAN_POINT('Origin',(-1.2038980923279E-14,65.2528428168848,0.));
#314=CARTESIAN_POINT('',(-1.29063426612674E-14,70.0304381211483,0.));
#315=CARTESIAN_POINT('Origin',(-1.27675647831893E-14,0.,0.));
#316=CARTESIAN_POINT('Origin',(0.499999999999987,0.,0.));
#317=CARTESIAN_POINT('',(0.370590477448729,70.5134010342928,0.));
#318=CARTESIAN_POINT('Origin',(0.370590477448728,0.,0.));
#319=CARTESIAN_POINT('Origin',(1.18529523872436,0.,0.));
#320=UNCERTAINTY_MEASURE_WITH_UNIT(LENGTH_MEASURE(0.01),#324,
'DISTANCE_ACCURACY_VALUE',
'Maximum model space distance between geometric entities at asserted c
onnectivities');
#321=UNCERTAINTY_MEASURE_WITH_UNIT(LENGTH_MEASURE(1.E-6),#324,
'DISTANCE_ACCURACY_VALUE',
'Maximum model space distance between geometric entities at asserted c
onnectivities');
#322=(
GEOMETRIC_REPRESENTATION_CONTEXT(3)
GLOBAL_UNCERTAINTY_ASSIGNED_CONTEXT((#320))
GLOBAL_UNIT_ASSIGNED_CONTEXT((#324,#327,#325))
REPRESENTATION_CONTEXT('','3D')
);
#323=(
GEOMETRIC_REPRESENTATION_CONTEXT(3)
GLOBAL_UNCERTAINTY_ASSIGNED_CONTEXT((#321))
GLOBAL_UNIT_ASSIGNED_CONTEXT((#324,#327,#325))
REPRESENTATION_CONTEXT('','3D')
);
#324=(
LENGTH_UNIT()
NAMED_UNIT(*)
SI_UNIT(.MILLI.,.METRE.)
);
#325=(
NAMED_UNIT(*)
SI_UNIT($,.STERADIAN.)
SOLID_ANGLE_UNIT()
);
#326=DIMENSIONAL_EXPONENTS(0.,0.,0.,0.,0.,0.,0.);
#327=(
CONVERSION_BASED_UNIT('degree',#329)
NAMED_UNIT(#326)
PLANE_ANGLE_UNIT()
);
#328=(
NAMED_UNIT(*)
PLANE_ANGLE_UNIT()
SI_UNIT($,.RADIAN.)
);
#329=PLANE_ANGLE_MEASURE_WITH_UNIT(PLANE_ANGLE_MEASURE(0.01745329252),#328);
#330=SHAPE_DEFINITION_REPRESENTATION(#331,#332);
#331=PRODUCT_DEFINITION_SHAPE('',$,#334);
#332=SHAPE_REPRESENTATION('',(#181),#322);
#333=PRODUCT_DEFINITION_CONTEXT('part definition',#338,'design');
#334=PRODUCT_DEFINITION('ENG-012142','ENG-012142',#335,#333);
#335=PRODUCT_DEFINITION_FORMATION('',$,#340);
#336=PRODUCT_RELATED_PRODUCT_CATEGORY('ENG-012142','ENG-012142',(#340));
#337=APPLICATION_PROTOCOL_DEFINITION('international standard',
'automotive_design',2009,#338);
#338=APPLICATION_CONTEXT(
'Core Data for Automotive Mechanical Design Process');
#339=PRODUCT_CONTEXT('part definition',#338,'mechanical');
#340=PRODUCT('ENG-012142','ENG-012142',$,(#339));
#341=PRESENTATION_STYLE_ASSIGNMENT((#342));
#342=SURFACE_STYLE_USAGE(.BOTH.,#343);
#343=SURFACE_SIDE_STYLE($,(#344));
#344=SURFACE_STYLE_FILL_AREA(#345);
#345=FILL_AREA_STYLE($,(#346));
#346=FILL_AREA_STYLE_COLOUR($,#347);
#347=COLOUR_RGB('',0.752941176470588,0.752941176470588,0.752941176470588);
ENDSEC;
END-ISO-10303-21;
