ISO-10303-21;
HEADER;
FILE_DESCRIPTION (( 'STEP AP203' ),
    '1' );
FILE_NAME ('3D_R169_ DN54-25_17323203.STEP',
    '2024-07-17T12:17:09',
    ( '' ),
    ( '' ),
    'SwSTEP 2.0',
    'SolidWorks 2024',
    '' );
FILE_SCHEMA (( 'CONFIG_CONTROL_DESIGN' ));
ENDSEC;

DATA;
#1 = EDGE_CURVE ( 'NONE', #123, #128, #159, .T. ) ;
#2 = ORIENTED_EDGE ( 'NONE', *, *, #213, .F. ) ;
#3 = EDGE_LOOP ( 'NONE', ( #193, #29, #237, #153 ) ) ;
#4 = VERTEX_POINT ( 'NONE', #91 ) ;
#5 = DATE_AND_TIME ( #100, #247 ) ;
#6 = VERTEX_POINT ( 'NONE', #127 ) ;
#7 = CC_DESIGN_DATE_AND_TIME_ASSIGNMENT ( #28, #17, ( #41 ) ) ;
#8 = CIRCLE ( 'NONE', #139, 10.47241248990059326 ) ;
#9 = CC_DESIGN_APPROVAL ( #97, ( #81 ) ) ;
#10 = CALENDAR_DATE ( 2024, 17, 7 ) ;
#11 = CARTESIAN_POINT ( 'NONE',  ( 87.00000000000000000, 0.000000000000000000, 0.000000000000000000 ) ) ;
#12 = CALENDAR_DATE ( 2024, 17, 7 ) ;
#13 = DIRECTION ( 'NONE',  ( 0.000000000000000000, 0.000000000000000000, -1.000000000000000000 ) ) ;
#14 = SHAPE_DEFINITION_REPRESENTATION ( #98, #86 ) ;
#15 = FACE_OUTER_BOUND ( 'NONE', #40, .T. ) ;
#16 = CIRCLE ( 'NONE', #195, 10.47241248990059326 ) ;
#17 = DATE_TIME_ROLE ( 'creation_date' ) ;
#18 = ORIENTED_EDGE ( 'NONE', *, *, #93, .F. ) ;
#19 = CIRCLE ( 'NONE', #51, 12.50000000000000000 ) ;
#20 = CARTESIAN_POINT ( 'NONE',  ( 0.000000000000000000, 0.000000000000000000, 24.97241248990059148 ) ) ;
#21 = ADVANCED_FACE ( 'NONE', ( #204 ), #132, .T. ) ;
#22 = VECTOR ( 'NONE', #167, 1000.000000000000000 ) ;
#23 = AXIS2_PLACEMENT_3D ( 'NONE', #241, #224, #198 ) ;
#24 = APPLICATION_PROTOCOL_DEFINITION ( 'international standard', 'config_control_design', 1994, #192 ) ;
#25 = ORIENTED_EDGE ( 'NONE', *, *, #121, .T. ) ;
#26 = APPROVAL ( #59, 'UNSPECIFIED' ) ;
#27 = EDGE_LOOP ( 'NONE', ( #54, #116, #124, #115 ) ) ;
#28 = DATE_AND_TIME ( #12, #130 ) ;
#29 = ORIENTED_EDGE ( 'NONE', *, *, #56, .F. ) ;
#30 = DIRECTION ( 'NONE',  ( 0.000000000000000000, 0.000000000000000000, 1.000000000000000000 ) ) ;
#31 = APPROVAL_DATE_TIME ( #5, #97 ) ;
#32 = ORIENTED_EDGE ( 'NONE', *, *, #108, .F. ) ;
#33 = PERSON_AND_ORGANIZATION ( #114, #103 ) ;
#34 = CARTESIAN_POINT ( 'NONE',  ( 0.000000000000000000, 0.000000000000000000, 0.000000000000000000 ) ) ;
#35 = AXIS2_PLACEMENT_3D ( 'NONE', #49, #187, #110 ) ;
#36 = DIRECTION ( 'NONE',  ( 0.000000000000000000, 0.000000000000000000, -1.000000000000000000 ) ) ;
#37 =( NAMED_UNIT ( * ) PLANE_ANGLE_UNIT ( ) SI_UNIT ( $, .RADIAN. ) );
#38 = PRODUCT_RELATED_PRODUCT_CATEGORY ( 'detail', '', ( #135 ) ) ;
#39 = DIRECTION ( 'NONE',  ( 0.000000000000000000, 0.000000000000000000, 1.000000000000000000 ) ) ;
#40 = EDGE_LOOP ( 'NONE', ( #197, #42 ) ) ;
#41 = PRODUCT_DEFINITION ( 'UNKNOWN', '', #191, #205 ) ;
#42 = ORIENTED_EDGE ( 'NONE', *, *, #44, .F. ) ;
#43 = COORDINATED_UNIVERSAL_TIME_OFFSET ( 1, 0, .AHEAD. ) ;
#44 = EDGE_CURVE ( 'NONE', #4, #128, #53, .T. ) ;
#45 = CARTESIAN_POINT ( 'NONE',  ( 0.000000000000000000, -1.653273178848926867E-15, 27.00000000000000000 ) ) ;
#46 = DIRECTION ( 'NONE',  ( 0.000000000000000000, 0.000000000000000000, -1.000000000000000000 ) ) ;
#47 = PERSON_AND_ORGANIZATION ( #114, #103 ) ;
#48 = DIRECTION ( 'NONE',  ( 1.000000000000000000, 0.000000000000000000, 0.000000000000000000 ) ) ;
#49 = CARTESIAN_POINT ( 'NONE',  ( 87.00000000000000000, 0.000000000000000000, 0.000000000000000000 ) ) ;
#50 = AXIS2_PLACEMENT_3D ( 'NONE', #65, #223, #36 ) ;
#51 = AXIS2_PLACEMENT_3D ( 'NONE', #11, #165, #85 ) ;
#52 = LOCAL_TIME ( 14, 17, 9.000000000000000000, #43 ) ;
#53 = CIRCLE ( 'NONE', #92, 27.00000000000000000 ) ;
#54 = ORIENTED_EDGE ( 'NONE', *, *, #172, .F. ) ;
#55 = ADVANCED_FACE ( 'NONE', ( #182, #15 ), #163, .F. ) ;
#56 = EDGE_CURVE ( 'NONE', #123, #62, #19, .T. ) ;
#57 = CALENDAR_DATE ( 2024, 17, 7 ) ;
#58 = VERTEX_POINT ( 'NONE', #244 ) ;
#59 = APPROVAL_STATUS ( 'not_yet_approved' ) ;
#60 = ORIENTED_EDGE ( 'NONE', *, *, #249, .F. ) ;
#61 = COORDINATED_UNIVERSAL_TIME_OFFSET ( 1, 0, .AHEAD. ) ;
#62 = VERTEX_POINT ( 'NONE', #220 ) ;
#63 = APPROVAL_DATE_TIME ( #240, #26 ) ;
#64 = EDGE_LOOP ( 'NONE', ( #152, #212, #18, #234 ) ) ;
#65 = CARTESIAN_POINT ( 'NONE',  ( 0.000000000000000000, 0.000000000000000000, 0.000000000000000000 ) ) ;
#66 = CARTESIAN_POINT ( 'NONE',  ( 87.00000000000000000, 0.000000000000000000, 0.000000000000000000 ) ) ;
#67 = CARTESIAN_POINT ( 'NONE',  ( 87.00000000000000000, 0.000000000000000000, 0.000000000000000000 ) ) ;
#68 = DIRECTION ( 'NONE',  ( 1.000000000000000000, 0.000000000000000000, 0.000000000000000000 ) ) ;
#69 = CC_DESIGN_PERSON_AND_ORGANIZATION_ASSIGNMENT ( #117, #119, ( #41 ) ) ;
#70 = CARTESIAN_POINT ( 'NONE',  ( 87.00000000000000000, 1.530808498934191521E-15, -12.50000000000000000 ) ) ;
#71 = LOCAL_TIME ( 14, 17, 9.000000000000000000, #61 ) ;
#72 = AXIS2_PLACEMENT_3D ( 'NONE', #245, #48, #147 ) ;
#73 = DIRECTION ( 'NONE',  ( -0.9863939238321437486, 2.013306935865721687E-17, -0.1643989873053572914 ) ) ;
#74 = AXIS2_PLACEMENT_3D ( 'NONE', #210, #151, #30 ) ;
#75 = EDGE_LOOP ( 'NONE', ( #2, #232, #25, #60 ) ) ;
#76 = ORIENTED_EDGE ( 'NONE', *, *, #78, .F. ) ;
#77 = APPLICATION_CONTEXT ( 'configuration controlled 3d designs of mechanical parts and assemblies' ) ;
#78 = EDGE_CURVE ( 'NONE', #6, #58, #8, .T. ) ;
#79 = PERSON_AND_ORGANIZATION ( #114, #103 ) ;
#80 = FACE_OUTER_BOUND ( 'NONE', #3, .T. ) ;
#81 = SECURITY_CLASSIFICATION ( '', '', #181 ) ;
#82 = PERSON_AND_ORGANIZATION ( #114, #103 ) ;
#83 = PERSON_AND_ORGANIZATION_ROLE ( 'design_owner' ) ;
#84 = ADVANCED_FACE ( 'NONE', ( #157, #225 ), #146, .T. ) ;
#85 = DIRECTION ( 'NONE',  ( 0.000000000000000000, 0.000000000000000000, -1.000000000000000000 ) ) ;
#86 = ADVANCED_BREP_SHAPE_REPRESENTATION ( '3D_R169_ DN54-25_17323203', ( #99, #227 ), #171 ) ;
#87 = DIRECTION ( 'NONE',  ( -0.9863939238321437486, 0.000000000000000000, 0.1643989873053572914 ) ) ;
#88 = COORDINATED_UNIVERSAL_TIME_OFFSET ( 1, 0, .AHEAD. ) ;
#89 = CARTESIAN_POINT ( 'NONE',  ( 0.000000000000000000, 0.000000000000000000, 0.000000000000000000 ) ) ;
#90 = CONICAL_SURFACE ( 'NONE', #235, 10.52721215233571250, 0.1651486774146267988 ) ;
#91 = CARTESIAN_POINT ( 'NONE',  ( 0.000000000000000000, 4.959819536546780600E-15, -27.00000000000000000 ) ) ;
#92 = AXIS2_PLACEMENT_3D ( 'NONE', #89, #142, #105 ) ;
#93 = EDGE_CURVE ( 'NONE', #179, #173, #95, .T. ) ;
#94 = LINE ( 'NONE', #169, #190 ) ;
#95 = CIRCLE ( 'NONE', #72, 24.97241248990059148 ) ;
#96 = CC_DESIGN_APPROVAL ( #26, ( #191 ) ) ;
#97 = APPROVAL ( #201, 'UNSPECIFIED' ) ;
#98 = PRODUCT_DEFINITION_SHAPE ( 'NONE', 'NONE',  #41 ) ;
#99 = MANIFOLD_SOLID_BREP ( 'Wandung2', #164 ) ;
#100 = CALENDAR_DATE ( 2024, 17, 7 ) ;
#101 = DIRECTION ( 'NONE',  ( 1.000000000000000000, 0.000000000000000000, 0.000000000000000000 ) ) ;
#102 = DIRECTION ( 'NONE',  ( 1.000000000000000000, 0.000000000000000000, 0.000000000000000000 ) ) ;
#103 = ORGANIZATION ( 'UNSPECIFIED', 'UNSPECIFIED', '' ) ;
#104 = DIRECTION ( 'NONE',  ( -1.000000000000000000, -0.000000000000000000, -0.000000000000000000 ) ) ;
#105 = DIRECTION ( 'NONE',  ( 0.000000000000000000, 0.000000000000000000, -1.000000000000000000 ) ) ;
#106 = PERSON_AND_ORGANIZATION ( #114, #103 ) ;
#107 = DIRECTION ( 'NONE',  ( 1.000000000000000000, 0.000000000000000000, 0.000000000000000000 ) ) ;
#108 = EDGE_CURVE ( 'NONE', #58, #6, #16, .T. ) ;
#109 = AXIS2_PLACEMENT_3D ( 'NONE', #111, #246, #248 ) ;
#110 = DIRECTION ( 'NONE',  ( 0.000000000000000000, 0.000000000000000000, -1.000000000000000000 ) ) ;
#111 = CARTESIAN_POINT ( 'NONE',  ( 86.67120202538927742, 0.000000000000000000, 0.000000000000000000 ) ) ;
#112 = ADVANCED_FACE ( 'NONE', ( #80 ), #137, .T. ) ;
#113 = APPROVAL_PERSON_ORGANIZATION ( #82, #97, #196 ) ;
#114 = PERSON ( 'UNSPECIFIED', 'UNSPECIFIED', 'UNSPECIFIED', ('UNSPECIFIED'), ('UNSPECIFIED'), ('UNSPECIFIED') ) ;
#115 = ORIENTED_EDGE ( 'NONE', *, *, #1, .F. ) ;
#116 = ORIENTED_EDGE ( 'NONE', *, *, #221, .T. ) ;
#117 = PERSON_AND_ORGANIZATION ( #114, #103 ) ;
#118 = FACE_OUTER_BOUND ( 'NONE', #75, .T. ) ;
#119 = PERSON_AND_ORGANIZATION_ROLE ( 'creator' ) ;
#120 = DIRECTION ( 'NONE',  ( 0.000000000000000000, 0.000000000000000000, -1.000000000000000000 ) ) ;
#121 = EDGE_CURVE ( 'NONE', #6, #179, #162, .T. ) ;
#122 = CARTESIAN_POINT ( 'NONE',  ( 86.67120202538927742, 0.000000000000000000, 0.000000000000000000 ) ) ;
#123 = VERTEX_POINT ( 'NONE', #145 ) ;
#124 = ORIENTED_EDGE ( 'NONE', *, *, #44, .T. ) ;
#125 = CC_DESIGN_DATE_AND_TIME_ASSIGNMENT ( #144, #174, ( #81 ) ) ;
#126 = CALENDAR_DATE ( 2024, 17, 7 ) ;
#127 = CARTESIAN_POINT ( 'NONE',  ( 87.00000000000000000, 0.000000000000000000, 10.47241248990059326 ) ) ;
#128 = VERTEX_POINT ( 'NONE', #45 ) ;
#129 = CIRCLE ( 'NONE', #35, 12.50000000000000000 ) ;
#130 = LOCAL_TIME ( 14, 17, 9.000000000000000000, #178 ) ;
#131 = CC_DESIGN_PERSON_AND_ORGANIZATION_ASSIGNMENT ( #79, #83, ( #135 ) ) ;
#132 = CONICAL_SURFACE ( 'NONE', #23, 12.50000000000000000, 0.1651486774146267988 ) ;
#133 = CARTESIAN_POINT ( 'NONE',  ( 0.000000000000000000, 0.000000000000000000, 0.000000000000000000 ) ) ;
#134 = ADVANCED_FACE ( 'NONE', ( #118 ), #90, .F. ) ;
#135 = PRODUCT ( '3D_R169_ DN54-25_17323203', '3D_R169_ DN54-25_17323203', '', ( #236 ) ) ;
#136 = ORIENTED_EDGE ( 'NONE', *, *, #56, .T. ) ;
#137 = CONICAL_SURFACE ( 'NONE', #74, 12.50000000000000000, 0.1651486774146267988 ) ;
#138 = APPROVAL_STATUS ( 'not_yet_approved' ) ;
#139 = AXIS2_PLACEMENT_3D ( 'NONE', #66, #107, #46 ) ;
#140 = PERSON_AND_ORGANIZATION_ROLE ( 'design_supplier' ) ;
#141 = CC_DESIGN_PERSON_AND_ORGANIZATION_ASSIGNMENT ( #106, #222, ( #81 ) ) ;
#142 = DIRECTION ( 'NONE',  ( 1.000000000000000000, 0.000000000000000000, 0.000000000000000000 ) ) ;
#143 = EDGE_LOOP ( 'NONE', ( #136, #214 ) ) ;
#144 = DATE_AND_TIME ( #10, #71 ) ;
#145 = CARTESIAN_POINT ( 'NONE',  ( 87.00000000000000000, 7.654042494670957606E-16, 12.50000000000000000 ) ) ;
#146 = PLANE ( 'NONE',  #207 ) ;
#147 = DIRECTION ( 'NONE',  ( 0.000000000000000000, 0.000000000000000000, -1.000000000000000000 ) ) ;
#148 =( LENGTH_UNIT ( ) NAMED_UNIT ( * ) SI_UNIT ( .MILLI., .METRE. ) );
#149 = DIRECTION ( 'NONE',  ( 0.000000000000000000, 0.000000000000000000, -1.000000000000000000 ) ) ;
#150 = CIRCLE ( 'NONE', #50, 27.00000000000000000 ) ;
#151 = DIRECTION ( 'NONE',  ( -1.000000000000000000, -0.000000000000000000, -0.000000000000000000 ) ) ;
#152 = ORIENTED_EDGE ( 'NONE', *, *, #78, .T. ) ;
#153 = ORIENTED_EDGE ( 'NONE', *, *, #170, .T. ) ;
#154 = ORIENTED_EDGE ( 'NONE', *, *, #249, .T. ) ;
#155 = VECTOR ( 'NONE', #87, 1000.000000000000000 ) ;
#156 = APPROVAL_DATE_TIME ( #183, #200 ) ;
#157 = FACE_BOUND ( 'NONE', #194, .T. ) ;
#158 = LOCAL_TIME ( 14, 17, 9.000000000000000000, #160 ) ;
#159 = LINE ( 'NONE', #202, #209 ) ;
#160 = COORDINATED_UNIVERSAL_TIME_OFFSET ( 1, 0, .AHEAD. ) ;
#161 = DIRECTION ( 'NONE',  ( 1.000000000000000000, 0.000000000000000000, 0.000000000000000000 ) ) ;
#162 = LINE ( 'NONE', #180, #155 ) ;
#163 = PLANE ( 'NONE',  #230 ) ;
#164 = CLOSED_SHELL ( 'NONE', ( #238, #21, #84, #55, #112, #134 ) ) ;
#165 = DIRECTION ( 'NONE',  ( 1.000000000000000000, 0.000000000000000000, 0.000000000000000000 ) ) ;
#166 = UNCERTAINTY_MEASURE_WITH_UNIT (LENGTH_MEASURE( 1.000000000000000082E-05 ), #148, 'distance_accuracy_value', 'NONE');
#167 = DIRECTION ( 'NONE',  ( -0.9863939238321437486, 2.013306935865721687E-17, -0.1643989873053572914 ) ) ;
#168 = CC_DESIGN_SECURITY_CLASSIFICATION ( #81, ( #191 ) ) ;
#169 = CARTESIAN_POINT ( 'NONE',  ( 86.67120202538927742, 1.289211666630304907E-15, -10.52721215233571250 ) ) ;
#170 = EDGE_CURVE ( 'NONE', #128, #4, #150, .T. ) ;
#171 =( GEOMETRIC_REPRESENTATION_CONTEXT ( 3 ) GLOBAL_UNCERTAINTY_ASSIGNED_CONTEXT ( ( #166 ) ) GLOBAL_UNIT_ASSIGNED_CONTEXT ( ( #148, #37, #189 ) ) REPRESENTATION_CONTEXT ( 'NONE', 'WORKASPACE' ) );
#172 = EDGE_CURVE ( 'NONE', #62, #123, #129, .T. ) ;
#173 = VERTEX_POINT ( 'NONE', #188 ) ;
#174 = DATE_TIME_ROLE ( 'classification_date' ) ;
#175 = DIRECTION ( 'NONE',  ( 0.000000000000000000, 0.000000000000000000, -1.000000000000000000 ) ) ;
#176 = EDGE_LOOP ( 'NONE', ( #199, #154 ) ) ;
#177 = APPROVAL_PERSON_ORGANIZATION ( #33, #26, #217 ) ;
#178 = COORDINATED_UNIVERSAL_TIME_OFFSET ( 1, 0, .AHEAD. ) ;
#179 = VERTEX_POINT ( 'NONE', #20 ) ;
#180 = CARTESIAN_POINT ( 'NONE',  ( 86.67120202538927742, 0.000000000000000000, 10.52721215233571250 ) ) ;
#181 = SECURITY_CLASSIFICATION_LEVEL ( 'unclassified' ) ;
#182 = FACE_BOUND ( 'NONE', #176, .T. ) ;
#183 = DATE_AND_TIME ( #126, #158 ) ;
#184 = AXIS2_PLACEMENT_3D ( 'NONE', #228, #68, #149 ) ;
#185 = LINE ( 'NONE', #70, #22 ) ;
#186 = CC_DESIGN_PERSON_AND_ORGANIZATION_ASSIGNMENT ( #216, #140, ( #191 ) ) ;
#187 = DIRECTION ( 'NONE',  ( 1.000000000000000000, 0.000000000000000000, 0.000000000000000000 ) ) ;
#188 = CARTESIAN_POINT ( 'NONE',  ( 0.000000000000000000, 3.058238502274414619E-15, -24.97241248990059148 ) ) ;
#189 =( NAMED_UNIT ( * ) SI_UNIT ( $, .STERADIAN. ) SOLID_ANGLE_UNIT ( ) );
#190 = VECTOR ( 'NONE', #73, 1000.000000000000000 ) ;
#191 = PRODUCT_DEFINITION_FORMATION_WITH_SPECIFIED_SOURCE ( 'ANY', '', #135, .NOT_KNOWN. ) ;
#192 = APPLICATION_CONTEXT ( 'configuration controlled 3d designs of mechanical parts and assemblies' ) ;
#193 = ORIENTED_EDGE ( 'NONE', *, *, #221, .F. ) ;
#194 = EDGE_LOOP ( 'NONE', ( #76, #32 ) ) ;
#195 = AXIS2_PLACEMENT_3D ( 'NONE', #67, #101, #175 ) ;
#196 = APPROVAL_ROLE ( '' ) ;
#197 = ORIENTED_EDGE ( 'NONE', *, *, #170, .F. ) ;
#198 = DIRECTION ( 'NONE',  ( 0.000000000000000000, 0.000000000000000000, 1.000000000000000000 ) ) ;
#199 = ORIENTED_EDGE ( 'NONE', *, *, #93, .T. ) ;
#200 = APPROVAL ( #138, 'UNSPECIFIED' ) ;
#201 = APPROVAL_STATUS ( 'not_yet_approved' ) ;
#202 = CARTESIAN_POINT ( 'NONE',  ( 87.00000000000000000, 0.000000000000000000, 12.50000000000000000 ) ) ;
#203 = DIRECTION ( 'NONE',  ( 1.000000000000000000, 0.000000000000000000, 0.000000000000000000 ) ) ;
#204 = FACE_OUTER_BOUND ( 'NONE', #27, .T. ) ;
#205 = DESIGN_CONTEXT ( 'detailed design', #192, 'design' ) ;
#206 = CIRCLE ( 'NONE', #184, 24.97241248990059148 ) ;
#207 = AXIS2_PLACEMENT_3D ( 'NONE', #218, #161, #120 ) ;
#208 = APPROVAL_PERSON_ORGANIZATION ( #47, #200, #243 ) ;
#209 = VECTOR ( 'NONE', #239, 1000.000000000000000 ) ;
#210 = CARTESIAN_POINT ( 'NONE',  ( 87.00000000000000000, 0.000000000000000000, 0.000000000000000000 ) ) ;
#211 = CC_DESIGN_APPROVAL ( #200, ( #41 ) ) ;
#212 = ORIENTED_EDGE ( 'NONE', *, *, #213, .T. ) ;
#213 = EDGE_CURVE ( 'NONE', #58, #173, #94, .T. ) ;
#214 = ORIENTED_EDGE ( 'NONE', *, *, #172, .T. ) ;
#215 = CONICAL_SURFACE ( 'NONE', #109, 10.52721215233571250, 0.1651486774146267988 ) ;
#216 = PERSON_AND_ORGANIZATION ( #114, #103 ) ;
#217 = APPROVAL_ROLE ( '' ) ;
#218 = CARTESIAN_POINT ( 'NONE',  ( 87.00000000000000000, 0.000000000000000000, 0.000000000000000000 ) ) ;
#219 = PERSON_AND_ORGANIZATION_ROLE ( 'creator' ) ;
#220 = CARTESIAN_POINT ( 'NONE',  ( 87.00000000000000000, 7.654042494670957606E-16, -12.50000000000000000 ) ) ;
#221 = EDGE_CURVE ( 'NONE', #62, #4, #185, .T. ) ;
#222 = PERSON_AND_ORGANIZATION_ROLE ( 'classification_officer' ) ;
#223 = DIRECTION ( 'NONE',  ( 1.000000000000000000, 0.000000000000000000, 0.000000000000000000 ) ) ;
#224 = DIRECTION ( 'NONE',  ( -1.000000000000000000, -0.000000000000000000, -0.000000000000000000 ) ) ;
#225 = FACE_OUTER_BOUND ( 'NONE', #143, .T. ) ;
#226 = FACE_OUTER_BOUND ( 'NONE', #64, .T. ) ;
#227 = AXIS2_PLACEMENT_3D ( 'NONE', #133, #39, #203 ) ;
#228 = CARTESIAN_POINT ( 'NONE',  ( 0.000000000000000000, 0.000000000000000000, 0.000000000000000000 ) ) ;
#229 = APPLICATION_PROTOCOL_DEFINITION ( 'international standard', 'config_control_design', 1994, #77 ) ;
#230 = AXIS2_PLACEMENT_3D ( 'NONE', #34, #102, #13 ) ;
#231 = CC_DESIGN_PERSON_AND_ORGANIZATION_ASSIGNMENT ( #233, #219, ( #191 ) ) ;
#232 = ORIENTED_EDGE ( 'NONE', *, *, #108, .T. ) ;
#233 = PERSON_AND_ORGANIZATION ( #114, #103 ) ;
#234 = ORIENTED_EDGE ( 'NONE', *, *, #121, .F. ) ;
#235 = AXIS2_PLACEMENT_3D ( 'NONE', #122, #104, #242 ) ;
#236 = MECHANICAL_CONTEXT ( 'NONE', #77, 'mechanical' ) ;
#237 = ORIENTED_EDGE ( 'NONE', *, *, #1, .T. ) ;
#238 = ADVANCED_FACE ( 'NONE', ( #226 ), #215, .F. ) ;
#239 = DIRECTION ( 'NONE',  ( -0.9863939238321437486, 0.000000000000000000, 0.1643989873053572914 ) ) ;
#240 = DATE_AND_TIME ( #57, #52 ) ;
#241 = CARTESIAN_POINT ( 'NONE',  ( 87.00000000000000000, 0.000000000000000000, 0.000000000000000000 ) ) ;
#242 = DIRECTION ( 'NONE',  ( 0.000000000000000000, 0.000000000000000000, 1.000000000000000000 ) ) ;
#243 = APPROVAL_ROLE ( '' ) ;
#244 = CARTESIAN_POINT ( 'NONE',  ( 87.00000000000000000, 2.170369572892583218E-15, -10.47241248990059326 ) ) ;
#245 = CARTESIAN_POINT ( 'NONE',  ( 0.000000000000000000, 0.000000000000000000, 0.000000000000000000 ) ) ;
#246 = DIRECTION ( 'NONE',  ( -1.000000000000000000, -0.000000000000000000, -0.000000000000000000 ) ) ;
#247 = LOCAL_TIME ( 14, 17, 9.000000000000000000, #88 ) ;
#248 = DIRECTION ( 'NONE',  ( 0.000000000000000000, 0.000000000000000000, 1.000000000000000000 ) ) ;
#249 = EDGE_CURVE ( 'NONE', #173, #179, #206, .T. ) ;
ENDSEC;
END-ISO-10303-21;
