ISO-10303-21;
HEADER;
FILE_DESCRIPTION (( 'STEP AP203' ),
    '1' );
FILE_NAME ('3D_GR1382_DN28x1.5_18380340.STEP',
    '2024-09-23T06:01:31',
    ( '' ),
    ( '' ),
    'SwSTEP 2.0',
    'SolidWorks 2024',
    '' );
FILE_SCHEMA (( 'CONFIG_CONTROL_DESIGN' ));
ENDSEC;

DATA;
#1 = ORIENTED_EDGE ( 'NONE', *, *, #263, .T. ) ;
#2 = PERSON_AND_ORGANIZATION_ROLE ( 'creator' ) ;
#3 = ORIENTED_EDGE ( 'NONE', *, *, #62, .T. ) ;
#4 = CIRCLE ( 'NONE', #113, 11.50000000000002309 ) ;
#5 = DIRECTION ( 'NONE',  ( -1.000000000000000000, -0.000000000000000000, -0.000000000000000000 ) ) ;
#6 = CARTESIAN_POINT ( 'NONE',  ( 7.000000000000006217, 1.530808498934194282E-15, -12.50000000000002309 ) ) ;
#7 = ORIENTED_EDGE ( 'NONE', *, *, #153, .T. ) ;
#8 = PERSON_AND_ORGANIZATION ( #312, #337 ) ;
#9 = CARTESIAN_POINT ( 'NONE',  ( -154.8395502972293230, 0.000000000000000000, 14.00000000000001954 ) ) ;
#10 = DIRECTION ( 'NONE',  ( 1.000000000000000000, 0.000000000000000000, 0.000000000000000000 ) ) ;
#11 = FACE_OUTER_BOUND ( 'NONE', #270, .T. ) ;
#12 = DIRECTION ( 'NONE',  ( -0.000000000000000000, 0.000000000000000000, 1.000000000000000000 ) ) ;
#13 = DIRECTION ( 'NONE',  ( -0.000000000000000000, 1.000000000000000000, 1.224646799147353207E-16 ) ) ;
#14 = DIRECTION ( 'NONE',  ( 0.000000000000000000, 0.000000000000000000, 1.000000000000000000 ) ) ;
#15 = CC_DESIGN_DATE_AND_TIME_ASSIGNMENT ( #91, #198, ( #220 ) ) ;
#16 = DIRECTION ( 'NONE',  ( -0.000000000000000000, 0.000000000000000000, 1.000000000000000000 ) ) ;
#17 = LOCAL_TIME ( 8, 1, 31.00000000000000000, #80 ) ;
#18 = CIRCLE ( 'NONE', #126, 13.00000000000001776 ) ;
#19 = DIRECTION ( 'NONE',  ( 0.000000000000000000, 0.000000000000000000, 1.000000000000000000 ) ) ;
#20 = CARTESIAN_POINT ( 'NONE',  ( 8.000000000000007105, 0.000000000000000000, 0.000000000000000000 ) ) ;
#21 = ORIENTED_EDGE ( 'NONE', *, *, #63, .T. ) ;
#22 = CARTESIAN_POINT ( 'NONE',  ( -154.8395502972293230, 0.000000000000000000, 0.000000000000000000 ) ) ;
#23 = APPROVAL_DATE_TIME ( #308, #73 ) ;
#24 = VERTEX_POINT ( 'NONE', #169 ) ;
#25 = EDGE_CURVE ( 'NONE', #164, #250, #168, .T. ) ;
#26 = EDGE_CURVE ( 'NONE', #164, #297, #36, .T. ) ;
#27 = CC_DESIGN_APPROVAL ( #212, ( #201 ) ) ;
#28 = ORIENTED_EDGE ( 'NONE', *, *, #289, .F. ) ;
#29 = APPLICATION_PROTOCOL_DEFINITION ( 'international standard', 'config_control_design', 1994, #314 ) ;
#30 = VERTEX_POINT ( 'NONE', #145 ) ;
#31 = PRODUCT ( '3D_GR1382_DN28x1.5_18380340', '3D_GR1382_DN28x1.5_18380340', '', ( #273 ) ) ;
#32 = DIRECTION ( 'NONE',  ( 0.000000000000000000, 0.000000000000000000, 1.000000000000000000 ) ) ;
#33 = VERTEX_POINT ( 'NONE', #6 ) ;
#34 = TOROIDAL_SURFACE ( 'NONE', #343, 13.00000000000001776, 1.000000000000001332 ) ;
#35 = DIRECTION ( 'NONE',  ( 0.000000000000000000, 0.000000000000000000, 1.000000000000000000 ) ) ;
#36 = CIRCLE ( 'NONE', #235, 14.00000000000001954 ) ;
#37 = VERTEX_POINT ( 'NONE', #116 ) ;
#38 = AXIS2_PLACEMENT_3D ( 'NONE', #130, #207, #19 ) ;
#39 = FACE_OUTER_BOUND ( 'NONE', #333, .T. ) ;
#40 = EDGE_CURVE ( 'NONE', #297, #164, #325, .T. ) ;
#41 = DIRECTION ( 'NONE',  ( 0.000000000000000000, 0.000000000000000000, 1.000000000000000000 ) ) ;
#42 = APPROVAL ( #118, 'UNSPECIFIED' ) ;
#43 = CARTESIAN_POINT ( 'NONE',  ( 0.000000000000000000, 0.000000000000000000, 12.50000000000001954 ) ) ;
#44 = DIRECTION ( 'NONE',  ( 0.000000000000000000, 0.000000000000000000, 1.000000000000000000 ) ) ;
#45 = LINE ( 'NONE', #98, #221 ) ;
#46 =( NAMED_UNIT ( * ) SI_UNIT ( $, .STERADIAN. ) SOLID_ANGLE_UNIT ( ) );
#47 = CIRCLE ( 'NONE', #245, 13.00000000000001776 ) ;
#48 = FACE_OUTER_BOUND ( 'NONE', #302, .T. ) ;
#49 = CIRCLE ( 'NONE', #283, 14.00000000000002132 ) ;
#50 = DIRECTION ( 'NONE',  ( 0.000000000000000000, 0.000000000000000000, 1.000000000000000000 ) ) ;
#51 = CARTESIAN_POINT ( 'NONE',  ( -154.8395502972293230, 1.530808498934194085E-15, -12.50000000000002132 ) ) ;
#52 = DIRECTION ( 'NONE',  ( -1.000000000000000000, -0.000000000000000000, -0.000000000000000000 ) ) ;
#53 = ADVANCED_FACE ( 'NONE', ( #344 ), #34, .T. ) ;
#54 = DATE_AND_TIME ( #64, #181 ) ;
#55 = EDGE_LOOP ( 'NONE', ( #139, #251, #81, #218 ) ) ;
#56 = EDGE_CURVE ( 'NONE', #30, #215, #45, .T. ) ;
#57 = EDGE_LOOP ( 'NONE', ( #28, #60, #190, #165 ) ) ;
#58 = EDGE_LOOP ( 'NONE', ( #85, #329, #59, #328 ) ) ;
#59 = ORIENTED_EDGE ( 'NONE', *, *, #56, .T. ) ;
#60 = ORIENTED_EDGE ( 'NONE', *, *, #281, .T. ) ;
#61 = DIRECTION ( 'NONE',  ( -1.000000000000000000, -0.000000000000000000, -0.000000000000000000 ) ) ;
#62 = EDGE_CURVE ( 'NONE', #250, #195, #141, .T. ) ;
#63 = EDGE_CURVE ( 'NONE', #352, #250, #77, .T. ) ;
#64 = CALENDAR_DATE ( 2024, 23, 9 ) ;
#65 = CARTESIAN_POINT ( 'NONE',  ( 8.000000000000007105, 0.000000000000000000, 11.50000000000002309 ) ) ;
#66 = CC_DESIGN_APPROVAL ( #73, ( #220 ) ) ;
#67 = AXIS2_PLACEMENT_3D ( 'NONE', #225, #335, #89 ) ;
#68 = COORDINATED_UNIVERSAL_TIME_OFFSET ( 1, 0, .AHEAD. ) ;
#69 = ADVANCED_FACE ( 'NONE', ( #204 ), #97, .T. ) ;
#70 = DIRECTION ( 'NONE',  ( -1.000000000000000000, 0.000000000000000000, -0.000000000000000000 ) ) ;
#71 = DIRECTION ( 'NONE',  ( -1.000000000000000000, -0.000000000000000000, -0.000000000000000000 ) ) ;
#72 = CARTESIAN_POINT ( 'NONE',  ( 8.000000000000000000, 1.517883041479706208E-15, 0.000000000000000000 ) ) ;
#73 = APPROVAL ( #222, 'UNSPECIFIED' ) ;
#74 = DIRECTION ( 'NONE',  ( -1.000000000000000000, -0.000000000000000000, -0.000000000000000000 ) ) ;
#75 = CYLINDRICAL_SURFACE ( 'NONE', #311, 14.00000000000001954 ) ;
#76 = EDGE_CURVE ( 'NONE', #37, #30, #342, .T. ) ;
#77 = CIRCLE ( 'NONE', #199, 14.00000000000002132 ) ;
#78 = CARTESIAN_POINT ( 'NONE',  ( -2.000000000000001776, 0.000000000000000000, 14.00000000000002132 ) ) ;
#79 = CIRCLE ( 'NONE', #340, 12.50000000000002309 ) ;
#80 = COORDINATED_UNIVERSAL_TIME_OFFSET ( 1, 0, .AHEAD. ) ;
#81 = ORIENTED_EDGE ( 'NONE', *, *, #108, .F. ) ;
#82 = EDGE_CURVE ( 'NONE', #37, #278, #4, .T. ) ;
#83 = SHAPE_DEFINITION_REPRESENTATION ( #167, #155 ) ;
#84 = AXIS2_PLACEMENT_3D ( 'NONE', #259, #234, #41 ) ;
#85 = ORIENTED_EDGE ( 'NONE', *, *, #263, .F. ) ;
#86 = PERSON_AND_ORGANIZATION_ROLE ( 'creator' ) ;
#87 = ORIENTED_EDGE ( 'NONE', *, *, #194, .F. ) ;
#88 = ORIENTED_EDGE ( 'NONE', *, *, #25, .T. ) ;
#89 = DIRECTION ( 'NONE',  ( 0.000000000000000000, 0.000000000000000000, 1.000000000000000000 ) ) ;
#90 = CARTESIAN_POINT ( 'NONE',  ( -3.000000000000002665, 1.653273178848929233E-15, -13.00000000000001776 ) ) ;
#91 = DATE_AND_TIME ( #112, #17 ) ;
#92 = DIRECTION ( 'NONE',  ( 0.000000000000000000, 0.000000000000000000, 1.000000000000000000 ) ) ;
#93 = VECTOR ( 'NONE', #336, 1000.000000000000000 ) ;
#94 = PERSON_AND_ORGANIZATION_ROLE ( 'design_supplier' ) ;
#95 = DIRECTION ( 'NONE',  ( -1.000000000000000000, -0.000000000000000000, -0.000000000000000000 ) ) ;
#96 = APPROVAL_PERSON_ORGANIZATION ( #354, #42, #107 ) ;
#97 = TOROIDAL_SURFACE ( 'NONE', #309, 13.00000000000001776, 1.000000000000001332 ) ;
#98 = CARTESIAN_POINT ( 'NONE',  ( -154.8395502972293230, 0.000000000000000000, 12.50000000000002132 ) ) ;
#99 = DESIGN_CONTEXT ( 'detailed design', #314, 'design' ) ;
#100 = CARTESIAN_POINT ( 'NONE',  ( -2.000000000000001776, 0.000000000000000000, 0.000000000000000000 ) ) ;
#101 = DIRECTION ( 'NONE',  ( 0.000000000000000000, 0.000000000000000000, -1.000000000000000000 ) ) ;
#102 = LOCAL_TIME ( 8, 1, 31.00000000000000000, #68 ) ;
#103 = DIRECTION ( 'NONE',  ( 1.000000000000000000, 0.000000000000000000, 0.000000000000000000 ) ) ;
#104 = PLANE ( 'NONE',  #144 ) ;
#105 = ORIENTED_EDGE ( 'NONE', *, *, #40, .T. ) ;
#106 = DIRECTION ( 'NONE',  ( -1.000000000000000000, -0.000000000000000000, -0.000000000000000000 ) ) ;
#107 = APPROVAL_ROLE ( '' ) ;
#108 = EDGE_CURVE ( 'NONE', #30, #33, #129, .T. ) ;
#109 = AXIS2_PLACEMENT_3D ( 'NONE', #285, #150, #258 ) ;
#110 = DATE_TIME_ROLE ( 'creation_date' ) ;
#111 = ORIENTED_EDGE ( 'NONE', *, *, #26, .F. ) ;
#112 = CALENDAR_DATE ( 2024, 23, 9 ) ;
#113 = AXIS2_PLACEMENT_3D ( 'NONE', #310, #71, #121 ) ;
#114 = VERTEX_POINT ( 'NONE', #151 ) ;
#115 = ORIENTED_EDGE ( 'NONE', *, *, #179, .F. ) ;
#116 = CARTESIAN_POINT ( 'NONE',  ( 8.000000000000007105, 0.000000000000000000, 11.50000000000002309 ) ) ;
#117 = DIRECTION ( 'NONE',  ( 0.000000000000000000, 0.000000000000000000, 1.000000000000000000 ) ) ;
#118 = APPROVAL_STATUS ( 'not_yet_approved' ) ;
#119 = DIRECTION ( 'NONE',  ( -1.000000000000000000, -0.000000000000000000, -0.000000000000000000 ) ) ;
#120 = DATE_AND_TIME ( #271, #102 ) ;
#121 = DIRECTION ( 'NONE',  ( 0.000000000000000000, 0.000000000000000000, 1.000000000000000000 ) ) ;
#122 = DIRECTION ( 'NONE',  ( -0.7071067811865474617, 0.000000000000000000, 0.7071067811865474617 ) ) ;
#123 = VECTOR ( 'NONE', #142, 1000.000000000000000 ) ;
#124 = CC_DESIGN_PERSON_AND_ORGANIZATION_ASSIGNMENT ( #269, #166, ( #31 ) ) ;
#125 = DIRECTION ( 'NONE',  ( 0.000000000000000000, 0.000000000000000000, 1.000000000000000000 ) ) ;
#126 = AXIS2_PLACEMENT_3D ( 'NONE', #180, #282, #92 ) ;
#127 = EDGE_CURVE ( 'NONE', #215, #114, #293, .T. ) ;
#128 = LINE ( 'NONE', #348, #357 ) ;
#129 = CIRCLE ( 'NONE', #183, 12.50000000000002309 ) ;
#130 = CARTESIAN_POINT ( 'NONE',  ( 0.000000000000000000, 0.000000000000000000, 0.000000000000000000 ) ) ;
#131 = CARTESIAN_POINT ( 'NONE',  ( -3.000000000000001776, 13.00000000000001776, 0.000000000000000000 ) ) ;
#132 = ORIENTED_EDGE ( 'NONE', *, *, #324, .F. ) ;
#133 = DIRECTION ( 'NONE',  ( -1.000000000000000000, -0.000000000000000000, -0.000000000000000000 ) ) ;
#134 = APPROVAL_DATE_TIME ( #54, #212 ) ;
#135 = ORIENTED_EDGE ( 'NONE', *, *, #127, .T. ) ;
#136 = AXIS2_PLACEMENT_3D ( 'NONE', #246, #32, #10 ) ;
#137 = ORIENTED_EDGE ( 'NONE', *, *, #355, .T. ) ;
#138 = PERSON_AND_ORGANIZATION ( #312, #337 ) ;
#139 = ORIENTED_EDGE ( 'NONE', *, *, #82, .T. ) ;
#140 = APPROVAL_STATUS ( 'not_yet_approved' ) ;
#141 = CIRCLE ( 'NONE', #265, 1.000000000000000888 ) ;
#142 = DIRECTION ( 'NONE',  ( -1.000000000000000000, -0.000000000000000000, -0.000000000000000000 ) ) ;
#143 = ORIENTED_EDGE ( 'NONE', *, *, #82, .F. ) ;
#144 = AXIS2_PLACEMENT_3D ( 'NONE', #131, #103, #182 ) ;
#145 = CARTESIAN_POINT ( 'NONE',  ( 7.000000000000006217, 0.000000000000000000, 12.50000000000002309 ) ) ;
#146 = ADVANCED_FACE ( 'NONE', ( #316 ), #339, .T. ) ;
#147 = CYLINDRICAL_SURFACE ( 'NONE', #280, 14.00000000000001954 ) ;
#148 = APPROVAL_ROLE ( '' ) ;
#149 = DIRECTION ( 'NONE',  ( 0.000000000000000000, 0.000000000000000000, 1.000000000000000000 ) ) ;
#150 = DIRECTION ( 'NONE',  ( -1.000000000000000000, -0.000000000000000000, -0.000000000000000000 ) ) ;
#151 = CARTESIAN_POINT ( 'NONE',  ( 0.000000000000000000, 1.530808498934193888E-15, -12.50000000000001954 ) ) ;
#152 = CARTESIAN_POINT ( 'NONE',  ( -2.000000000000001776, 0.000000000000000000, 0.000000000000000000 ) ) ;
#153 = EDGE_CURVE ( 'NONE', #250, #352, #49, .T. ) ;
#154 = ADVANCED_FACE ( 'NONE', ( #11 ), #226, .F. ) ;
#155 = ADVANCED_BREP_SHAPE_REPRESENTATION ( '3D_GR1382_DN28x1.5_18380340', ( #318, #136 ), #322 ) ;
#156 = AXIS2_PLACEMENT_3D ( 'NONE', #317, #133, #50 ) ;
#157 = LINE ( 'NONE', #51, #262 ) ;
#158 = CC_DESIGN_SECURITY_CLASSIFICATION ( #220, ( #175 ) ) ;
#159 = DIRECTION ( 'NONE',  ( -1.000000000000000000, -0.000000000000000000, -0.000000000000000000 ) ) ;
#160 = CARTESIAN_POINT ( 'NONE',  ( -2.000000000000001776, 0.000000000000000000, 13.00000000000001776 ) ) ;
#161 = DIRECTION ( 'NONE',  ( -1.000000000000000000, 0.000000000000000000, -0.000000000000000000 ) ) ;
#162 = ORIENTED_EDGE ( 'NONE', *, *, #153, .F. ) ;
#163 = APPLICATION_CONTEXT ( 'configuration controlled 3d designs of mechanical parts and assemblies' ) ;
#164 = VERTEX_POINT ( 'NONE', #178 ) ;
#165 = ORIENTED_EDGE ( 'NONE', *, *, #243, .F. ) ;
#166 = PERSON_AND_ORGANIZATION_ROLE ( 'design_owner' ) ;
#167 = PRODUCT_DEFINITION_SHAPE ( 'NONE', 'NONE',  #201 ) ;
#168 = LINE ( 'NONE', #277, #123 ) ;
#169 = CARTESIAN_POINT ( 'NONE',  ( -3.000000000000002665, 0.000000000000000000, 13.00000000000001776 ) ) ;
#170 = APPROVAL_PERSON_ORGANIZATION ( #306, #212, #148 ) ;
#171 = ORIENTED_EDGE ( 'NONE', *, *, #127, .F. ) ;
#172 = PRODUCT_RELATED_PRODUCT_CATEGORY ( 'detail', '', ( #31 ) ) ;
#173 = CIRCLE ( 'NONE', #156, 11.50000000000002309 ) ;
#174 = DIRECTION ( 'NONE',  ( 0.000000000000000000, 0.000000000000000000, 1.000000000000000000 ) ) ;
#175 = PRODUCT_DEFINITION_FORMATION_WITH_SPECIFIED_SOURCE ( 'ANY', '', #31, .NOT_KNOWN. ) ;
#176 = AXIS2_PLACEMENT_3D ( 'NONE', #72, #70, #12 ) ;
#177 = DIRECTION ( 'NONE',  ( 0.000000000000000000, -1.224646799147353454E-16, 1.000000000000000000 ) ) ;
#178 = CARTESIAN_POINT ( 'NONE',  ( 0.000000000000000000, 1.714505518806296807E-15, -14.00000000000001954 ) ) ;
#179 = EDGE_CURVE ( 'NONE', #195, #24, #18, .T. ) ;
#180 = CARTESIAN_POINT ( 'NONE',  ( -3.000000000000002665, 0.000000000000000000, 0.000000000000000000 ) ) ;
#181 = LOCAL_TIME ( 8, 1, 31.00000000000000000, #227 ) ;
#182 = DIRECTION ( 'NONE',  ( 0.000000000000000000, 0.000000000000000000, -1.000000000000000000 ) ) ;
#183 = AXIS2_PLACEMENT_3D ( 'NONE', #257, #286, #196 ) ;
#184 = FACE_OUTER_BOUND ( 'NONE', #248, .T. ) ;
#185 =( NAMED_UNIT ( * ) PLANE_ANGLE_UNIT ( ) SI_UNIT ( $, .RADIAN. ) );
#186 = ORIENTED_EDGE ( 'NONE', *, *, #63, .F. ) ;
#187 = AXIS2_PLACEMENT_3D ( 'NONE', #350, #106, #14 ) ;
#188 = APPROVAL_ROLE ( '' ) ;
#189 = ORIENTED_EDGE ( 'NONE', *, *, #108, .T. ) ;
#190 = ORIENTED_EDGE ( 'NONE', *, *, #76, .T. ) ;
#191 = CALENDAR_DATE ( 2024, 23, 9 ) ;
#192 = ORIENTED_EDGE ( 'NONE', *, *, #26, .T. ) ;
#193 = ORIENTED_EDGE ( 'NONE', *, *, #62, .F. ) ;
#194 = EDGE_CURVE ( 'NONE', #297, #352, #287, .T. ) ;
#195 = VERTEX_POINT ( 'NONE', #90 ) ;
#196 = DIRECTION ( 'NONE',  ( 0.000000000000000000, 0.000000000000000000, 1.000000000000000000 ) ) ;
#197 = FACE_OUTER_BOUND ( 'NONE', #247, .T. ) ;
#198 = DATE_TIME_ROLE ( 'classification_date' ) ;
#199 = AXIS2_PLACEMENT_3D ( 'NONE', #152, #95, #203 ) ;
#200 = DIRECTION ( 'NONE',  ( -1.000000000000000000, -0.000000000000000000, -0.000000000000000000 ) ) ;
#201 = PRODUCT_DEFINITION ( 'UNKNOWN', '', #175, #99 ) ;
#202 = CIRCLE ( 'NONE', #298, 1.000000000000000888 ) ;
#203 = DIRECTION ( 'NONE',  ( 0.000000000000000000, 0.000000000000000000, 1.000000000000000000 ) ) ;
#204 = FACE_OUTER_BOUND ( 'NONE', #301, .T. ) ;
#205 = DIRECTION ( 'NONE',  ( 0.000000000000000000, 0.000000000000000000, 1.000000000000000000 ) ) ;
#206 = CARTESIAN_POINT ( 'NONE',  ( -1.438959988998096773E-15, 12.50000000000001954, 0.000000000000000000 ) ) ;
#207 = DIRECTION ( 'NONE',  ( -1.000000000000000000, -0.000000000000000000, -0.000000000000000000 ) ) ;
#208 = ORIENTED_EDGE ( 'NONE', *, *, #281, .F. ) ;
#209 = UNCERTAINTY_MEASURE_WITH_UNIT (LENGTH_MEASURE( 1.000000000000000082E-05 ), #213, 'distance_accuracy_value', 'NONE');
#210 = CARTESIAN_POINT ( 'NONE',  ( 0.000000000000000000, 0.000000000000000000, 14.00000000000001954 ) ) ;
#211 = ORIENTED_EDGE ( 'NONE', *, *, #355, .F. ) ;
#212 = APPROVAL ( #140, 'UNSPECIFIED' ) ;
#213 =( LENGTH_UNIT ( ) NAMED_UNIT ( * ) SI_UNIT ( .MILLI., .METRE. ) );
#214 = COORDINATED_UNIVERSAL_TIME_OFFSET ( 1, 0, .AHEAD. ) ;
#215 = VERTEX_POINT ( 'NONE', #43 ) ;
#216 = AXIS2_PLACEMENT_3D ( 'NONE', #206, #161, #16 ) ;
#217 = DATE_AND_TIME ( #191, #237 ) ;
#218 = ORIENTED_EDGE ( 'NONE', *, *, #76, .F. ) ;
#219 = CC_DESIGN_DATE_AND_TIME_ASSIGNMENT ( #120, #110, ( #201 ) ) ;
#220 = SECURITY_CLASSIFICATION ( '', '', #326 ) ;
#221 = VECTOR ( 'NONE', #200, 1000.000000000000000 ) ;
#222 = APPROVAL_STATUS ( 'not_yet_approved' ) ;
#223 = ORIENTED_EDGE ( 'NONE', *, *, #324, .T. ) ;
#224 = CARTESIAN_POINT ( 'NONE',  ( 0.000000000000000000, 0.000000000000000000, 0.000000000000000000 ) ) ;
#225 = CARTESIAN_POINT ( 'NONE',  ( 0.000000000000000000, 0.000000000000000000, 0.000000000000000000 ) ) ;
#226 = PLANE ( 'NONE',  #176 ) ;
#227 = COORDINATED_UNIVERSAL_TIME_OFFSET ( 1, 0, .AHEAD. ) ;
#228 = DIRECTION ( 'NONE',  ( 0.000000000000000000, 0.000000000000000000, 1.000000000000000000 ) ) ;
#229 = APPROVAL_DATE_TIME ( #217, #42 ) ;
#230 = CARTESIAN_POINT ( 'NONE',  ( -2.000000000000001776, 1.592040838891561462E-15, -13.00000000000001776 ) ) ;
#231 = ADVANCED_FACE ( 'NONE', ( #39 ), #147, .T. ) ;
#232 = DIRECTION ( 'NONE',  ( -1.000000000000000000, -0.000000000000000000, -0.000000000000000000 ) ) ;
#233 = CONICAL_SURFACE ( 'NONE', #249, 11.50000000000002309, 0.7853981633974482790 ) ;
#234 = DIRECTION ( 'NONE',  ( -1.000000000000000000, -0.000000000000000000, -0.000000000000000000 ) ) ;
#235 = AXIS2_PLACEMENT_3D ( 'NONE', #224, #5, #35 ) ;
#236 = FACE_OUTER_BOUND ( 'NONE', #266, .T. ) ;
#237 = LOCAL_TIME ( 8, 1, 31.00000000000000000, #214 ) ;
#238 = FACE_OUTER_BOUND ( 'NONE', #55, .T. ) ;
#239 = ADVANCED_FACE ( 'NONE', ( #197 ), #307, .T. ) ;
#240 = DIRECTION ( 'NONE',  ( -0.7071067811865474617, 8.659560562354932858E-17, -0.7071067811865474617 ) ) ;
#241 = EDGE_LOOP ( 'NONE', ( #135, #334 ) ) ;
#242 = DIRECTION ( 'NONE',  ( 0.000000000000000000, -1.000000000000000000, 0.000000000000000000 ) ) ;
#243 = EDGE_CURVE ( 'NONE', #33, #30, #79, .T. ) ;
#244 = ORIENTED_EDGE ( 'NONE', *, *, #25, .F. ) ;
#245 = AXIS2_PLACEMENT_3D ( 'NONE', #320, #74, #205 ) ;
#246 = CARTESIAN_POINT ( 'NONE',  ( 0.000000000000000000, 0.000000000000000000, 0.000000000000000000 ) ) ;
#247 = EDGE_LOOP ( 'NONE', ( #189, #1, #171, #272 ) ) ;
#248 = EDGE_LOOP ( 'NONE', ( #244, #192, #275, #162 ) ) ;
#249 = AXIS2_PLACEMENT_3D ( 'NONE', #20, #321, #319 ) ;
#250 = VERTEX_POINT ( 'NONE', #267 ) ;
#251 = ORIENTED_EDGE ( 'NONE', *, *, #289, .T. ) ;
#252 = CC_DESIGN_APPROVAL ( #42, ( #175 ) ) ;
#253 = PERSON_AND_ORGANIZATION_ROLE ( 'classification_officer' ) ;
#254 = ADVANCED_FACE ( 'NONE', ( #236 ), #104, .F. ) ;
#255 = ADVANCED_FACE ( 'NONE', ( #238 ), #327, .T. ) ;
#256 = CARTESIAN_POINT ( 'NONE',  ( -154.8395502972293230, 0.000000000000000000, 0.000000000000000000 ) ) ;
#257 = CARTESIAN_POINT ( 'NONE',  ( 7.000000000000006217, 0.000000000000000000, 0.000000000000000000 ) ) ;
#258 = DIRECTION ( 'NONE',  ( 0.000000000000000000, 0.000000000000000000, 1.000000000000000000 ) ) ;
#259 = CARTESIAN_POINT ( 'NONE',  ( 0.000000000000000000, 0.000000000000000000, 0.000000000000000000 ) ) ;
#260 = CC_DESIGN_PERSON_AND_ORGANIZATION_ASSIGNMENT ( #8, #94, ( #175 ) ) ;
#261 = CARTESIAN_POINT ( 'NONE',  ( -2.000000000000001776, 0.000000000000000000, 0.000000000000000000 ) ) ;
#262 = VECTOR ( 'NONE', #52, 1000.000000000000000 ) ;
#263 = EDGE_CURVE ( 'NONE', #33, #114, #157, .T. ) ;
#264 = LOCAL_TIME ( 8, 1, 31.00000000000000000, #295 ) ;
#265 = AXIS2_PLACEMENT_3D ( 'NONE', #230, #13, #177 ) ;
#266 = EDGE_LOOP ( 'NONE', ( #223, #299 ) ) ;
#267 = CARTESIAN_POINT ( 'NONE',  ( -2.000000000000001776, 1.714505518806297202E-15, -14.00000000000002309 ) ) ;
#268 = CARTESIAN_POINT ( 'NONE',  ( 8.000000000000007105, 1.469576158976826511E-15, -11.50000000000002309 ) ) ;
#269 = PERSON_AND_ORGANIZATION ( #312, #337 ) ;
#270 = EDGE_LOOP ( 'NONE', ( #143, #208 ) ) ;
#271 = CALENDAR_DATE ( 2024, 23, 9 ) ;
#272 = ORIENTED_EDGE ( 'NONE', *, *, #56, .F. ) ;
#273 = MECHANICAL_CONTEXT ( 'NONE', #163, 'mechanical' ) ;
#274 = EDGE_LOOP ( 'NONE', ( #21, #3, #132, #211 ) ) ;
#275 = ORIENTED_EDGE ( 'NONE', *, *, #194, .T. ) ;
#276 = VECTOR ( 'NONE', #122, 1000.000000000000114 ) ;
#277 = CARTESIAN_POINT ( 'NONE',  ( -154.8395502972293230, 1.714505518806296807E-15, -14.00000000000001954 ) ) ;
#278 = VERTEX_POINT ( 'NONE', #268 ) ;
#279 = EDGE_CURVE ( 'NONE', #114, #215, #305, .T. ) ;
#280 = AXIS2_PLACEMENT_3D ( 'NONE', #256, #119, #228 ) ;
#281 = EDGE_CURVE ( 'NONE', #278, #37, #173, .T. ) ;
#282 = DIRECTION ( 'NONE',  ( -1.000000000000000000, -0.000000000000000000, -0.000000000000000000 ) ) ;
#283 = AXIS2_PLACEMENT_3D ( 'NONE', #347, #284, #117 ) ;
#284 = DIRECTION ( 'NONE',  ( -1.000000000000000000, -0.000000000000000000, -0.000000000000000000 ) ) ;
#285 = CARTESIAN_POINT ( 'NONE',  ( -154.8395502972293230, 0.000000000000000000, 0.000000000000000000 ) ) ;
#286 = DIRECTION ( 'NONE',  ( -1.000000000000000000, -0.000000000000000000, -0.000000000000000000 ) ) ;
#287 = LINE ( 'NONE', #9, #93 ) ;
#288 = CC_DESIGN_PERSON_AND_ORGANIZATION_ASSIGNMENT ( #341, #86, ( #175 ) ) ;
#289 = EDGE_CURVE ( 'NONE', #278, #33, #128, .T. ) ;
#290 = APPLICATION_PROTOCOL_DEFINITION ( 'international standard', 'config_control_design', 1994, #163 ) ;
#291 = CC_DESIGN_PERSON_AND_ORGANIZATION_ASSIGNMENT ( #356, #2, ( #201 ) ) ;
#292 = PLANE ( 'NONE',  #216 ) ;
#293 = CIRCLE ( 'NONE', #84, 12.50000000000001954 ) ;
#294 = DIRECTION ( 'NONE',  ( 0.000000000000000000, 0.000000000000000000, 1.000000000000000000 ) ) ;
#295 = COORDINATED_UNIVERSAL_TIME_OFFSET ( 1, 0, .AHEAD. ) ;
#296 = APPROVAL_PERSON_ORGANIZATION ( #138, #73, #188 ) ;
#297 = VERTEX_POINT ( 'NONE', #210 ) ;
#298 = AXIS2_PLACEMENT_3D ( 'NONE', #160, #242, #101 ) ;
#299 = ORIENTED_EDGE ( 'NONE', *, *, #179, .T. ) ;
#300 = ORIENTED_EDGE ( 'NONE', *, *, #40, .F. ) ;
#301 = EDGE_LOOP ( 'NONE', ( #193, #7, #137, #115 ) ) ;
#302 = EDGE_LOOP ( 'NONE', ( #300, #111 ) ) ;
#303 = CARTESIAN_POINT ( 'NONE',  ( -154.8395502972293230, 0.000000000000000000, 0.000000000000000000 ) ) ;
#304 = CC_DESIGN_PERSON_AND_ORGANIZATION_ASSIGNMENT ( #338, #253, ( #220 ) ) ;
#305 = CIRCLE ( 'NONE', #38, 12.50000000000001954 ) ;
#306 = PERSON_AND_ORGANIZATION ( #312, #337 ) ;
#307 = CYLINDRICAL_SURFACE ( 'NONE', #109, 12.50000000000002132 ) ;
#308 = DATE_AND_TIME ( #332, #264 ) ;
#309 = AXIS2_PLACEMENT_3D ( 'NONE', #261, #313, #174 ) ;
#310 = CARTESIAN_POINT ( 'NONE',  ( 8.000000000000007105, 0.000000000000000000, 0.000000000000000000 ) ) ;
#311 = AXIS2_PLACEMENT_3D ( 'NONE', #22, #159, #294 ) ;
#312 = PERSON ( 'UNSPECIFIED', 'UNSPECIFIED', 'UNSPECIFIED', ('UNSPECIFIED'), ('UNSPECIFIED'), ('UNSPECIFIED') ) ;
#313 = DIRECTION ( 'NONE',  ( -1.000000000000000000, -0.000000000000000000, -0.000000000000000000 ) ) ;
#314 = APPLICATION_CONTEXT ( 'configuration controlled 3d designs of mechanical parts and assemblies' ) ;
#315 = ADVANCED_FACE ( 'NONE', ( #48, #353 ), #292, .F. ) ;
#316 = FACE_OUTER_BOUND ( 'NONE', #58, .T. ) ;
#317 = CARTESIAN_POINT ( 'NONE',  ( 8.000000000000007105, 0.000000000000000000, 0.000000000000000000 ) ) ;
#318 = MANIFOLD_SOLID_BREP ( 'Rotation1', #346 ) ;
#319 = DIRECTION ( 'NONE',  ( 0.000000000000000000, 0.000000000000000000, 1.000000000000000000 ) ) ;
#320 = CARTESIAN_POINT ( 'NONE',  ( -3.000000000000002665, 0.000000000000000000, 0.000000000000000000 ) ) ;
#321 = DIRECTION ( 'NONE',  ( -1.000000000000000000, -0.000000000000000000, -0.000000000000000000 ) ) ;
#322 =( GEOMETRIC_REPRESENTATION_CONTEXT ( 3 ) GLOBAL_UNCERTAINTY_ASSIGNED_CONTEXT ( ( #209 ) ) GLOBAL_UNIT_ASSIGNED_CONTEXT ( ( #213, #185, #46 ) ) REPRESENTATION_CONTEXT ( 'NONE', 'WORKASPACE' ) );
#323 = FACE_OUTER_BOUND ( 'NONE', #57, .T. ) ;
#324 = EDGE_CURVE ( 'NONE', #24, #195, #47, .T. ) ;
#325 = CIRCLE ( 'NONE', #67, 14.00000000000001954 ) ;
#326 = SECURITY_CLASSIFICATION_LEVEL ( 'unclassified' ) ;
#327 = CONICAL_SURFACE ( 'NONE', #187, 11.50000000000002309, 0.7853981633974482790 ) ;
#328 = ORIENTED_EDGE ( 'NONE', *, *, #279, .F. ) ;
#329 = ORIENTED_EDGE ( 'NONE', *, *, #243, .T. ) ;
#330 = AXIS2_PLACEMENT_3D ( 'NONE', #303, #61, #149 ) ;
#331 = ADVANCED_FACE ( 'NONE', ( #184 ), #75, .T. ) ;
#332 = CALENDAR_DATE ( 2024, 23, 9 ) ;
#333 = EDGE_LOOP ( 'NONE', ( #105, #88, #186, #87 ) ) ;
#334 = ORIENTED_EDGE ( 'NONE', *, *, #279, .T. ) ;
#335 = DIRECTION ( 'NONE',  ( -1.000000000000000000, -0.000000000000000000, -0.000000000000000000 ) ) ;
#336 = DIRECTION ( 'NONE',  ( -1.000000000000000000, -0.000000000000000000, -0.000000000000000000 ) ) ;
#337 = ORGANIZATION ( 'UNSPECIFIED', 'UNSPECIFIED', '' ) ;
#338 = PERSON_AND_ORGANIZATION ( #312, #337 ) ;
#339 = CYLINDRICAL_SURFACE ( 'NONE', #330, 12.50000000000002132 ) ;
#340 = AXIS2_PLACEMENT_3D ( 'NONE', #349, #351, #125 ) ;
#341 = PERSON_AND_ORGANIZATION ( #312, #337 ) ;
#342 = LINE ( 'NONE', #65, #276 ) ;
#343 = AXIS2_PLACEMENT_3D ( 'NONE', #100, #232, #44 ) ;
#344 = FACE_OUTER_BOUND ( 'NONE', #274, .T. ) ;
#345 = ADVANCED_FACE ( 'NONE', ( #323 ), #233, .T. ) ;
#346 = CLOSED_SHELL ( 'NONE', ( #53, #231, #239, #255, #154, #345, #146, #315, #331, #69, #254 ) ) ;
#347 = CARTESIAN_POINT ( 'NONE',  ( -2.000000000000001776, 0.000000000000000000, 0.000000000000000000 ) ) ;
#348 = CARTESIAN_POINT ( 'NONE',  ( 8.000000000000007105, 1.408343819019458937E-15, -11.50000000000002309 ) ) ;
#349 = CARTESIAN_POINT ( 'NONE',  ( 7.000000000000006217, 0.000000000000000000, 0.000000000000000000 ) ) ;
#350 = CARTESIAN_POINT ( 'NONE',  ( 8.000000000000007105, 0.000000000000000000, 0.000000000000000000 ) ) ;
#351 = DIRECTION ( 'NONE',  ( -1.000000000000000000, -0.000000000000000000, -0.000000000000000000 ) ) ;
#352 = VERTEX_POINT ( 'NONE', #78 ) ;
#353 = FACE_BOUND ( 'NONE', #241, .T. ) ;
#354 = PERSON_AND_ORGANIZATION ( #312, #337 ) ;
#355 = EDGE_CURVE ( 'NONE', #352, #24, #202, .T. ) ;
#356 = PERSON_AND_ORGANIZATION ( #312, #337 ) ;
#357 = VECTOR ( 'NONE', #240, 1000.000000000000114 ) ;
ENDSEC;
END-ISO-10303-21;
