ISO-10303-21;
HEADER;
FILE_DESCRIPTION (( 'STEP AP203' ),
    '1' );
FILE_NAME ('3D_GR1392_DN15x2_18380060.STEP',
    '2024-09-21T10:10:27',
    ( '' ),
    ( '' ),
    'SwSTEP 2.0',
    'SolidWorks 2024',
    '' );
FILE_SCHEMA (( 'CONFIG_CONTROL_DESIGN' ));
ENDSEC;

DATA;
#1 = DIRECTION ( 'NONE',  ( -1.000000000000000000, -0.000000000000000000, -0.000000000000000000 ) ) ;
#2 = PERSON_AND_ORGANIZATION ( #40, #110 ) ;
#3 = CARTESIAN_POINT ( 'NONE',  ( -2.000000000000001776, 0.000000000000000000, 0.000000000000000000 ) ) ;
#4 = PRODUCT_DEFINITION ( 'UNKNOWN', '', #103, #66 ) ;
#5 = CALENDAR_DATE ( 2024, 21, 9 ) ;
#6 = CARTESIAN_POINT ( 'NONE',  ( -2.000000000000001776, 8.500000000000014211, 0.000000000000000000 ) ) ;
#7 = APPLICATION_PROTOCOL_DEFINITION ( 'international standard', 'config_control_design', 1994, #183 ) ;
#8 = DIRECTION ( 'NONE',  ( 0.000000000000000000, 0.000000000000000000, 1.000000000000000000 ) ) ;
#9 = APPROVAL_STATUS ( 'not_yet_approved' ) ;
#10 = EDGE_CURVE ( 'NONE', #184, #337, #222, .T. ) ;
#11 = VECTOR ( 'NONE', #299, 1000.000000000000000 ) ;
#12 = DIRECTION ( 'NONE',  ( 0.000000000000000000, 0.000000000000000000, 1.000000000000000000 ) ) ;
#13 = SECURITY_CLASSIFICATION_LEVEL ( 'unclassified' ) ;
#14 = APPROVAL_ROLE ( '' ) ;
#15 = CARTESIAN_POINT ( 'NONE',  ( 0.000000000000000000, 0.000000000000000000, 0.000000000000000000 ) ) ;
#16 = PERSON_AND_ORGANIZATION ( #40, #110 ) ;
#17 = EDGE_CURVE ( 'NONE', #184, #128, #238, .T. ) ;
#18 = DIRECTION ( 'NONE',  ( -1.000000000000000000, -0.000000000000000000, -0.000000000000000000 ) ) ;
#19 = ORIENTED_EDGE ( 'NONE', *, *, #89, .F. ) ;
#20 = FACE_OUTER_BOUND ( 'NONE', #343, .T. ) ;
#21 = EDGE_LOOP ( 'NONE', ( #153, #261, #290, #81, #49 ) ) ;
#22 = EDGE_CURVE ( 'NONE', #315, #310, #56, .T. ) ;
#23 = EDGE_LOOP ( 'NONE', ( #107, #235, #53, #150, #134 ) ) ;
#24 = CLOSED_SHELL ( 'NONE', ( #240, #115, #332, #121, #147, #211, #246, #175, #323, #52 ) ) ;
#25 = EDGE_LOOP ( 'NONE', ( #340, #160 ) ) ;
#26 = CARTESIAN_POINT ( 'NONE',  ( -2.000000000000001776, 1.040949779275252112E-15, -8.500000000000015987 ) ) ;
#27 = CARTESIAN_POINT ( 'NONE',  ( 6.000000000000587974, 0.000000000000000000, 0.000000000000000000 ) ) ;
#28 = CIRCLE ( 'NONE', #123, 6.500000000000018652 ) ;
#29 = CC_DESIGN_DATE_AND_TIME_ASSIGNMENT ( #197, #327, ( #4 ) ) ;
#30 = DIRECTION ( 'NONE',  ( -1.000000000000000000, -0.000000000000000000, -0.000000000000000000 ) ) ;
#31 = CARTESIAN_POINT ( 'NONE',  ( 15.06249999999987033, 0.000000000000000000, 0.000000000000000000 ) ) ;
#32 = MECHANICAL_CONTEXT ( 'NONE', #306, 'mechanical' ) ;
#33 = CC_DESIGN_PERSON_AND_ORGANIZATION_ASSIGNMENT ( #168, #35, ( #4 ) ) ;
#34 =( GEOMETRIC_REPRESENTATION_CONTEXT ( 3 ) GLOBAL_UNCERTAINTY_ASSIGNED_CONTEXT ( ( #202 ) ) GLOBAL_UNIT_ASSIGNED_CONTEXT ( ( #277, #120, #41 ) ) REPRESENTATION_CONTEXT ( 'NONE', 'WORKASPACE' ) );
#35 = PERSON_AND_ORGANIZATION_ROLE ( 'creator' ) ;
#36 = VECTOR ( 'NONE', #122, 1000.000000000000000 ) ;
#37 = DIRECTION ( 'NONE',  ( 0.000000000000000000, 0.000000000000000000, 1.000000000000000000 ) ) ;
#38 = APPROVAL_ROLE ( '' ) ;
#39 = CARTESIAN_POINT ( 'NONE',  ( 7.000000000000588862, 0.000000000000000000, 5.500000000000019540 ) ) ;
#40 = PERSON ( 'UNSPECIFIED', 'UNSPECIFIED', 'UNSPECIFIED', ('UNSPECIFIED'), ('UNSPECIFIED'), ('UNSPECIFIED') ) ;
#41 =( NAMED_UNIT ( * ) SI_UNIT ( $, .STERADIAN. ) SOLID_ANGLE_UNIT ( ) );
#42 = DIRECTION ( 'NONE',  ( -1.000000000000000000, -0.000000000000000000, -0.000000000000000000 ) ) ;
#43 = CC_DESIGN_APPROVAL ( #233, ( #224 ) ) ;
#44 = ORIENTED_EDGE ( 'NONE', *, *, #89, .T. ) ;
#45 = ORIENTED_EDGE ( 'NONE', *, *, #291, .T. ) ;
#46 = DATE_AND_TIME ( #349, #136 ) ;
#47 = DIRECTION ( 'NONE',  ( -1.000000000000000000, -0.000000000000000000, -0.000000000000000000 ) ) ;
#48 = VECTOR ( 'NONE', #109, 1000.000000000000000 ) ;
#49 = ORIENTED_EDGE ( 'NONE', *, *, #339, .F. ) ;
#50 = CARTESIAN_POINT ( 'NONE',  ( -154.8395502972293230, 0.000000000000000000, 0.000000000000000000 ) ) ;
#51 = DIRECTION ( 'NONE',  ( -1.000000000000000000, -0.000000000000000000, -0.000000000000000000 ) ) ;
#52 = ADVANCED_FACE ( 'NONE', ( #251 ), #85, .F. ) ;
#53 = ORIENTED_EDGE ( 'NONE', *, *, #339, .T. ) ;
#54 = AXIS2_PLACEMENT_3D ( 'NONE', #331, #180, #12 ) ;
#55 = ORIENTED_EDGE ( 'NONE', *, *, #185, .T. ) ;
#56 = LINE ( 'NONE', #216, #98 ) ;
#57 = CARTESIAN_POINT ( 'NONE',  ( -154.8395502972293230, 0.000000000000000000, 0.000000000000000000 ) ) ;
#58 = CIRCLE ( 'NONE', #272, 8.500000000000017764 ) ;
#59 = DIRECTION ( 'NONE',  ( -1.000000000000000000, -0.000000000000000000, -0.000000000000000000 ) ) ;
#60 = CC_DESIGN_SECURITY_CLASSIFICATION ( #224, ( #103 ) ) ;
#61 = DIRECTION ( 'NONE',  ( -1.000000000000000000, -0.000000000000000000, -0.000000000000000000 ) ) ;
#62 = AXIS2_PLACEMENT_3D ( 'NONE', #341, #145, #8 ) ;
#63 = DIRECTION ( 'NONE',  ( 0.000000000000000000, 0.000000000000000000, 1.000000000000000000 ) ) ;
#64 = CARTESIAN_POINT ( 'NONE',  ( 6.000000000000587974, 0.000000000000000000, 6.500000000000018652 ) ) ;
#65 = PERSON_AND_ORGANIZATION ( #40, #110 ) ;
#66 = DESIGN_CONTEXT ( 'detailed design', #183, 'design' ) ;
#67 = PERSON_AND_ORGANIZATION ( #40, #110 ) ;
#68 = ORIENTED_EDGE ( 'NONE', *, *, #159, .F. ) ;
#69 = PERSON_AND_ORGANIZATION_ROLE ( 'design_supplier' ) ;
#70 = CC_DESIGN_PERSON_AND_ORGANIZATION_ASSIGNMENT ( #67, #148, ( #224 ) ) ;
#71 = ORIENTED_EDGE ( 'NONE', *, *, #297, .T. ) ;
#72 = COORDINATED_UNIVERSAL_TIME_OFFSET ( 1, 0, .AHEAD. ) ;
#73 = CARTESIAN_POINT ( 'NONE',  ( -2.000000000000001776, 0.000000000000000000, 8.500000000000015987 ) ) ;
#74 = APPROVAL_PERSON_ORGANIZATION ( #199, #294, #321 ) ;
#75 = ORIENTED_EDGE ( 'NONE', *, *, #185, .F. ) ;
#76 = CARTESIAN_POINT ( 'NONE',  ( -2.000000000000001776, 0.000000000000000000, 0.000000000000000000 ) ) ;
#77 = AXIS2_PLACEMENT_3D ( 'NONE', #119, #171, #204 ) ;
#78 = VERTEX_POINT ( 'NONE', #273 ) ;
#79 = AXIS2_PLACEMENT_3D ( 'NONE', #212, #137, #243 ) ;
#80 = CC_DESIGN_APPROVAL ( #294, ( #103 ) ) ;
#81 = ORIENTED_EDGE ( 'NONE', *, *, #281, .F. ) ;
#82 = ORIENTED_EDGE ( 'NONE', *, *, #133, .T. ) ;
#83 = ORIENTED_EDGE ( 'NONE', *, *, #190, .F. ) ;
#84 = AXIS2_PLACEMENT_3D ( 'NONE', #169, #280, #151 ) ;
#85 = PLANE ( 'NONE',  #111 ) ;
#86 = FACE_OUTER_BOUND ( 'NONE', #102, .T. ) ;
#87 = ADVANCED_BREP_SHAPE_REPRESENTATION ( '3D_GR1392_DN15x2_18380060', ( #333, #154 ), #34 ) ;
#88 = FACE_OUTER_BOUND ( 'NONE', #157, .T. ) ;
#89 = EDGE_CURVE ( 'NONE', #292, #310, #28, .T. ) ;
#90 = CARTESIAN_POINT ( 'NONE',  ( -154.8395502972293230, 0.000000000000000000, 6.500000000000018652 ) ) ;
#91 = FACE_OUTER_BOUND ( 'NONE', #178, .T. ) ;
#92 = APPLICATION_PROTOCOL_DEFINITION ( 'international standard', 'config_control_design', 1994, #306 ) ;
#93 = CARTESIAN_POINT ( 'NONE',  ( -2.775557561562891351E-14, 0.000000000000000000, 6.500000000000018652 ) ) ;
#94 = AXIS2_PLACEMENT_3D ( 'NONE', #255, #227, #37 ) ;
#95 = DIRECTION ( 'NONE',  ( -1.000000000000000000, 0.000000000000000000, -0.000000000000000000 ) ) ;
#96 = EDGE_CURVE ( 'NONE', #138, #317, #127, .T. ) ;
#97 = CC_DESIGN_PERSON_AND_ORGANIZATION_ASSIGNMENT ( #2, #326, ( #275 ) ) ;
#98 = VECTOR ( 'NONE', #271, 1000.000000000000000 ) ;
#99 = CARTESIAN_POINT ( 'NONE',  ( 6.000000000000587974, 7.960204194457819143E-16, -6.500000000000018652 ) ) ;
#100 = ORIENTED_EDGE ( 'NONE', *, *, #124, .F. ) ;
#101 = DIRECTION ( 'NONE',  ( -1.000000000000000000, -0.000000000000000000, -0.000000000000000000 ) ) ;
#102 = EDGE_LOOP ( 'NONE', ( #242, #82, #135, #105 ) ) ;
#103 = PRODUCT_DEFINITION_FORMATION_WITH_SPECIFIED_SOURCE ( 'ANY', '', #275, .NOT_KNOWN. ) ;
#104 = AXIS2_PLACEMENT_3D ( 'NONE', #245, #59, #274 ) ;
#105 = ORIENTED_EDGE ( 'NONE', *, *, #179, .F. ) ;
#106 = ORIENTED_EDGE ( 'NONE', *, *, #229, .T. ) ;
#107 = ORIENTED_EDGE ( 'NONE', *, *, #17, .F. ) ;
#108 = PRODUCT_RELATED_PRODUCT_CATEGORY ( 'detail', '', ( #275 ) ) ;
#109 = DIRECTION ( 'NONE',  ( -1.000000000000000000, -0.000000000000000000, -0.000000000000000000 ) ) ;
#110 = ORGANIZATION ( 'UNSPECIFIED', 'UNSPECIFIED', '' ) ;
#111 = AXIS2_PLACEMENT_3D ( 'NONE', #351, #141, #276 ) ;
#112 = DIRECTION ( 'NONE',  ( 0.000000000000000000, 0.000000000000000000, 1.000000000000000000 ) ) ;
#113 = APPROVAL_PERSON_ORGANIZATION ( #16, #233, #14 ) ;
#114 = DIRECTION ( 'NONE',  ( 0.000000000000000000, 0.000000000000000000, 1.000000000000000000 ) ) ;
#115 = ADVANCED_FACE ( 'NONE', ( #91 ), #250, .T. ) ;
#116 = CARTESIAN_POINT ( 'NONE',  ( 0.000000000000000000, 0.000000000000000000, 0.000000000000000000 ) ) ;
#117 = DIRECTION ( 'NONE',  ( -1.000000000000000000, -0.000000000000000000, -0.000000000000000000 ) ) ;
#118 = CALENDAR_DATE ( 2024, 21, 9 ) ;
#119 = CARTESIAN_POINT ( 'NONE',  ( 7.000000000000588862, 0.000000000000000000, 0.000000000000000000 ) ) ;
#120 =( NAMED_UNIT ( * ) PLANE_ANGLE_UNIT ( ) SI_UNIT ( $, .RADIAN. ) );
#121 = ADVANCED_FACE ( 'NONE', ( #295 ), #322, .T. ) ;
#122 = DIRECTION ( 'NONE',  ( -0.7071067811865482389, 0.000000000000000000, 0.7071067811865469066 ) ) ;
#123 = AXIS2_PLACEMENT_3D ( 'NONE', #348, #30, #112 ) ;
#124 = EDGE_CURVE ( 'NONE', #292, #182, #270, .T. ) ;
#125 = APPROVAL_DATE_TIME ( #129, #233 ) ;
#126 = FACE_OUTER_BOUND ( 'NONE', #210, .T. ) ;
#127 = CIRCLE ( 'NONE', #209, 8.500000000000015987 ) ;
#128 = VERTEX_POINT ( 'NONE', #26 ) ;
#129 = DATE_AND_TIME ( #206, #194 ) ;
#130 = DIRECTION ( 'NONE',  ( -0.000000000000000000, 0.000000000000000000, 1.000000000000000000 ) ) ;
#131 = DIRECTION ( 'NONE',  ( 0.000000000000000000, 0.000000000000000000, 1.000000000000000000 ) ) ;
#132 = CARTESIAN_POINT ( 'NONE',  ( 0.000000000000000000, 0.000000000000000000, 8.500000000000017764 ) ) ;
#133 = EDGE_CURVE ( 'NONE', #310, #292, #318, .T. ) ;
#134 = ORIENTED_EDGE ( 'NONE', *, *, #291, .F. ) ;
#135 = ORIENTED_EDGE ( 'NONE', *, *, #124, .T. ) ;
#136 = LOCAL_TIME ( 12, 10, 27.00000000000000000, #172 ) ;
#137 = DIRECTION ( 'NONE',  ( -1.000000000000000000, -0.000000000000000000, -0.000000000000000000 ) ) ;
#138 = VERTEX_POINT ( 'NONE', #217 ) ;
#139 = CC_DESIGN_PERSON_AND_ORGANIZATION_ASSIGNMENT ( #65, #69, ( #103 ) ) ;
#140 = DIRECTION ( 'NONE',  ( 0.000000000000000000, 0.000000000000000000, 1.000000000000000000 ) ) ;
#141 = DIRECTION ( 'NONE',  ( -1.000000000000000000, 0.000000000000000000, -0.000000000000000000 ) ) ;
#142 = COORDINATED_UNIVERSAL_TIME_OFFSET ( 1, 0, .AHEAD. ) ;
#143 = CARTESIAN_POINT ( 'NONE',  ( 7.000000000000588862, 0.000000000000000000, 5.500000000000019540 ) ) ;
#144 = COORDINATED_UNIVERSAL_TIME_OFFSET ( 1, 0, .AHEAD. ) ;
#145 = DIRECTION ( 'NONE',  ( -1.000000000000000000, -0.000000000000000000, -0.000000000000000000 ) ) ;
#146 = DIRECTION ( 'NONE',  ( 0.000000000000000000, 1.224646799147353207E-16, -1.000000000000000000 ) ) ;
#147 = ADVANCED_FACE ( 'NONE', ( #88 ), #319, .T. ) ;
#148 = PERSON_AND_ORGANIZATION_ROLE ( 'classification_officer' ) ;
#149 = EDGE_LOOP ( 'NONE', ( #313, #268, #176, #269 ) ) ;
#150 = ORIENTED_EDGE ( 'NONE', *, *, #96, .F. ) ;
#151 = DIRECTION ( 'NONE',  ( 1.000000000000000000, 0.000000000000000000, 0.000000000000000000 ) ) ;
#152 = AXIS2_PLACEMENT_3D ( 'NONE', #248, #298, #193 ) ;
#153 = ORIENTED_EDGE ( 'NONE', *, *, #195, .T. ) ;
#154 = AXIS2_PLACEMENT_3D ( 'NONE', #116, #167, #191 ) ;
#155 = CC_DESIGN_DATE_AND_TIME_ASSIGNMENT ( #284, #263, ( #224 ) ) ;
#156 = DIRECTION ( 'NONE',  ( -1.000000000000000000, -0.000000000000000000, -0.000000000000000000 ) ) ;
#157 = EDGE_LOOP ( 'NONE', ( #241, #287, #205, #55 ) ) ;
#158 = VERTEX_POINT ( 'NONE', #166 ) ;
#159 = EDGE_CURVE ( 'NONE', #182, #158, #278, .T. ) ;
#160 = ORIENTED_EDGE ( 'NONE', *, *, #179, .T. ) ;
#161 = DIRECTION ( 'NONE',  ( -1.000000000000000000, -0.000000000000000000, -0.000000000000000000 ) ) ;
#162 = DIRECTION ( 'NONE',  ( -1.000000000000000000, -0.000000000000000000, -0.000000000000000000 ) ) ;
#163 = AXIS2_PLACEMENT_3D ( 'NONE', #57, #162, #63 ) ;
#164 = VECTOR ( 'NONE', #61, 1000.000000000000000 ) ;
#165 = PERSON_AND_ORGANIZATION ( #40, #110 ) ;
#166 = CARTESIAN_POINT ( 'NONE',  ( -2.775557561562891351E-14, 7.960204194457819143E-16, -6.500000000000018652 ) ) ;
#167 = DIRECTION ( 'NONE',  ( 0.000000000000000000, 0.000000000000000000, 1.000000000000000000 ) ) ;
#168 = PERSON_AND_ORGANIZATION ( #40, #110 ) ;
#169 = CARTESIAN_POINT ( 'NONE',  ( 15.06249999999987033, 0.000000000000000000, 0.000000000000000000 ) ) ;
#170 = EDGE_CURVE ( 'NONE', #310, #158, #346, .T. ) ;
#171 = DIRECTION ( 'NONE',  ( -1.000000000000000000, -0.000000000000000000, -0.000000000000000000 ) ) ;
#172 = COORDINATED_UNIVERSAL_TIME_OFFSET ( 1, 0, .AHEAD. ) ;
#173 = DIRECTION ( 'NONE',  ( 0.000000000000000000, 0.000000000000000000, 1.000000000000000000 ) ) ;
#174 = APPROVAL_DATE_TIME ( #46, #294 ) ;
#175 = ADVANCED_FACE ( 'NONE', ( #86 ), #189, .T. ) ;
#176 = ORIENTED_EDGE ( 'NONE', *, *, #252, .T. ) ;
#177 = CARTESIAN_POINT ( 'NONE',  ( 7.000000000000588862, 0.000000000000000000, 0.000000000000000000 ) ) ;
#178 = EDGE_LOOP ( 'NONE', ( #44, #214, #68, #100 ) ) ;
#179 = EDGE_CURVE ( 'NONE', #158, #182, #247, .T. ) ;
#180 = DIRECTION ( 'NONE',  ( -1.000000000000000000, -0.000000000000000000, -0.000000000000000000 ) ) ;
#181 = AXIS2_PLACEMENT_3D ( 'NONE', #285, #146, #225 ) ;
#182 = VERTEX_POINT ( 'NONE', #93 ) ;
#183 = APPLICATION_CONTEXT ( 'configuration controlled 3d designs of mechanical parts and assemblies' ) ;
#184 = VERTEX_POINT ( 'NONE', #335 ) ;
#185 = EDGE_CURVE ( 'NONE', #186, #78, #215, .T. ) ;
#186 = VERTEX_POINT ( 'NONE', #6 ) ;
#187 = AXIS2_PLACEMENT_3D ( 'NONE', #305, #198, #282 ) ;
#188 = VERTEX_POINT ( 'NONE', #39 ) ;
#189 = CYLINDRICAL_SURFACE ( 'NONE', #163, 6.500000000000018652 ) ;
#190 = EDGE_CURVE ( 'NONE', #315, #188, #288, .T. ) ;
#191 = DIRECTION ( 'NONE',  ( 1.000000000000000000, 0.000000000000000000, 0.000000000000000000 ) ) ;
#192 = CC_DESIGN_APPROVAL ( #344, ( #4 ) ) ;
#193 = DIRECTION ( 'NONE',  ( 0.000000000000000000, 1.000000000000000000, 0.000000000000000000 ) ) ;
#194 = LOCAL_TIME ( 12, 10, 27.00000000000000000, #72 ) ;
#195 = EDGE_CURVE ( 'NONE', #337, #184, #58, .T. ) ;
#196 = LINE ( 'NONE', #301, #164 ) ;
#197 = DATE_AND_TIME ( #5, #324 ) ;
#198 = DIRECTION ( 'NONE',  ( -1.000000000000000000, -0.000000000000000000, -0.000000000000000000 ) ) ;
#199 = PERSON_AND_ORGANIZATION ( #40, #110 ) ;
#200 = AXIS2_PLACEMENT_3D ( 'NONE', #50, #156, #266 ) ;
#201 = CYLINDRICAL_SURFACE ( 'NONE', #62, 8.500000000000017764 ) ;
#202 = UNCERTAINTY_MEASURE_WITH_UNIT (LENGTH_MEASURE( 1.000000000000000082E-05 ), #277, 'distance_accuracy_value', 'NONE');
#203 = AXIS2_PLACEMENT_3D ( 'NONE', #15, #265, #131 ) ;
#204 = DIRECTION ( 'NONE',  ( 0.000000000000000000, 0.000000000000000000, 1.000000000000000000 ) ) ;
#205 = ORIENTED_EDGE ( 'NONE', *, *, #281, .T. ) ;
#206 = CALENDAR_DATE ( 2024, 21, 9 ) ;
#207 = DIRECTION ( 'NONE',  ( 0.000000000000000000, 0.000000000000000000, 1.000000000000000000 ) ) ;
#208 = CARTESIAN_POINT ( 'NONE',  ( -154.8395502972293230, 1.040949779275252309E-15, -8.500000000000017764 ) ) ;
#209 = AXIS2_PLACEMENT_3D ( 'NONE', #3, #1, #325 ) ;
#210 = EDGE_LOOP ( 'NONE', ( #316, #267 ) ) ;
#211 = ADVANCED_FACE ( 'NONE', ( #328 ), #201, .T. ) ;
#212 = CARTESIAN_POINT ( 'NONE',  ( 7.000000000000588862, 0.000000000000000000, 0.000000000000000000 ) ) ;
#213 = EDGE_LOOP ( 'NONE', ( #345, #83 ) ) ;
#214 = ORIENTED_EDGE ( 'NONE', *, *, #170, .T. ) ;
#215 = CIRCLE ( 'NONE', #84, 19.06249999999989697 ) ;
#216 = CARTESIAN_POINT ( 'NONE',  ( 7.000000000000588862, 6.735557395310466675E-16, -5.500000000000019540 ) ) ;
#217 = CARTESIAN_POINT ( 'NONE',  ( -2.000000000000001776, -8.500000000000014211, -1.040949779275251915E-15 ) ) ;
#218 = CARTESIAN_POINT ( 'NONE',  ( -154.8395502972293230, 0.000000000000000000, 0.000000000000000000 ) ) ;
#219 = APPROVAL_STATUS ( 'not_yet_approved' ) ;
#220 = DIRECTION ( 'NONE',  ( -0.000000000000000000, 0.000000000000000000, -1.000000000000000000 ) ) ;
#221 = PRODUCT_DEFINITION_SHAPE ( 'NONE', 'NONE',  #4 ) ;
#222 = CIRCLE ( 'NONE', #203, 8.500000000000017764 ) ;
#223 = DATE_AND_TIME ( #118, #312 ) ;
#224 = SECURITY_CLASSIFICATION ( '', '', #13 ) ;
#225 = DIRECTION ( 'NONE',  ( 0.000000000000000000, 1.000000000000000000, 1.224646799147353207E-16 ) ) ;
#226 = CIRCLE ( 'NONE', #54, 8.500000000000015987 ) ;
#227 = DIRECTION ( 'NONE',  ( -1.000000000000000000, -0.000000000000000000, -0.000000000000000000 ) ) ;
#228 = AXIS2_PLACEMENT_3D ( 'NONE', #218, #161, #114 ) ;
#229 = EDGE_CURVE ( 'NONE', #138, #78, #257, .T. ) ;
#230 = PERSON_AND_ORGANIZATION ( #40, #110 ) ;
#231 = AXIS2_PLACEMENT_3D ( 'NONE', #338, #101, #256 ) ;
#232 = CIRCLE ( 'NONE', #302, 8.500000000000015987 ) ;
#233 = APPROVAL ( #9, 'UNSPECIFIED' ) ;
#234 = PLANE ( 'NONE',  #334 ) ;
#235 = ORIENTED_EDGE ( 'NONE', *, *, #10, .T. ) ;
#236 = SHAPE_DEFINITION_REPRESENTATION ( #221, #87 ) ;
#237 = LINE ( 'NONE', #143, #36 ) ;
#238 = LINE ( 'NONE', #208, #253 ) ;
#239 = CARTESIAN_POINT ( 'NONE',  ( -9.631413273744861804E-15, 6.500000000000018652, 0.000000000000000000 ) ) ;
#240 = ADVANCED_FACE ( 'NONE', ( #20 ), #262, .T. ) ;
#241 = ORIENTED_EDGE ( 'NONE', *, *, #229, .F. ) ;
#242 = ORIENTED_EDGE ( 'NONE', *, *, #170, .F. ) ;
#243 = DIRECTION ( 'NONE',  ( 0.000000000000000000, 0.000000000000000000, 1.000000000000000000 ) ) ;
#244 = ORIENTED_EDGE ( 'NONE', *, *, #350, .T. ) ;
#245 = CARTESIAN_POINT ( 'NONE',  ( -2.775557561562891351E-14, 0.000000000000000000, 0.000000000000000000 ) ) ;
#246 = ADVANCED_FACE ( 'NONE', ( #126, #303 ), #234, .F. ) ;
#247 = CIRCLE ( 'NONE', #94, 6.500000000000018652 ) ;
#248 = CARTESIAN_POINT ( 'NONE',  ( 15.06249999999987033, 0.000000000000000000, 0.000000000000000000 ) ) ;
#249 = CIRCLE ( 'NONE', #79, 5.500000000000019540 ) ;
#250 = CYLINDRICAL_SURFACE ( 'NONE', #228, 6.500000000000018652 ) ;
#251 = FACE_OUTER_BOUND ( 'NONE', #213, .T. ) ;
#252 = EDGE_CURVE ( 'NONE', #188, #292, #237, .T. ) ;
#253 = VECTOR ( 'NONE', #51, 1000.000000000000000 ) ;
#254 = CYLINDRICAL_SURFACE ( 'NONE', #200, 8.500000000000017764 ) ;
#255 = CARTESIAN_POINT ( 'NONE',  ( -2.775557561562891351E-14, 0.000000000000000000, 0.000000000000000000 ) ) ;
#256 = DIRECTION ( 'NONE',  ( 0.000000000000000000, 0.000000000000000000, 1.000000000000000000 ) ) ;
#257 = CIRCLE ( 'NONE', #181, 19.06249999999989342 ) ;
#258 = CALENDAR_DATE ( 2024, 21, 9 ) ;
#259 = CC_DESIGN_PERSON_AND_ORGANIZATION_ASSIGNMENT ( #230, #307, ( #103 ) ) ;
#260 = CONICAL_SURFACE ( 'NONE', #286, 5.500000000000019540, 0.7853981633974473908 ) ;
#261 = ORIENTED_EDGE ( 'NONE', *, *, #17, .T. ) ;
#262 = CONICAL_SURFACE ( 'NONE', #187, 5.500000000000019540, 0.7853981633974473908 ) ;
#263 = DATE_TIME_ROLE ( 'classification_date' ) ;
#264 = CARTESIAN_POINT ( 'NONE',  ( 0.000000000000000000, 0.000000000000000000, 0.000000000000000000 ) ) ;
#265 = DIRECTION ( 'NONE',  ( -1.000000000000000000, -0.000000000000000000, -0.000000000000000000 ) ) ;
#266 = DIRECTION ( 'NONE',  ( 0.000000000000000000, 0.000000000000000000, 1.000000000000000000 ) ) ;
#267 = ORIENTED_EDGE ( 'NONE', *, *, #10, .F. ) ;
#268 = ORIENTED_EDGE ( 'NONE', *, *, #190, .T. ) ;
#269 = ORIENTED_EDGE ( 'NONE', *, *, #133, .F. ) ;
#270 = LINE ( 'NONE', #90, #11 ) ;
#271 = DIRECTION ( 'NONE',  ( -0.7071067811865482389, 8.659560562354925463E-17, -0.7071067811865469066 ) ) ;
#272 = AXIS2_PLACEMENT_3D ( 'NONE', #264, #18, #173 ) ;
#273 = CARTESIAN_POINT ( 'NONE',  ( -4.000000000000021316, 1.167241480437314450E-15, 0.000000000000000000 ) ) ;
#274 = DIRECTION ( 'NONE',  ( 0.000000000000000000, 0.000000000000000000, 1.000000000000000000 ) ) ;
#275 = PRODUCT ( '3D_GR1392_DN15x2_18380060', '3D_GR1392_DN15x2_18380060', '', ( #32 ) ) ;
#276 = DIRECTION ( 'NONE',  ( -0.000000000000000000, 0.000000000000000000, 1.000000000000000000 ) ) ;
#277 =( LENGTH_UNIT ( ) NAMED_UNIT ( * ) SI_UNIT ( .MILLI., .METRE. ) );
#278 = CIRCLE ( 'NONE', #104, 6.500000000000018652 ) ;
#279 = DIRECTION ( 'NONE',  ( 0.000000000000000000, 0.000000000000000000, 1.000000000000000000 ) ) ;
#280 = DIRECTION ( 'NONE',  ( -0.000000000000000000, 0.000000000000000000, 1.000000000000000000 ) ) ;
#281 = EDGE_CURVE ( 'NONE', #317, #186, #232, .T. ) ;
#282 = DIRECTION ( 'NONE',  ( 0.000000000000000000, 0.000000000000000000, 1.000000000000000000 ) ) ;
#283 = EDGE_LOOP ( 'NONE', ( #71, #45, #106, #75 ) ) ;
#284 = DATE_AND_TIME ( #258, #336 ) ;
#285 = CARTESIAN_POINT ( 'NONE',  ( 15.06249999999987033, 0.000000000000000000, 0.000000000000000000 ) ) ;
#286 = AXIS2_PLACEMENT_3D ( 'NONE', #177, #47, #207 ) ;
#287 = ORIENTED_EDGE ( 'NONE', *, *, #96, .T. ) ;
#288 = CIRCLE ( 'NONE', #77, 5.500000000000019540 ) ;
#289 = FACE_OUTER_BOUND ( 'NONE', #21, .T. ) ;
#290 = ORIENTED_EDGE ( 'NONE', *, *, #297, .F. ) ;
#291 = EDGE_CURVE ( 'NONE', #128, #138, #330, .T. ) ;
#292 = VERTEX_POINT ( 'NONE', #64 ) ;
#293 = ORIENTED_EDGE ( 'NONE', *, *, #252, .F. ) ;
#294 = APPROVAL ( #304, 'UNSPECIFIED' ) ;
#295 = FACE_OUTER_BOUND ( 'NONE', #283, .T. ) ;
#296 = DIRECTION ( 'NONE',  ( 0.000000000000000000, 1.000000000000000000, 0.000000000000000000 ) ) ;
#297 = EDGE_CURVE ( 'NONE', #186, #128, #226, .T. ) ;
#298 = DIRECTION ( 'NONE',  ( -0.000000000000000000, 0.000000000000000000, -1.000000000000000000 ) ) ;
#299 = DIRECTION ( 'NONE',  ( -1.000000000000000000, -0.000000000000000000, -0.000000000000000000 ) ) ;
#300 = APPROVAL_DATE_TIME ( #223, #344 ) ;
#301 = CARTESIAN_POINT ( 'NONE',  ( -154.8395502972293230, 0.000000000000000000, 8.500000000000017764 ) ) ;
#302 = AXIS2_PLACEMENT_3D ( 'NONE', #76, #42, #279 ) ;
#303 = FACE_BOUND ( 'NONE', #25, .T. ) ;
#304 = APPROVAL_STATUS ( 'not_yet_approved' ) ;
#305 = CARTESIAN_POINT ( 'NONE',  ( 7.000000000000588862, 0.000000000000000000, 0.000000000000000000 ) ) ;
#306 = APPLICATION_CONTEXT ( 'configuration controlled 3d designs of mechanical parts and assemblies' ) ;
#307 = PERSON_AND_ORGANIZATION_ROLE ( 'creator' ) ;
#308 = COORDINATED_UNIVERSAL_TIME_OFFSET ( 1, 0, .AHEAD. ) ;
#309 = CARTESIAN_POINT ( 'NONE',  ( 7.000000000000588862, 7.347880794884142416E-16, -5.500000000000019540 ) ) ;
#310 = VERTEX_POINT ( 'NONE', #99 ) ;
#311 = FACE_OUTER_BOUND ( 'NONE', #149, .T. ) ;
#312 = LOCAL_TIME ( 12, 10, 27.00000000000000000, #144 ) ;
#313 = ORIENTED_EDGE ( 'NONE', *, *, #22, .F. ) ;
#314 = AXIS2_PLACEMENT_3D ( 'NONE', #31, #220, #296 ) ;
#315 = VERTEX_POINT ( 'NONE', #309 ) ;
#316 = ORIENTED_EDGE ( 'NONE', *, *, #195, .F. ) ;
#317 = VERTEX_POINT ( 'NONE', #73 ) ;
#318 = CIRCLE ( 'NONE', #347, 6.500000000000018652 ) ;
#319 = SPHERICAL_SURFACE ( 'NONE', #152, 19.06249999999989342 ) ;
#320 = CARTESIAN_POINT ( 'NONE',  ( -154.8395502972293230, 7.960204194457819143E-16, -6.500000000000018652 ) ) ;
#321 = APPROVAL_ROLE ( '' ) ;
#322 = SPHERICAL_SURFACE ( 'NONE', #314, 19.06249999999989342 ) ;
#323 = ADVANCED_FACE ( 'NONE', ( #311 ), #260, .T. ) ;
#324 = LOCAL_TIME ( 12, 10, 27.00000000000000000, #142 ) ;
#325 = DIRECTION ( 'NONE',  ( 0.000000000000000000, 0.000000000000000000, 1.000000000000000000 ) ) ;
#326 = PERSON_AND_ORGANIZATION_ROLE ( 'design_owner' ) ;
#327 = DATE_TIME_ROLE ( 'creation_date' ) ;
#328 = FACE_OUTER_BOUND ( 'NONE', #23, .T. ) ;
#329 = APPROVAL_PERSON_ORGANIZATION ( #165, #344, #38 ) ;
#330 = CIRCLE ( 'NONE', #231, 8.500000000000015987 ) ;
#331 = CARTESIAN_POINT ( 'NONE',  ( -2.000000000000001776, 0.000000000000000000, 0.000000000000000000 ) ) ;
#332 = ADVANCED_FACE ( 'NONE', ( #289 ), #254, .T. ) ;
#333 = MANIFOLD_SOLID_BREP ( 'Rotation1', #24 ) ;
#334 = AXIS2_PLACEMENT_3D ( 'NONE', #239, #95, #130 ) ;
#335 = CARTESIAN_POINT ( 'NONE',  ( 0.000000000000000000, 1.040949779275252309E-15, -8.500000000000017764 ) ) ;
#336 = LOCAL_TIME ( 12, 10, 27.00000000000000000, #308 ) ;
#337 = VERTEX_POINT ( 'NONE', #132 ) ;
#338 = CARTESIAN_POINT ( 'NONE',  ( -2.000000000000001776, 0.000000000000000000, 0.000000000000000000 ) ) ;
#339 = EDGE_CURVE ( 'NONE', #337, #317, #196, .T. ) ;
#340 = ORIENTED_EDGE ( 'NONE', *, *, #159, .T. ) ;
#341 = CARTESIAN_POINT ( 'NONE',  ( -154.8395502972293230, 0.000000000000000000, 0.000000000000000000 ) ) ;
#342 = ORIENTED_EDGE ( 'NONE', *, *, #22, .T. ) ;
#343 = EDGE_LOOP ( 'NONE', ( #244, #342, #19, #293 ) ) ;
#344 = APPROVAL ( #219, 'UNSPECIFIED' ) ;
#345 = ORIENTED_EDGE ( 'NONE', *, *, #350, .F. ) ;
#346 = LINE ( 'NONE', #320, #48 ) ;
#347 = AXIS2_PLACEMENT_3D ( 'NONE', #27, #117, #140 ) ;
#348 = CARTESIAN_POINT ( 'NONE',  ( 6.000000000000587974, 0.000000000000000000, 0.000000000000000000 ) ) ;
#349 = CALENDAR_DATE ( 2024, 21, 9 ) ;
#350 = EDGE_CURVE ( 'NONE', #188, #315, #249, .T. ) ;
#351 = CARTESIAN_POINT ( 'NONE',  ( 7.000000000000299316, 0.000000000000000000, 0.000000000000000000 ) ) ;
ENDSEC;
END-ISO-10303-21;
