ISO-10303-21;
HEADER;
FILE_DESCRIPTION (( 'STEP AP203' ),
    '1' );
FILE_NAME ('3D_R1655_21.3x2.6_17362110.STEP',
    '2024-08-05T08:33:15',
    ( '' ),
    ( '' ),
    'SwSTEP 2.0',
    'SolidWorks 2024',
    '' );
FILE_SCHEMA (( 'CONFIG_CONTROL_DESIGN' ));
ENDSEC;

DATA;
#1 = CIRCLE ( 'NONE', #142, 10.65000000000000036 ) ;
#2 = AXIS2_PLACEMENT_3D ( 'NONE', #133, #96, #137 ) ;
#3 = CARTESIAN_POINT ( 'NONE',  ( -45.00000000000000000, 0.000000000000000000, -1.016700519940754376E-14 ) ) ;
#4 = FACE_OUTER_BOUND ( 'NONE', #193, .T. ) ;
#5 = CARTESIAN_POINT ( 'NONE',  ( -1.561751342497020193E-13, 0.000000000000000000, -53.04999999999999716 ) ) ;
#6 = PRODUCT_DEFINITION_SHAPE ( 'NONE', 'NONE',  #77 ) ;
#7 = CARTESIAN_POINT ( 'NONE',  ( -1.343771905066066424E-13, 0.000000000000000000, -45.00000000000000000 ) ) ;
#8 = APPROVAL_ROLE ( '' ) ;
#9 = DIRECTION ( 'NONE',  ( 1.000000000000000000, 0.000000000000000000, 2.259334488757235978E-16 ) ) ;
#10 = APPLICATION_PROTOCOL_DEFINITION ( 'international standard', 'config_control_design', 1994, #134 ) ;
#11 = DIRECTION ( 'NONE',  ( 0.000000000000000000, 0.000000000000000000, 1.000000000000000000 ) ) ;
#12 = CALENDAR_DATE ( 2024, 5, 8 ) ;
#13 = CARTESIAN_POINT ( 'NONE',  ( 0.000000000000000000, 0.000000000000000000, 0.000000000000000000 ) ) ;
#14 = PERSON_AND_ORGANIZATION ( #202, #58 ) ;
#15 = CC_DESIGN_APPROVAL ( #234, ( #94 ) ) ;
#16 = CC_DESIGN_PERSON_AND_ORGANIZATION_ASSIGNMENT ( #182, #26, ( #94 ) ) ;
#17 = AXIS2_PLACEMENT_3D ( 'NONE', #218, #48, #124 ) ;
#18 = EDGE_LOOP ( 'NONE', ( #131, #249 ) ) ;
#19 = CC_DESIGN_PERSON_AND_ORGANIZATION_ASSIGNMENT ( #178, #163, ( #77 ) ) ;
#20 = ORIENTED_EDGE ( 'NONE', *, *, #35, .T. ) ;
#21 = DIRECTION ( 'NONE',  ( 0.000000000000000000, 1.000000000000000000, 0.000000000000000000 ) ) ;
#22 = CC_DESIGN_APPROVAL ( #67, ( #77 ) ) ;
#23 = ORIENTED_EDGE ( 'NONE', *, *, #167, .F. ) ;
#24 = EDGE_CURVE ( 'NONE', #148, #166, #228, .T. ) ;
#25 = CARTESIAN_POINT ( 'NONE',  ( -45.00000000000000000, 0.000000000000000000, -8.266365894244658788E-15 ) ) ;
#26 = PERSON_AND_ORGANIZATION_ROLE ( 'classification_officer' ) ;
#27 = CIRCLE ( 'NONE', #38, 10.65000000000000036 ) ;
#28 = DIRECTION ( 'NONE',  ( 0.000000000000000000, 1.000000000000000000, 0.000000000000000000 ) ) ;
#29 = CIRCLE ( 'NONE', #2, 10.65000000000000036 ) ;
#30 = PLANE ( 'NONE',  #110 ) ;
#31 = CIRCLE ( 'NONE', #214, 8.050000000000000711 ) ;
#32 = PERSON_AND_ORGANIZATION_ROLE ( 'creator' ) ;
#33 = CARTESIAN_POINT ( 'NONE',  ( 0.000000000000000000, 0.000000000000000000, 0.000000000000000000 ) ) ;
#34 = APPROVAL_DATE_TIME ( #72, #234 ) ;
#35 = EDGE_CURVE ( 'NONE', #39, #189, #100, .T. ) ;
#36 = ORIENTED_EDGE ( 'NONE', *, *, #167, .T. ) ;
#37 = AXIS2_PLACEMENT_3D ( 'NONE', #93, #227, #220 ) ;
#38 = AXIS2_PLACEMENT_3D ( 'NONE', #25, #69, #140 ) ;
#39 = VERTEX_POINT ( 'NONE', #213 ) ;
#40 = EDGE_LOOP ( 'NONE', ( #209, #116, #229, #145 ) ) ;
#41 = FACE_OUTER_BOUND ( 'NONE', #83, .T. ) ;
#42 = EDGE_LOOP ( 'NONE', ( #61, #99 ) ) ;
#43 = CIRCLE ( 'NONE', #170, 55.64999999999999858 ) ;
#44 = CIRCLE ( 'NONE', #181, 8.050000000000000711 ) ;
#45 = ADVANCED_FACE ( 'NONE', ( #41 ), #146, .F. ) ;
#46 = DIRECTION ( 'NONE',  ( 2.943923360032082289E-15, 0.000000000000000000, 1.000000000000000000 ) ) ;
#47 = PERSON_AND_ORGANIZATION ( #202, #58 ) ;
#48 = DIRECTION ( 'NONE',  ( -2.259334488757232034E-16, 0.000000000000000000, 1.000000000000000000 ) ) ;
#49 = SECURITY_CLASSIFICATION_LEVEL ( 'unclassified' ) ;
#50 = AXIS2_PLACEMENT_3D ( 'NONE', #7, #158, #241 ) ;
#51 = COORDINATED_UNIVERSAL_TIME_OFFSET ( 1, 0, .AHEAD. ) ;
#52 = CALENDAR_DATE ( 2024, 5, 8 ) ;
#53 = CARTESIAN_POINT ( 'NONE',  ( -1.324765512014437259E-13, 0.000000000000000000, -45.00000000000000000 ) ) ;
#54 = AXIS2_PLACEMENT_3D ( 'NONE', #161, #239, #120 ) ;
#55 = PRODUCT_RELATED_PRODUCT_CATEGORY ( 'detail', '', ( #156 ) ) ;
#56 = ORIENTED_EDGE ( 'NONE', *, *, #109, .T. ) ;
#57 = EDGE_CURVE ( 'NONE', #189, #168, #44, .T. ) ;
#58 = ORGANIZATION ( 'UNSPECIFIED', 'UNSPECIFIED', '' ) ;
#59 = CLOSED_SHELL ( 'NONE', ( #98, #251, #103, #126, #207, #45 ) ) ;
#60 = CARTESIAN_POINT ( 'NONE',  ( 0.000000000000000000, -1.304248841091931261E-15, 0.000000000000000000 ) ) ;
#61 = ORIENTED_EDGE ( 'NONE', *, *, #192, .T. ) ;
#62 = ORIENTED_EDGE ( 'NONE', *, *, #194, .F. ) ;
#63 = LOCAL_TIME ( 10, 33, 15.00000000000000000, #129 ) ;
#64 = ORIENTED_EDGE ( 'NONE', *, *, #231, .T. ) ;
#65 = CC_DESIGN_PERSON_AND_ORGANIZATION_ASSIGNMENT ( #14, #141, ( #71 ) ) ;
#66 = DIRECTION ( 'NONE',  ( 0.000000000000000000, 1.000000000000000000, 0.000000000000000000 ) ) ;
#67 = APPROVAL ( #108, 'UNSPECIFIED' ) ;
#68 = PERSON_AND_ORGANIZATION_ROLE ( 'design_owner' ) ;
#69 = DIRECTION ( 'NONE',  ( -2.259334488757232034E-16, 0.000000000000000000, 1.000000000000000000 ) ) ;
#70 = PERSON_AND_ORGANIZATION ( #202, #58 ) ;
#71 = PRODUCT_DEFINITION_FORMATION_WITH_SPECIFIED_SOURCE ( 'ANY', '', #156, .NOT_KNOWN. ) ;
#72 = DATE_AND_TIME ( #75, #114 ) ;
#73 = CIRCLE ( 'NONE', #212, 34.35000000000000142 ) ;
#74 = DIRECTION ( 'NONE',  ( 0.000000000000000000, 1.000000000000000000, 0.000000000000000000 ) ) ;
#75 = CALENDAR_DATE ( 2024, 5, 8 ) ;
#76 = DIRECTION ( 'NONE',  ( -1.000000000000000000, 0.000000000000000000, 2.943923360032083078E-15 ) ) ;
#77 = PRODUCT_DEFINITION ( 'UNKNOWN', '', #71, #152 ) ;
#78 = CARTESIAN_POINT ( 'NONE',  ( 0.000000000000000000, 0.000000000000000000, 0.000000000000000000 ) ) ;
#79 = ORIENTED_EDGE ( 'NONE', *, *, #224, .F. ) ;
#80 = EDGE_LOOP ( 'NONE', ( #81, #62 ) ) ;
#81 = ORIENTED_EDGE ( 'NONE', *, *, #57, .F. ) ;
#82 = TOROIDAL_SURFACE ( 'NONE', #190, 45.00000000000000000, 8.050000000000000711 ) ;
#83 = EDGE_LOOP ( 'NONE', ( #211, #23, #20, #175 ) ) ;
#84 = DIRECTION ( 'NONE',  ( 1.000000000000000000, 0.000000000000000000, 2.259334488757235485E-16 ) ) ;
#85 = FACE_OUTER_BOUND ( 'NONE', #233, .T. ) ;
#86 = CIRCLE ( 'NONE', #95, 53.04999999999999716 ) ;
#87 = CARTESIAN_POINT ( 'NONE',  ( -36.94999999999999574, 0.000000000000000000, -8.348240935957971359E-15 ) ) ;
#88 =( NAMED_UNIT ( * ) SI_UNIT ( $, .STERADIAN. ) SOLID_ANGLE_UNIT ( ) );
#89 = CARTESIAN_POINT ( 'NONE',  ( -55.64999999999999858, 0.000000000000000000, -1.067255712477111333E-14 ) ) ;
#90 = AXIS2_PLACEMENT_3D ( 'NONE', #243, #128, #205 ) ;
#91 = CALENDAR_DATE ( 2024, 5, 8 ) ;
#92 = CARTESIAN_POINT ( 'NONE',  ( -45.00000000000000000, 0.000000000000000000, -8.266365894244658788E-15 ) ) ;
#93 = CARTESIAN_POINT ( 'NONE',  ( 0.000000000000000000, 0.000000000000000000, 0.000000000000000000 ) ) ;
#94 = SECURITY_CLASSIFICATION ( '', '', #49 ) ;
#95 = AXIS2_PLACEMENT_3D ( 'NONE', #78, #28, #246 ) ;
#96 = DIRECTION ( 'NONE',  ( -1.000000000000000000, 0.000000000000000000, 2.943923360032083078E-15 ) ) ;
#97 =( NAMED_UNIT ( * ) PLANE_ANGLE_UNIT ( ) SI_UNIT ( $, .RADIAN. ) );
#98 = ADVANCED_FACE ( 'NONE', ( #85 ), #82, .F. ) ;
#99 = ORIENTED_EDGE ( 'NONE', *, *, #24, .T. ) ;
#100 = CIRCLE ( 'NONE', #244, 36.94999999999999574 ) ;
#101 = DIRECTION ( 'NONE',  ( -2.259334488757232034E-16, 0.000000000000000000, 1.000000000000000000 ) ) ;
#102 = CARTESIAN_POINT ( 'NONE',  ( -53.04999999999999716, 0.000000000000000000, -1.198576946285711616E-14 ) ) ;
#103 = ADVANCED_FACE ( 'NONE', ( #174 ), #136, .T. ) ;
#104 = MECHANICAL_CONTEXT ( 'NONE', #121, 'mechanical' ) ;
#105 = FACE_OUTER_BOUND ( 'NONE', #18, .T. ) ;
#106 = PERSON_AND_ORGANIZATION ( #202, #58 ) ;
#107 = FACE_OUTER_BOUND ( 'NONE', #42, .T. ) ;
#108 = APPROVAL_STATUS ( 'not_yet_approved' ) ;
#109 = EDGE_CURVE ( 'NONE', #119, #148, #43, .T. ) ;
#110 = AXIS2_PLACEMENT_3D ( 'NONE', #92, #248, #9 ) ;
#111 = DIRECTION ( 'NONE',  ( -1.000000000000000000, 0.000000000000000000, 2.943923360032083078E-15 ) ) ;
#112 = COORDINATED_UNIVERSAL_TIME_OFFSET ( 1, 0, .AHEAD. ) ;
#113 = ORIENTED_EDGE ( 'NONE', *, *, #194, .T. ) ;
#114 = LOCAL_TIME ( 10, 33, 15.00000000000000000, #208 ) ;
#115 = AXIS2_PLACEMENT_3D ( 'NONE', #151, #101, #84 ) ;
#116 = ORIENTED_EDGE ( 'NONE', *, *, #187, .T. ) ;
#117 = EDGE_CURVE ( 'NONE', #171, #39, #31, .T. ) ;
#118 = DIRECTION ( 'NONE',  ( -2.259334488757232034E-16, 0.000000000000000000, 1.000000000000000000 ) ) ;
#119 = VERTEX_POINT ( 'NONE', #155 ) ;
#120 = DIRECTION ( 'NONE',  ( 2.943923360032083078E-15, 0.000000000000000000, 1.000000000000000000 ) ) ;
#121 = APPLICATION_CONTEXT ( 'configuration controlled 3d designs of mechanical parts and assemblies' ) ;
#122 = APPROVAL_PERSON_ORGANIZATION ( #47, #234, #201 ) ;
#123 = APPROVAL_STATUS ( 'not_yet_approved' ) ;
#124 = DIRECTION ( 'NONE',  ( 1.000000000000000000, 0.000000000000000000, 2.259334488757232527E-16 ) ) ;
#125 = DATE_AND_TIME ( #12, #232 ) ;
#126 = ADVANCED_FACE ( 'NONE', ( #203, #107 ), #30, .T. ) ;
#127 = APPROVAL_DATE_TIME ( #225, #67 ) ;
#128 = DIRECTION ( 'NONE',  ( 0.000000000000000000, 1.000000000000000000, 0.000000000000000000 ) ) ;
#129 = COORDINATED_UNIVERSAL_TIME_OFFSET ( 1, 0, .AHEAD. ) ;
#130 = ORIENTED_EDGE ( 'NONE', *, *, #176, .T. ) ;
#131 = ORIENTED_EDGE ( 'NONE', *, *, #231, .F. ) ;
#132 = CC_DESIGN_PERSON_AND_ORGANIZATION_ASSIGNMENT ( #180, #68, ( #156 ) ) ;
#133 = CARTESIAN_POINT ( 'NONE',  ( -1.343771905066066424E-13, 0.000000000000000000, -45.00000000000000000 ) ) ;
#134 = APPLICATION_CONTEXT ( 'configuration controlled 3d designs of mechanical parts and assemblies' ) ;
#135 = DIRECTION ( 'NONE',  ( 0.000000000000000000, 0.000000000000000000, 1.000000000000000000 ) ) ;
#136 = TOROIDAL_SURFACE ( 'NONE', #90, 45.00000000000000000, 10.65000000000000036 ) ;
#137 = DIRECTION ( 'NONE',  ( 2.943923360032082289E-15, 0.000000000000000000, 1.000000000000000000 ) ) ;
#138 = CC_DESIGN_DATE_AND_TIME_ASSIGNMENT ( #125, #204, ( #94 ) ) ;
#139 = APPROVAL_ROLE ( '' ) ;
#140 = DIRECTION ( 'NONE',  ( 1.000000000000000000, 0.000000000000000000, 2.259334488757235485E-16 ) ) ;
#141 = PERSON_AND_ORGANIZATION_ROLE ( 'design_supplier' ) ;
#142 = AXIS2_PLACEMENT_3D ( 'NONE', #216, #76, #46 ) ;
#143 = DATE_AND_TIME ( #157, #164 ) ;
#144 = CC_DESIGN_PERSON_AND_ORGANIZATION_ASSIGNMENT ( #70, #32, ( #71 ) ) ;
#145 = ORIENTED_EDGE ( 'NONE', *, *, #24, .F. ) ;
#146 = TOROIDAL_SURFACE ( 'NONE', #195, 45.00000000000000000, 8.050000000000000711 ) ;
#147 = DIRECTION ( 'NONE',  ( 0.000000000000000000, 1.000000000000000000, 0.000000000000000000 ) ) ;
#148 = VERTEX_POINT ( 'NONE', #89 ) ;
#149 = CC_DESIGN_SECURITY_CLASSIFICATION ( #94, ( #71 ) ) ;
#150 = CARTESIAN_POINT ( 'NONE',  ( 0.000000000000000000, -9.858406733136194415E-16, 0.000000000000000000 ) ) ;
#151 = CARTESIAN_POINT ( 'NONE',  ( -45.00000000000000000, 0.000000000000000000, -8.266365894244658788E-15 ) ) ;
#152 = DESIGN_CONTEXT ( 'detailed design', #134, 'design' ) ;
#153 = ORIENTED_EDGE ( 'NONE', *, *, #117, .T. ) ;
#154 = ADVANCED_BREP_SHAPE_REPRESENTATION ( '3D_R1655_21.3x2.6_17362110', ( #159, #37 ), #172 ) ;
#155 = CARTESIAN_POINT ( 'NONE',  ( -1.657299742909483442E-13, 0.000000000000000000, -55.64999999999999858 ) ) ;
#156 = PRODUCT ( '3D_R1655_21.3x2.6_17362110', '3D_R1655_21.3x2.6_17362110', '', ( #104 ) ) ;
#157 = CALENDAR_DATE ( 2024, 5, 8 ) ;
#158 = DIRECTION ( 'NONE',  ( -1.000000000000000000, 0.000000000000000000, 2.943923360032083078E-15 ) ) ;
#159 = MANIFOLD_SOLID_BREP ( 'Wandung1', #59 ) ;
#160 = APPROVAL_PERSON_ORGANIZATION ( #106, #183, #139 ) ;
#161 = CARTESIAN_POINT ( 'NONE',  ( -1.324765512014437259E-13, 0.000000000000000000, -45.00000000000000000 ) ) ;
#162 = COORDINATED_UNIVERSAL_TIME_OFFSET ( 1, 0, .AHEAD. ) ;
#163 = PERSON_AND_ORGANIZATION_ROLE ( 'creator' ) ;
#164 = LOCAL_TIME ( 10, 33, 15.00000000000000000, #112 ) ;
#165 = CIRCLE ( 'NONE', #17, 8.050000000000000711 ) ;
#166 = VERTEX_POINT ( 'NONE', #177 ) ;
#167 = EDGE_CURVE ( 'NONE', #39, #171, #238, .T. ) ;
#168 = VERTEX_POINT ( 'NONE', #102 ) ;
#169 =( LENGTH_UNIT ( ) NAMED_UNIT ( * ) SI_UNIT ( .MILLI., .METRE. ) );
#170 = AXIS2_PLACEMENT_3D ( 'NONE', #33, #74, #223 ) ;
#171 = VERTEX_POINT ( 'NONE', #5 ) ;
#172 =( GEOMETRIC_REPRESENTATION_CONTEXT ( 3 ) GLOBAL_UNCERTAINTY_ASSIGNED_CONTEXT ( ( #215 ) ) GLOBAL_UNIT_ASSIGNED_CONTEXT ( ( #169, #97, #88 ) ) REPRESENTATION_CONTEXT ( 'NONE', 'WORKASPACE' ) );
#173 = DIRECTION ( 'NONE',  ( 0.000000000000000000, 0.000000000000000000, 1.000000000000000000 ) ) ;
#174 = FACE_OUTER_BOUND ( 'NONE', #40, .T. ) ;
#175 = ORIENTED_EDGE ( 'NONE', *, *, #57, .T. ) ;
#176 = EDGE_CURVE ( 'NONE', #171, #168, #86, .T. ) ;
#177 = CARTESIAN_POINT ( 'NONE',  ( -34.35000000000000142, 0.000000000000000000, -5.860174663718203458E-15 ) ) ;
#178 = PERSON_AND_ORGANIZATION ( #202, #58 ) ;
#179 = PLANE ( 'NONE',  #50 ) ;
#180 = PERSON_AND_ORGANIZATION ( #202, #58 ) ;
#181 = AXIS2_PLACEMENT_3D ( 'NONE', #3, #118, #235 ) ;
#182 = PERSON_AND_ORGANIZATION ( #202, #58 ) ;
#183 = APPROVAL ( #123, 'UNSPECIFIED' ) ;
#184 = DATE_TIME_ROLE ( 'creation_date' ) ;
#185 = AXIS2_PLACEMENT_3D ( 'NONE', #250, #230, #197 ) ;
#186 = ORIENTED_EDGE ( 'NONE', *, *, #117, .F. ) ;
#187 = EDGE_CURVE ( 'NONE', #119, #191, #1, .T. ) ;
#188 = EDGE_LOOP ( 'NONE', ( #36, #153 ) ) ;
#189 = VERTEX_POINT ( 'NONE', #87 ) ;
#190 = AXIS2_PLACEMENT_3D ( 'NONE', #13, #221, #11 ) ;
#191 = VERTEX_POINT ( 'NONE', #198 ) ;
#192 = EDGE_CURVE ( 'NONE', #166, #148, #27, .T. ) ;
#193 = EDGE_LOOP ( 'NONE', ( #64, #56, #252, #79 ) ) ;
#194 = EDGE_CURVE ( 'NONE', #168, #189, #165, .T. ) ;
#195 = AXIS2_PLACEMENT_3D ( 'NONE', #236, #21, #173 ) ;
#196 = ORIENTED_EDGE ( 'NONE', *, *, #35, .F. ) ;
#197 = DIRECTION ( 'NONE',  ( 0.000000000000000000, 0.000000000000000000, 1.000000000000000000 ) ) ;
#198 = CARTESIAN_POINT ( 'NONE',  ( -1.030244067222649532E-13, 0.000000000000000000, -34.35000000000000142 ) ) ;
#199 = CC_DESIGN_APPROVAL ( #183, ( #71 ) ) ;
#200 = FACE_BOUND ( 'NONE', #188, .T. ) ;
#201 = APPROVAL_ROLE ( '' ) ;
#202 = PERSON ( 'UNSPECIFIED', 'UNSPECIFIED', 'UNSPECIFIED', ('UNSPECIFIED'), ('UNSPECIFIED'), ('UNSPECIFIED') ) ;
#203 = FACE_BOUND ( 'NONE', #80, .T. ) ;
#204 = DATE_TIME_ROLE ( 'classification_date' ) ;
#205 = DIRECTION ( 'NONE',  ( 0.000000000000000000, 0.000000000000000000, 1.000000000000000000 ) ) ;
#206 = DATE_AND_TIME ( #52, #63 ) ;
#207 = ADVANCED_FACE ( 'NONE', ( #200, #105 ), #179, .F. ) ;
#208 = COORDINATED_UNIVERSAL_TIME_OFFSET ( 1, 0, .AHEAD. ) ;
#209 = ORIENTED_EDGE ( 'NONE', *, *, #109, .F. ) ;
#210 = TOROIDAL_SURFACE ( 'NONE', #185, 45.00000000000000000, 10.65000000000000036 ) ;
#211 = ORIENTED_EDGE ( 'NONE', *, *, #176, .F. ) ;
#212 = AXIS2_PLACEMENT_3D ( 'NONE', #60, #147, #237 ) ;
#213 = CARTESIAN_POINT ( 'NONE',  ( -1.087779681531854578E-13, 0.000000000000000000, -36.94999999999999574 ) ) ;
#214 = AXIS2_PLACEMENT_3D ( 'NONE', #53, #111, #226 ) ;
#215 = UNCERTAINTY_MEASURE_WITH_UNIT (LENGTH_MEASURE( 1.000000000000000082E-05 ), #169, 'distance_accuracy_value', 'NONE');
#216 = CARTESIAN_POINT ( 'NONE',  ( -1.343771905066066424E-13, 0.000000000000000000, -45.00000000000000000 ) ) ;
#217 = PERSON_AND_ORGANIZATION ( #202, #58 ) ;
#218 = CARTESIAN_POINT ( 'NONE',  ( -45.00000000000000000, 0.000000000000000000, -1.016700519940754376E-14 ) ) ;
#219 = CC_DESIGN_DATE_AND_TIME_ASSIGNMENT ( #143, #184, ( #77 ) ) ;
#220 = DIRECTION ( 'NONE',  ( 1.000000000000000000, 0.000000000000000000, 0.000000000000000000 ) ) ;
#221 = DIRECTION ( 'NONE',  ( 0.000000000000000000, 1.000000000000000000, 0.000000000000000000 ) ) ;
#222 = APPROVAL_DATE_TIME ( #206, #183 ) ;
#223 = DIRECTION ( 'NONE',  ( 0.000000000000000000, 0.000000000000000000, 1.000000000000000000 ) ) ;
#224 = EDGE_CURVE ( 'NONE', #191, #166, #73, .T. ) ;
#225 = DATE_AND_TIME ( #91, #242 ) ;
#226 = DIRECTION ( 'NONE',  ( 2.943923360032083078E-15, 0.000000000000000000, 1.000000000000000000 ) ) ;
#227 = DIRECTION ( 'NONE',  ( 0.000000000000000000, 0.000000000000000000, 1.000000000000000000 ) ) ;
#228 = CIRCLE ( 'NONE', #115, 10.65000000000000036 ) ;
#229 = ORIENTED_EDGE ( 'NONE', *, *, #224, .T. ) ;
#230 = DIRECTION ( 'NONE',  ( 0.000000000000000000, 1.000000000000000000, 0.000000000000000000 ) ) ;
#231 = EDGE_CURVE ( 'NONE', #191, #119, #29, .T. ) ;
#232 = LOCAL_TIME ( 10, 33, 15.00000000000000000, #51 ) ;
#233 = EDGE_LOOP ( 'NONE', ( #186, #130, #113, #196 ) ) ;
#234 = APPROVAL ( #245, 'UNSPECIFIED' ) ;
#235 = DIRECTION ( 'NONE',  ( 1.000000000000000000, 0.000000000000000000, 2.259334488757232527E-16 ) ) ;
#236 = CARTESIAN_POINT ( 'NONE',  ( 0.000000000000000000, 0.000000000000000000, 0.000000000000000000 ) ) ;
#237 = DIRECTION ( 'NONE',  ( 0.000000000000000000, 0.000000000000000000, 1.000000000000000000 ) ) ;
#238 = CIRCLE ( 'NONE', #54, 8.050000000000000711 ) ;
#239 = DIRECTION ( 'NONE',  ( -1.000000000000000000, 0.000000000000000000, 2.943923360032083078E-15 ) ) ;
#240 = APPLICATION_PROTOCOL_DEFINITION ( 'international standard', 'config_control_design', 1994, #121 ) ;
#241 = DIRECTION ( 'NONE',  ( 2.943923360032083078E-15, 0.000000000000000000, 1.000000000000000000 ) ) ;
#242 = LOCAL_TIME ( 10, 33, 15.00000000000000000, #162 ) ;
#243 = CARTESIAN_POINT ( 'NONE',  ( 0.000000000000000000, 0.000000000000000000, 0.000000000000000000 ) ) ;
#244 = AXIS2_PLACEMENT_3D ( 'NONE', #150, #66, #135 ) ;
#245 = APPROVAL_STATUS ( 'not_yet_approved' ) ;
#246 = DIRECTION ( 'NONE',  ( 0.000000000000000000, 0.000000000000000000, 1.000000000000000000 ) ) ;
#247 = SHAPE_DEFINITION_REPRESENTATION ( #6, #154 ) ;
#248 = DIRECTION ( 'NONE',  ( -2.259334488757235978E-16, 0.000000000000000000, 1.000000000000000000 ) ) ;
#249 = ORIENTED_EDGE ( 'NONE', *, *, #187, .F. ) ;
#250 = CARTESIAN_POINT ( 'NONE',  ( 0.000000000000000000, 0.000000000000000000, 0.000000000000000000 ) ) ;
#251 = ADVANCED_FACE ( 'NONE', ( #4 ), #210, .T. ) ;
#252 = ORIENTED_EDGE ( 'NONE', *, *, #192, .F. ) ;
#253 = APPROVAL_PERSON_ORGANIZATION ( #217, #67, #8 ) ;
ENDSEC;
END-ISO-10303-21;
