ISO-10303-21;
HEADER;
FILE_DESCRIPTION (( 'STEP AP203' ),
    '1' );
FILE_NAME ('3D_GR1382_DN12x1.5_18380288.STEP',
    '2024-09-23T05:56:55',
    ( '' ),
    ( '' ),
    'SwSTEP 2.0',
    'SolidWorks 2024',
    '' );
FILE_SCHEMA (( 'CONFIG_CONTROL_DESIGN' ));
ENDSEC;

DATA;
#1 = CARTESIAN_POINT ( 'NONE',  ( 7.000000000000616396, 0.000000000000000000, 3.500000000000021316 ) ) ;
#2 = AXIS2_PLACEMENT_3D ( 'NONE', #99, #66, #159 ) ;
#3 = CARTESIAN_POINT ( 'NONE',  ( -2.000000000000556888, 0.000000000000000000, 5.500000000000018652 ) ) ;
#4 = APPROVAL ( #301, 'UNSPECIFIED' ) ;
#5 = CARTESIAN_POINT ( 'NONE',  ( -154.8395502972293230, 0.000000000000000000, 0.000000000000000000 ) ) ;
#6 = EDGE_CURVE ( 'NONE', #169, #272, #240, .T. ) ;
#7 = CARTESIAN_POINT ( 'NONE',  ( 0.000000000000000000, 5.510910596163115194E-16, -4.500000000000019540 ) ) ;
#8 = CIRCLE ( 'NONE', #181, 4.500000000000022204 ) ;
#9 = CYLINDRICAL_SURFACE ( 'NONE', #129, 6.000000000000019540 ) ;
#10 = CARTESIAN_POINT ( 'NONE',  ( -154.8395502972293230, 0.000000000000000000, 4.500000000000021316 ) ) ;
#11 = DIRECTION ( 'NONE',  ( -1.000000000000000000, -0.000000000000000000, -0.000000000000000000 ) ) ;
#12 = LINE ( 'NONE', #10, #122 ) ;
#13 = CARTESIAN_POINT ( 'NONE',  ( -2.000000000000556888, 7.041719095097303559E-16, -5.500000000000018652 ) ) ;
#14 = ADVANCED_FACE ( 'NONE', ( #59 ), #74, .T. ) ;
#15 = EDGE_LOOP ( 'NONE', ( #52, #333, #262, #242 ) ) ;
#16 = ADVANCED_FACE ( 'NONE', ( #310 ), #336, .F. ) ;
#17 = CARTESIAN_POINT ( 'NONE',  ( 2.775557561562891351E-14, 0.000000000000000000, 0.000000000000000000 ) ) ;
#18 = MECHANICAL_CONTEXT ( 'NONE', #133, 'mechanical' ) ;
#19 = EDGE_LOOP ( 'NONE', ( #300, #194 ) ) ;
#20 = CONICAL_SURFACE ( 'NONE', #142, 3.500000000000021316, 0.7853981633974482790 ) ;
#21 = ORGANIZATION ( 'UNSPECIFIED', 'UNSPECIFIED', '' ) ;
#22 = PERSON_AND_ORGANIZATION_ROLE ( 'creator' ) ;
#23 = ORIENTED_EDGE ( 'NONE', *, *, #149, .F. ) ;
#24 = APPLICATION_CONTEXT ( 'configuration controlled 3d designs of mechanical parts and assemblies' ) ;
#25 = ORIENTED_EDGE ( 'NONE', *, *, #328, .T. ) ;
#26 = APPROVAL_ROLE ( '' ) ;
#27 = ORIENTED_EDGE ( 'NONE', *, *, #149, .T. ) ;
#28 = AXIS2_PLACEMENT_3D ( 'NONE', #226, #338, #307 ) ;
#29 = PERSON_AND_ORGANIZATION ( #94, #21 ) ;
#30 = EDGE_LOOP ( 'NONE', ( #269, #56, #186, #324 ) ) ;
#31 = DIRECTION ( 'NONE',  ( -1.000000000000000000, -0.000000000000000000, -0.000000000000000000 ) ) ;
#32 = DIRECTION ( 'NONE',  ( -1.000000000000000000, -0.000000000000000000, -0.000000000000000000 ) ) ;
#33 = EDGE_CURVE ( 'NONE', #81, #272, #188, .T. ) ;
#34 = CIRCLE ( 'NONE', #281, 4.500000000000019540 ) ;
#35 = EDGE_CURVE ( 'NONE', #293, #81, #96, .T. ) ;
#36 = CC_DESIGN_APPROVAL ( #128, ( #91 ) ) ;
#37 = DIRECTION ( 'NONE',  ( -1.000000000000000000, -0.000000000000000000, -0.000000000000000000 ) ) ;
#38 = FACE_OUTER_BOUND ( 'NONE', #270, .T. ) ;
#39 = CARTESIAN_POINT ( 'NONE',  ( 6.000000000000616396, 5.510910596163117166E-16, -4.500000000000022204 ) ) ;
#40 = CIRCLE ( 'NONE', #276, 4.500000000000022204 ) ;
#41 =( LENGTH_UNIT ( ) NAMED_UNIT ( * ) SI_UNIT ( .MILLI., .METRE. ) );
#42 = DIRECTION ( 'NONE',  ( -1.000000000000000000, -0.000000000000000000, -0.000000000000000000 ) ) ;
#43 = FACE_OUTER_BOUND ( 'NONE', #125, .T. ) ;
#44 = ADVANCED_FACE ( 'NONE', ( #341 ), #349, .T. ) ;
#45 = CARTESIAN_POINT ( 'NONE',  ( 8.467998814554862119E-15, 4.500000000000019540, 0.000000000000000000 ) ) ;
#46 = DIRECTION ( 'NONE',  ( 0.000000000000000000, 0.000000000000000000, 1.000000000000000000 ) ) ;
#47 = COORDINATED_UNIVERSAL_TIME_OFFSET ( 1, 0, .AHEAD. ) ;
#48 = ORIENTED_EDGE ( 'NONE', *, *, #340, .F. ) ;
#49 = DIRECTION ( 'NONE',  ( 1.000000000000000000, 0.000000000000000000, 0.000000000000000000 ) ) ;
#50 = ORIENTED_EDGE ( 'NONE', *, *, #213, .T. ) ;
#51 = AXIS2_PLACEMENT_3D ( 'NONE', #17, #42, #156 ) ;
#52 = ORIENTED_EDGE ( 'NONE', *, *, #6, .F. ) ;
#53 = PERSON_AND_ORGANIZATION ( #94, #21 ) ;
#54 = ORIENTED_EDGE ( 'NONE', *, *, #102, .T. ) ;
#55 = COORDINATED_UNIVERSAL_TIME_OFFSET ( 1, 0, .AHEAD. ) ;
#56 = ORIENTED_EDGE ( 'NONE', *, *, #236, .T. ) ;
#57 = AXIS2_PLACEMENT_3D ( 'NONE', #280, #228, #200 ) ;
#58 = LINE ( 'NONE', #145, #284 ) ;
#59 = FACE_OUTER_BOUND ( 'NONE', #15, .T. ) ;
#60 = ADVANCED_FACE ( 'NONE', ( #231 ), #92, .T. ) ;
#61 = DIRECTION ( 'NONE',  ( -0.7071067811865474617, 0.000000000000000000, 0.7071067811865474617 ) ) ;
#62 = DIRECTION ( 'NONE',  ( 0.000000000000000000, 0.000000000000000000, 1.000000000000000000 ) ) ;
#63 = DIRECTION ( 'NONE',  ( 0.000000000000000000, 0.000000000000000000, -1.000000000000000000 ) ) ;
#64 = DIRECTION ( 'NONE',  ( 0.000000000000000000, 0.000000000000000000, 1.000000000000000000 ) ) ;
#65 = CIRCLE ( 'NONE', #313, 3.500000000000021316 ) ;
#66 = DIRECTION ( 'NONE',  ( -1.000000000000000000, -0.000000000000000000, -0.000000000000000000 ) ) ;
#67 = CC_DESIGN_APPROVAL ( #327, ( #273 ) ) ;
#68 = DIRECTION ( 'NONE',  ( -1.000000000000000000, -0.000000000000000000, -0.000000000000000000 ) ) ;
#69 = CC_DESIGN_PERSON_AND_ORGANIZATION_ASSIGNMENT ( #196, #348, ( #154 ) ) ;
#70 = ADVANCED_FACE ( 'NONE', ( #202 ), #112, .T. ) ;
#71 = CARTESIAN_POINT ( 'NONE',  ( -1.500000000000556444, 0.000000000000000000, 0.000000000000000000 ) ) ;
#72 = ORIENTED_EDGE ( 'NONE', *, *, #127, .F. ) ;
#73 = DIRECTION ( 'NONE',  ( -1.000000000000000000, -0.000000000000000000, -0.000000000000000000 ) ) ;
#74 = TOROIDAL_SURFACE ( 'NONE', #163, 5.500000000000018652, 0.5000000000000006661 ) ;
#75 = COORDINATED_UNIVERSAL_TIME_OFFSET ( 1, 0, .AHEAD. ) ;
#76 = PRODUCT ( '3D_GR1382_DN12x1.5_18380288', '3D_GR1382_DN12x1.5_18380288', '', ( #18 ) ) ;
#77 = APPROVAL_DATE_TIME ( #107, #128 ) ;
#78 = VERTEX_POINT ( 'NONE', #146 ) ;
#79 = UNCERTAINTY_MEASURE_WITH_UNIT (LENGTH_MEASURE( 1.000000000000000082E-05 ), #41, 'distance_accuracy_value', 'NONE');
#80 = PERSON_AND_ORGANIZATION ( #94, #21 ) ;
#81 = VERTEX_POINT ( 'NONE', #3 ) ;
#82 = CIRCLE ( 'NONE', #147, 3.500000000000021316 ) ;
#83 = PERSON_AND_ORGANIZATION ( #94, #21 ) ;
#84 = EDGE_LOOP ( 'NONE', ( #88, #277 ) ) ;
#85 = EDGE_CURVE ( 'NONE', #78, #326, #82, .T. ) ;
#86 = ADVANCED_FACE ( 'NONE', ( #38 ), #173, .T. ) ;
#87 = APPLICATION_PROTOCOL_DEFINITION ( 'international standard', 'config_control_design', 1994, #133 ) ;
#88 = ORIENTED_EDGE ( 'NONE', *, *, #309, .F. ) ;
#89 = VERTEX_POINT ( 'NONE', #39 ) ;
#90 = VECTOR ( 'NONE', #61, 1000.000000000000114 ) ;
#91 = SECURITY_CLASSIFICATION ( '', '', #241 ) ;
#92 = CYLINDRICAL_SURFACE ( 'NONE', #57, 4.500000000000021316 ) ;
#93 = CARTESIAN_POINT ( 'NONE',  ( 2.775557561562891351E-14, 0.000000000000000000, 0.000000000000000000 ) ) ;
#94 = PERSON ( 'UNSPECIFIED', 'UNSPECIFIED', 'UNSPECIFIED', ('UNSPECIFIED'), ('UNSPECIFIED'), ('UNSPECIFIED') ) ;
#95 = DIRECTION ( 'NONE',  ( 0.000000000000000000, -1.000000000000000000, 0.000000000000000000 ) ) ;
#96 = CIRCLE ( 'NONE', #335, 0.5000000000000004441 ) ;
#97 = CARTESIAN_POINT ( 'NONE',  ( -1.500000000000552003, 0.000000000000000000, 0.000000000000000000 ) ) ;
#98 = DIRECTION ( 'NONE',  ( -1.000000000000000000, -0.000000000000000000, -0.000000000000000000 ) ) ;
#99 = CARTESIAN_POINT ( 'NONE',  ( -154.8395502972293230, 0.000000000000000000, 0.000000000000000000 ) ) ;
#100 = AXIS2_PLACEMENT_3D ( 'NONE', #71, #158, #261 ) ;
#101 = CYLINDRICAL_SURFACE ( 'NONE', #2, 4.500000000000021316 ) ;
#102 = EDGE_CURVE ( 'NONE', #355, #89, #40, .T. ) ;
#103 = FACE_BOUND ( 'NONE', #353, .T. ) ;
#104 = DIRECTION ( 'NONE',  ( 0.000000000000000000, 0.000000000000000000, 1.000000000000000000 ) ) ;
#105 = COORDINATED_UNIVERSAL_TIME_OFFSET ( 1, 0, .AHEAD. ) ;
#106 =( GEOMETRIC_REPRESENTATION_CONTEXT ( 3 ) GLOBAL_UNCERTAINTY_ASSIGNED_CONTEXT ( ( #79 ) ) GLOBAL_UNIT_ASSIGNED_CONTEXT ( ( #41, #264, #354 ) ) REPRESENTATION_CONTEXT ( 'NONE', 'WORKASPACE' ) );
#107 = DATE_AND_TIME ( #325, #294 ) ;
#108 = VERTEX_POINT ( 'NONE', #223 ) ;
#109 = DATE_AND_TIME ( #323, #195 ) ;
#110 = ORIENTED_EDGE ( 'NONE', *, *, #237, .T. ) ;
#111 = CARTESIAN_POINT ( 'NONE',  ( 0.000000000000000000, 0.000000000000000000, 0.000000000000000000 ) ) ;
#112 = TOROIDAL_SURFACE ( 'NONE', #157, 5.500000000000018652, 0.5000000000000006661 ) ;
#113 = CC_DESIGN_PERSON_AND_ORGANIZATION_ASSIGNMENT ( #29, #143, ( #154 ) ) ;
#114 = VERTEX_POINT ( 'NONE', #7 ) ;
#115 = EDGE_LOOP ( 'NONE', ( #167, #140 ) ) ;
#116 = DIRECTION ( 'NONE',  ( 0.000000000000000000, -1.224646799147353454E-16, 1.000000000000000000 ) ) ;
#117 = VECTOR ( 'NONE', #98, 1000.000000000000000 ) ;
#118 = APPROVAL_PERSON_ORGANIZATION ( #290, #327, #292 ) ;
#119 = CARTESIAN_POINT ( 'NONE',  ( -154.8395502972293230, 0.000000000000000000, 0.000000000000000000 ) ) ;
#120 = CARTESIAN_POINT ( 'NONE',  ( -2.000000000000266009, 5.500000000000018652, 0.000000000000000000 ) ) ;
#121 = DIRECTION ( 'NONE',  ( -1.000000000000000000, -0.000000000000000000, -0.000000000000000000 ) ) ;
#122 = VECTOR ( 'NONE', #347, 1000.000000000000000 ) ;
#123 = DIRECTION ( 'NONE',  ( 0.000000000000000000, 0.000000000000000000, -1.000000000000000000 ) ) ;
#124 = LINE ( 'NONE', #209, #274 ) ;
#125 = EDGE_LOOP ( 'NONE', ( #351, #320, #291, #220 ) ) ;
#126 = DIRECTION ( 'NONE',  ( 0.000000000000000000, 0.000000000000000000, 1.000000000000000000 ) ) ;
#127 = EDGE_CURVE ( 'NONE', #244, #114, #34, .T. ) ;
#128 = APPROVAL ( #321, 'UNSPECIFIED' ) ;
#129 = AXIS2_PLACEMENT_3D ( 'NONE', #119, #251, #305 ) ;
#130 = LINE ( 'NONE', #189, #117 ) ;
#131 = FACE_OUTER_BOUND ( 'NONE', #19, .T. ) ;
#132 = CARTESIAN_POINT ( 'NONE',  ( 0.000000000000000000, 0.000000000000000000, 0.000000000000000000 ) ) ;
#133 = APPLICATION_CONTEXT ( 'configuration controlled 3d designs of mechanical parts and assemblies' ) ;
#134 = AXIS2_PLACEMENT_3D ( 'NONE', #235, #346, #104 ) ;
#135 = ORIENTED_EDGE ( 'NONE', *, *, #151, .T. ) ;
#136 = CC_DESIGN_APPROVAL ( #4, ( #154 ) ) ;
#137 = ORIENTED_EDGE ( 'NONE', *, *, #187, .F. ) ;
#138 = COORDINATED_UNIVERSAL_TIME_OFFSET ( 1, 0, .AHEAD. ) ;
#139 = ADVANCED_FACE ( 'NONE', ( #152 ), #9, .T. ) ;
#140 = ORIENTED_EDGE ( 'NONE', *, *, #227, .T. ) ;
#141 = CARTESIAN_POINT ( 'NONE',  ( -1.500000000000552003, 6.735557395310465689E-16, -5.500000000000018652 ) ) ;
#142 = AXIS2_PLACEMENT_3D ( 'NONE', #254, #73, #126 ) ;
#143 = PERSON_AND_ORGANIZATION_ROLE ( 'creator' ) ;
#144 = ORIENTED_EDGE ( 'NONE', *, *, #339, .T. ) ;
#145 = CARTESIAN_POINT ( 'NONE',  ( -154.8395502972293230, 5.510910596163116180E-16, -4.500000000000021316 ) ) ;
#146 = CARTESIAN_POINT ( 'NONE',  ( 7.000000000000616396, 4.898587196589439453E-16, -3.500000000000021316 ) ) ;
#147 = AXIS2_PLACEMENT_3D ( 'NONE', #283, #178, #282 ) ;
#148 = CARTESIAN_POINT ( 'NONE',  ( 0.000000000000000000, 0.000000000000000000, 0.000000000000000000 ) ) ;
#149 = EDGE_CURVE ( 'NONE', #89, #114, #58, .T. ) ;
#150 = DIRECTION ( 'NONE',  ( 0.000000000000000000, 0.000000000000000000, 1.000000000000000000 ) ) ;
#151 = EDGE_CURVE ( 'NONE', #197, #108, #207, .T. ) ;
#152 = FACE_OUTER_BOUND ( 'NONE', #30, .T. ) ;
#153 = AXIS2_PLACEMENT_3D ( 'NONE', #120, #172, #123 ) ;
#154 = PRODUCT_DEFINITION_FORMATION_WITH_SPECIFIED_SOURCE ( 'ANY', '', #76, .NOT_KNOWN. ) ;
#155 = CARTESIAN_POINT ( 'NONE',  ( 2.775557561562891351E-14, 7.347880794884142416E-16, -6.000000000000019540 ) ) ;
#156 = DIRECTION ( 'NONE',  ( 0.000000000000000000, 0.000000000000000000, 1.000000000000000000 ) ) ;
#157 = AXIS2_PLACEMENT_3D ( 'NONE', #180, #31, #62 ) ;
#158 = DIRECTION ( 'NONE',  ( -1.000000000000000000, -0.000000000000000000, -0.000000000000000000 ) ) ;
#159 = DIRECTION ( 'NONE',  ( 0.000000000000000000, 0.000000000000000000, 1.000000000000000000 ) ) ;
#160 = CALENDAR_DATE ( 2024, 23, 9 ) ;
#161 = ORIENTED_EDGE ( 'NONE', *, *, #236, .F. ) ;
#162 = DATE_TIME_ROLE ( 'classification_date' ) ;
#163 = AXIS2_PLACEMENT_3D ( 'NONE', #97, #248, #342 ) ;
#164 = ORIENTED_EDGE ( 'NONE', *, *, #33, .F. ) ;
#165 = EDGE_CURVE ( 'NONE', #326, #355, #306, .T. ) ;
#166 = PERSON_AND_ORGANIZATION_ROLE ( 'classification_officer' ) ;
#167 = ORIENTED_EDGE ( 'NONE', *, *, #33, .T. ) ;
#168 = APPROVAL_ROLE ( '' ) ;
#169 = VERTEX_POINT ( 'NONE', #319 ) ;
#170 = ORIENTED_EDGE ( 'NONE', *, *, #6, .T. ) ;
#171 = VECTOR ( 'NONE', #185, 1000.000000000000114 ) ;
#172 = DIRECTION ( 'NONE',  ( 1.000000000000000000, 0.000000000000000000, 0.000000000000000000 ) ) ;
#173 = CYLINDRICAL_SURFACE ( 'NONE', #303, 6.000000000000019540 ) ;
#174 = CARTESIAN_POINT ( 'NONE',  ( 6.000000000000616396, 0.000000000000000000, 0.000000000000000000 ) ) ;
#175 = AXIS2_PLACEMENT_3D ( 'NONE', #239, #311, #64 ) ;
#176 = CC_DESIGN_PERSON_AND_ORGANIZATION_ASSIGNMENT ( #83, #190, ( #76 ) ) ;
#177 = ADVANCED_FACE ( 'NONE', ( #43 ), #20, .T. ) ;
#178 = DIRECTION ( 'NONE',  ( -1.000000000000000000, -0.000000000000000000, -0.000000000000000000 ) ) ;
#179 = CC_DESIGN_DATE_AND_TIME_ASSIGNMENT ( #216, #162, ( #91 ) ) ;
#180 = CARTESIAN_POINT ( 'NONE',  ( -1.500000000000552003, 0.000000000000000000, 0.000000000000000000 ) ) ;
#181 = AXIS2_PLACEMENT_3D ( 'NONE', #289, #11, #46 ) ;
#182 = LOCAL_TIME ( 7, 56, 55.00000000000000000, #47 ) ;
#183 = DIRECTION ( 'NONE',  ( -1.000000000000000000, 0.000000000000000000, -0.000000000000000000 ) ) ;
#184 = DIRECTION ( 'NONE',  ( 0.000000000000000000, 0.000000000000000000, 1.000000000000000000 ) ) ;
#185 = DIRECTION ( 'NONE',  ( -0.7071067811865474617, 8.659560562354932858E-17, -0.7071067811865474617 ) ) ;
#186 = ORIENTED_EDGE ( 'NONE', *, *, #328, .F. ) ;
#187 = EDGE_CURVE ( 'NONE', #78, #89, #214, .T. ) ;
#188 = CIRCLE ( 'NONE', #356, 5.500000000000018652 ) ;
#189 = CARTESIAN_POINT ( 'NONE',  ( -154.8395502972293230, 7.347880794884142416E-16, -6.000000000000019540 ) ) ;
#190 = PERSON_AND_ORGANIZATION_ROLE ( 'design_owner' ) ;
#191 = ORIENTED_EDGE ( 'NONE', *, *, #237, .F. ) ;
#192 = SHAPE_DEFINITION_REPRESENTATION ( #225, #259 ) ;
#193 = CIRCLE ( 'NONE', #175, 6.000000000000020428 ) ;
#194 = ORIENTED_EDGE ( 'NONE', *, *, #85, .F. ) ;
#195 = LOCAL_TIME ( 7, 56, 55.00000000000000000, #55 ) ;
#196 = PERSON_AND_ORGANIZATION ( #94, #21 ) ;
#197 = VERTEX_POINT ( 'NONE', #155 ) ;
#198 = DATE_TIME_ROLE ( 'creation_date' ) ;
#199 = ORIENTED_EDGE ( 'NONE', *, *, #85, .T. ) ;
#200 = DIRECTION ( 'NONE',  ( 0.000000000000000000, 0.000000000000000000, 1.000000000000000000 ) ) ;
#201 = AXIS2_PLACEMENT_3D ( 'NONE', #93, #203, #247 ) ;
#202 = FACE_OUTER_BOUND ( 'NONE', #245, .T. ) ;
#203 = DIRECTION ( 'NONE',  ( -1.000000000000000000, -0.000000000000000000, -0.000000000000000000 ) ) ;
#204 = CC_DESIGN_DATE_AND_TIME_ASSIGNMENT ( #352, #198, ( #273 ) ) ;
#205 = EDGE_CURVE ( 'NONE', #355, #244, #12, .T. ) ;
#206 = CARTESIAN_POINT ( 'NONE',  ( -1.500000000000552003, 0.000000000000000000, 5.500000000000018652 ) ) ;
#207 = CIRCLE ( 'NONE', #201, 6.000000000000019540 ) ;
#208 = CARTESIAN_POINT ( 'NONE',  ( 7.000000000000616396, 0.000000000000000000, 3.500000000000021316 ) ) ;
#209 = CARTESIAN_POINT ( 'NONE',  ( -154.8395502972293230, 0.000000000000000000, 6.000000000000019540 ) ) ;
#210 = CIRCLE ( 'NONE', #51, 6.000000000000019540 ) ;
#211 = DIRECTION ( 'NONE',  ( -0.000000000000000000, 0.000000000000000000, 1.000000000000000000 ) ) ;
#212 = CARTESIAN_POINT ( 'NONE',  ( -1.500000000000556444, 0.000000000000000000, 6.000000000000020428 ) ) ;
#213 = EDGE_CURVE ( 'NONE', #108, #293, #124, .T. ) ;
#214 = LINE ( 'NONE', #344, #171 ) ;
#215 = AXIS2_PLACEMENT_3D ( 'NONE', #45, #183, #211 ) ;
#216 = DATE_AND_TIME ( #218, #350 ) ;
#217 = ORIENTED_EDGE ( 'NONE', *, *, #165, .T. ) ;
#218 = CALENDAR_DATE ( 2024, 23, 9 ) ;
#219 = ORIENTED_EDGE ( 'NONE', *, *, #35, .F. ) ;
#220 = ORIENTED_EDGE ( 'NONE', *, *, #165, .F. ) ;
#221 = DIRECTION ( 'NONE',  ( 0.000000000000000000, 0.000000000000000000, 1.000000000000000000 ) ) ;
#222 = EDGE_LOOP ( 'NONE', ( #23, #110, #357, #334 ) ) ;
#223 = CARTESIAN_POINT ( 'NONE',  ( 2.775557561562891351E-14, 0.000000000000000000, 6.000000000000019540 ) ) ;
#224 = AXIS2_PLACEMENT_3D ( 'NONE', #111, #221, #49 ) ;
#225 = PRODUCT_DEFINITION_SHAPE ( 'NONE', 'NONE',  #273 ) ;
#226 = CARTESIAN_POINT ( 'NONE',  ( 7.000000000000616396, 0.000000000000000000, 0.000000000000000000 ) ) ;
#227 = EDGE_CURVE ( 'NONE', #272, #81, #266, .T. ) ;
#228 = DIRECTION ( 'NONE',  ( -1.000000000000000000, -0.000000000000000000, -0.000000000000000000 ) ) ;
#229 = DIRECTION ( 'NONE',  ( 0.000000000000000000, 0.000000000000000000, 1.000000000000000000 ) ) ;
#230 = MANIFOLD_SOLID_BREP ( 'Rotation1', #234 ) ;
#231 = FACE_OUTER_BOUND ( 'NONE', #222, .T. ) ;
#232 = DIRECTION ( 'NONE',  ( -1.000000000000000000, -0.000000000000000000, -0.000000000000000000 ) ) ;
#233 = DIRECTION ( 'NONE',  ( -0.000000000000000000, 0.000000000000000000, 1.000000000000000000 ) ) ;
#234 = CLOSED_SHELL ( 'NONE', ( #70, #139, #258, #177, #246, #44, #60, #286, #86, #14, #16 ) ) ;
#235 = CARTESIAN_POINT ( 'NONE',  ( -2.000000000000556888, 0.000000000000000000, 0.000000000000000000 ) ) ;
#236 = EDGE_CURVE ( 'NONE', #197, #169, #130, .T. ) ;
#237 = EDGE_CURVE ( 'NONE', #89, #355, #8, .T. ) ;
#238 = FACE_OUTER_BOUND ( 'NONE', #318, .T. ) ;
#239 = CARTESIAN_POINT ( 'NONE',  ( -1.500000000000556444, 0.000000000000000000, 0.000000000000000000 ) ) ;
#240 = CIRCLE ( 'NONE', #260, 0.5000000000000004441 ) ;
#241 = SECURITY_CLASSIFICATION_LEVEL ( 'unclassified' ) ;
#242 = ORIENTED_EDGE ( 'NONE', *, *, #227, .F. ) ;
#243 = PERSON_AND_ORGANIZATION ( #94, #21 ) ;
#244 = VERTEX_POINT ( 'NONE', #287 ) ;
#245 = EDGE_LOOP ( 'NONE', ( #25, #170, #164, #219 ) ) ;
#246 = ADVANCED_FACE ( 'NONE', ( #131 ), #255, .F. ) ;
#247 = DIRECTION ( 'NONE',  ( 0.000000000000000000, 0.000000000000000000, 1.000000000000000000 ) ) ;
#248 = DIRECTION ( 'NONE',  ( -1.000000000000000000, -0.000000000000000000, -0.000000000000000000 ) ) ;
#249 = CIRCLE ( 'NONE', #100, 6.000000000000020428 ) ;
#250 = APPROVAL_PERSON_ORGANIZATION ( #80, #4, #168 ) ;
#251 = DIRECTION ( 'NONE',  ( -1.000000000000000000, -0.000000000000000000, -0.000000000000000000 ) ) ;
#252 = DIRECTION ( 'NONE',  ( 0.000000000000000000, 0.000000000000000000, 1.000000000000000000 ) ) ;
#253 = DIRECTION ( 'NONE',  ( 0.000000000000000000, 0.000000000000000000, 1.000000000000000000 ) ) ;
#254 = CARTESIAN_POINT ( 'NONE',  ( 7.000000000000616396, 0.000000000000000000, 0.000000000000000000 ) ) ;
#255 = PLANE ( 'NONE',  #308 ) ;
#256 = CC_DESIGN_PERSON_AND_ORGANIZATION_ASSIGNMENT ( #243, #22, ( #273 ) ) ;
#257 = DIRECTION ( 'NONE',  ( 0.000000000000000000, 0.000000000000000000, 1.000000000000000000 ) ) ;
#258 = ADVANCED_FACE ( 'NONE', ( #238 ), #101, .T. ) ;
#259 = ADVANCED_BREP_SHAPE_REPRESENTATION ( '3D_GR1382_DN12x1.5_18380288', ( #230, #224 ), #106 ) ;
#260 = AXIS2_PLACEMENT_3D ( 'NONE', #141, #302, #116 ) ;
#261 = DIRECTION ( 'NONE',  ( 0.000000000000000000, 0.000000000000000000, 1.000000000000000000 ) ) ;
#262 = ORIENTED_EDGE ( 'NONE', *, *, #35, .T. ) ;
#263 = FACE_OUTER_BOUND ( 'NONE', #84, .T. ) ;
#264 =( NAMED_UNIT ( * ) PLANE_ANGLE_UNIT ( ) SI_UNIT ( $, .RADIAN. ) );
#265 = ORIENTED_EDGE ( 'NONE', *, *, #127, .T. ) ;
#266 = CIRCLE ( 'NONE', #134, 5.500000000000018652 ) ;
#267 = LOCAL_TIME ( 7, 56, 55.00000000000000000, #138 ) ;
#268 = APPLICATION_PROTOCOL_DEFINITION ( 'international standard', 'config_control_design', 1994, #24 ) ;
#269 = ORIENTED_EDGE ( 'NONE', *, *, #309, .T. ) ;
#270 = EDGE_LOOP ( 'NONE', ( #161, #135, #50, #48 ) ) ;
#271 = APPROVAL_DATE_TIME ( #332, #327 ) ;
#272 = VERTEX_POINT ( 'NONE', #13 ) ;
#273 = PRODUCT_DEFINITION ( 'UNKNOWN', '', #154, #322 ) ;
#274 = VECTOR ( 'NONE', #232, 1000.000000000000000 ) ;
#275 = APPROVAL_DATE_TIME ( #109, #4 ) ;
#276 = AXIS2_PLACEMENT_3D ( 'NONE', #174, #32, #252 ) ;
#277 = ORIENTED_EDGE ( 'NONE', *, *, #151, .F. ) ;
#278 = CARTESIAN_POINT ( 'NONE',  ( -2.000000000000556888, 0.000000000000000000, 0.000000000000000000 ) ) ;
#279 = DIRECTION ( 'NONE',  ( -1.000000000000000000, -0.000000000000000000, -0.000000000000000000 ) ) ;
#280 = CARTESIAN_POINT ( 'NONE',  ( -154.8395502972293230, 0.000000000000000000, 0.000000000000000000 ) ) ;
#281 = AXIS2_PLACEMENT_3D ( 'NONE', #148, #121, #253 ) ;
#282 = DIRECTION ( 'NONE',  ( 0.000000000000000000, 0.000000000000000000, 1.000000000000000000 ) ) ;
#283 = CARTESIAN_POINT ( 'NONE',  ( 7.000000000000616396, 0.000000000000000000, 0.000000000000000000 ) ) ;
#284 = VECTOR ( 'NONE', #337, 1000.000000000000000 ) ;
#285 = DIRECTION ( 'NONE',  ( -1.000000000000000000, -0.000000000000000000, -0.000000000000000000 ) ) ;
#286 = ADVANCED_FACE ( 'NONE', ( #263, #103 ), #312, .F. ) ;
#287 = CARTESIAN_POINT ( 'NONE',  ( 0.000000000000000000, 0.000000000000000000, 4.500000000000019540 ) ) ;
#288 = DIRECTION ( 'NONE',  ( -1.000000000000000000, 0.000000000000000000, -0.000000000000000000 ) ) ;
#289 = CARTESIAN_POINT ( 'NONE',  ( 6.000000000000616396, 0.000000000000000000, 0.000000000000000000 ) ) ;
#290 = PERSON_AND_ORGANIZATION ( #94, #21 ) ;
#291 = ORIENTED_EDGE ( 'NONE', *, *, #102, .F. ) ;
#292 = APPROVAL_ROLE ( '' ) ;
#293 = VERTEX_POINT ( 'NONE', #212 ) ;
#294 = LOCAL_TIME ( 7, 56, 55.00000000000000000, #75 ) ;
#295 = CALENDAR_DATE ( 2024, 23, 9 ) ;
#296 = ORIENTED_EDGE ( 'NONE', *, *, #205, .F. ) ;
#297 = CC_DESIGN_PERSON_AND_ORGANIZATION_ASSIGNMENT ( #299, #166, ( #91 ) ) ;
#298 = EDGE_CURVE ( 'NONE', #326, #78, #65, .T. ) ;
#299 = PERSON_AND_ORGANIZATION ( #94, #21 ) ;
#300 = ORIENTED_EDGE ( 'NONE', *, *, #298, .F. ) ;
#301 = APPROVAL_STATUS ( 'not_yet_approved' ) ;
#302 = DIRECTION ( 'NONE',  ( -0.000000000000000000, 1.000000000000000000, 1.224646799147353207E-16 ) ) ;
#303 = AXIS2_PLACEMENT_3D ( 'NONE', #5, #279, #150 ) ;
#304 = APPROVAL_PERSON_ORGANIZATION ( #53, #128, #26 ) ;
#305 = DIRECTION ( 'NONE',  ( 0.000000000000000000, 0.000000000000000000, 1.000000000000000000 ) ) ;
#306 = LINE ( 'NONE', #1, #90 ) ;
#307 = DIRECTION ( 'NONE',  ( 0.000000000000000000, 0.000000000000000000, 1.000000000000000000 ) ) ;
#308 = AXIS2_PLACEMENT_3D ( 'NONE', #343, #288, #233 ) ;
#309 = EDGE_CURVE ( 'NONE', #108, #197, #210, .T. ) ;
#310 = FACE_OUTER_BOUND ( 'NONE', #115, .T. ) ;
#311 = DIRECTION ( 'NONE',  ( -1.000000000000000000, -0.000000000000000000, -0.000000000000000000 ) ) ;
#312 = PLANE ( 'NONE',  #215 ) ;
#313 = AXIS2_PLACEMENT_3D ( 'NONE', #316, #285, #184 ) ;
#314 = CC_DESIGN_SECURITY_CLASSIFICATION ( #91, ( #154 ) ) ;
#315 = PRODUCT_RELATED_PRODUCT_CATEGORY ( 'detail', '', ( #76 ) ) ;
#316 = CARTESIAN_POINT ( 'NONE',  ( 7.000000000000616396, 0.000000000000000000, 0.000000000000000000 ) ) ;
#317 = CARTESIAN_POINT ( 'NONE',  ( 6.000000000000616396, 0.000000000000000000, 4.500000000000022204 ) ) ;
#318 = EDGE_LOOP ( 'NONE', ( #54, #27, #72, #296 ) ) ;
#319 = CARTESIAN_POINT ( 'NONE',  ( -1.500000000000556444, 7.347880794884144388E-16, -6.000000000000021316 ) ) ;
#320 = ORIENTED_EDGE ( 'NONE', *, *, #187, .T. ) ;
#321 = APPROVAL_STATUS ( 'not_yet_approved' ) ;
#322 = DESIGN_CONTEXT ( 'detailed design', #24, 'design' ) ;
#323 = CALENDAR_DATE ( 2024, 23, 9 ) ;
#324 = ORIENTED_EDGE ( 'NONE', *, *, #213, .F. ) ;
#325 = CALENDAR_DATE ( 2024, 23, 9 ) ;
#326 = VERTEX_POINT ( 'NONE', #208 ) ;
#327 = APPROVAL ( #330, 'UNSPECIFIED' ) ;
#328 = EDGE_CURVE ( 'NONE', #293, #169, #249, .T. ) ;
#329 = AXIS2_PLACEMENT_3D ( 'NONE', #132, #68, #257 ) ;
#330 = APPROVAL_STATUS ( 'not_yet_approved' ) ;
#331 = EDGE_LOOP ( 'NONE', ( #137, #199, #217, #191 ) ) ;
#332 = DATE_AND_TIME ( #295, #267 ) ;
#333 = ORIENTED_EDGE ( 'NONE', *, *, #340, .T. ) ;
#334 = ORIENTED_EDGE ( 'NONE', *, *, #339, .F. ) ;
#335 = AXIS2_PLACEMENT_3D ( 'NONE', #206, #95, #63 ) ;
#336 = PLANE ( 'NONE',  #153 ) ;
#337 = DIRECTION ( 'NONE',  ( -1.000000000000000000, -0.000000000000000000, -0.000000000000000000 ) ) ;
#338 = DIRECTION ( 'NONE',  ( -1.000000000000000000, -0.000000000000000000, -0.000000000000000000 ) ) ;
#339 = EDGE_CURVE ( 'NONE', #114, #244, #345, .T. ) ;
#340 = EDGE_CURVE ( 'NONE', #169, #293, #193, .T. ) ;
#341 = FACE_OUTER_BOUND ( 'NONE', #331, .T. ) ;
#342 = DIRECTION ( 'NONE',  ( 0.000000000000000000, 0.000000000000000000, 1.000000000000000000 ) ) ;
#343 = CARTESIAN_POINT ( 'NONE',  ( 7.000000000000309086, 0.000000000000000000, 0.000000000000000000 ) ) ;
#344 = CARTESIAN_POINT ( 'NONE',  ( 7.000000000000616396, 4.286263797015762233E-16, -3.500000000000021316 ) ) ;
#345 = CIRCLE ( 'NONE', #329, 4.500000000000019540 ) ;
#346 = DIRECTION ( 'NONE',  ( -1.000000000000000000, -0.000000000000000000, -0.000000000000000000 ) ) ;
#347 = DIRECTION ( 'NONE',  ( -1.000000000000000000, -0.000000000000000000, -0.000000000000000000 ) ) ;
#348 = PERSON_AND_ORGANIZATION_ROLE ( 'design_supplier' ) ;
#349 = CONICAL_SURFACE ( 'NONE', #28, 3.500000000000021316, 0.7853981633974482790 ) ;
#350 = LOCAL_TIME ( 7, 56, 55.00000000000000000, #105 ) ;
#351 = ORIENTED_EDGE ( 'NONE', *, *, #298, .T. ) ;
#352 = DATE_AND_TIME ( #160, #182 ) ;
#353 = EDGE_LOOP ( 'NONE', ( #265, #144 ) ) ;
#354 =( NAMED_UNIT ( * ) SI_UNIT ( $, .STERADIAN. ) SOLID_ANGLE_UNIT ( ) );
#355 = VERTEX_POINT ( 'NONE', #317 ) ;
#356 = AXIS2_PLACEMENT_3D ( 'NONE', #278, #37, #229 ) ;
#357 = ORIENTED_EDGE ( 'NONE', *, *, #205, .T. ) ;
ENDSEC;
END-ISO-10303-21;
