ISO-10303-21;
HEADER;
FILE_DESCRIPTION (( 'STEP AP203' ),
    '1' );
FILE_NAME ('3D_M-7012G_DN50_174731040.STEP',
    '2024-10-04T13:20:39',
    ( '' ),
    ( '' ),
    'SwSTEP 2.0',
    'SolidWorks 2024',
    '' );
FILE_SCHEMA (( 'CONFIG_CONTROL_DESIGN' ));
ENDSEC;

DATA;
#1 = FACE_OUTER_BOUND ( 'NONE', #189, .T. ) ;
#2 = DIRECTION ( 'NONE',  ( 0.000000000000000000, 0.000000000000000000, 1.000000000000000000 ) ) ;
#3 = CC_DESIGN_PERSON_AND_ORGANIZATION_ASSIGNMENT ( #184, #35, ( #59 ) ) ;
#4 = CIRCLE ( 'NONE', #27, 30.00000000000000000 ) ;
#5 = DIRECTION ( 'NONE',  ( 0.000000000000000000, 1.000000000000000000, 0.000000000000000000 ) ) ;
#6 = AXIS2_PLACEMENT_3D ( 'NONE', #146, #44, #88 ) ;
#7 = FACE_OUTER_BOUND ( 'NONE', #148, .T. ) ;
#8 = LOCAL_TIME ( 15, 20, 38.00000000000000000, #225 ) ;
#9 = DIRECTION ( 'NONE',  ( 0.000000000000000000, 1.000000000000000000, 0.000000000000000000 ) ) ;
#10 = CARTESIAN_POINT ( 'NONE',  ( 0.000000000000000000, 85.00000000000000000, 0.000000000000000000 ) ) ;
#11 = EDGE_CURVE ( 'NONE', #54, #38, #86, .T. ) ;
#12 = PERSON_AND_ORGANIZATION ( #242, #157 ) ;
#13 = APPLICATION_PROTOCOL_DEFINITION ( 'international standard', 'config_control_design', 1994, #16 ) ;
#14 = AXIS2_PLACEMENT_3D ( 'NONE', #37, #158, #237 ) ;
#15 = APPROVAL_DATE_TIME ( #32, #29 ) ;
#16 = APPLICATION_CONTEXT ( 'configuration controlled 3d designs of mechanical parts and assemblies' ) ;
#17 = PERSON_AND_ORGANIZATION ( #242, #157 ) ;
#18 = ORIENTED_EDGE ( 'NONE', *, *, #248, .F. ) ;
#19 = EDGE_CURVE ( 'NONE', #151, #216, #234, .T. ) ;
#20 = ORIENTED_EDGE ( 'NONE', *, *, #150, .F. ) ;
#21 = ORIENTED_EDGE ( 'NONE', *, *, #198, .F. ) ;
#22 = ORIENTED_EDGE ( 'NONE', *, *, #19, .F. ) ;
#23 = DIRECTION ( 'NONE',  ( -0.000000000000000000, -1.000000000000000000, -0.000000000000000000 ) ) ;
#24 = VERTEX_POINT ( 'NONE', #170 ) ;
#25 = DIRECTION ( 'NONE',  ( 0.000000000000000000, -0.000000000000000000, 1.000000000000000000 ) ) ;
#26 = LINE ( 'NONE', #163, #33 ) ;
#27 = AXIS2_PLACEMENT_3D ( 'NONE', #238, #202, #137 ) ;
#28 = AXIS2_PLACEMENT_3D ( 'NONE', #197, #91, #2 ) ;
#29 = APPROVAL ( #87, 'UNSPECIFIED' ) ;
#30 =( NAMED_UNIT ( * ) SI_UNIT ( $, .STERADIAN. ) SOLID_ANGLE_UNIT ( ) );
#31 = CARTESIAN_POINT ( 'NONE',  ( 0.000000000000000000, 85.00000000000000000, -30.00000000000000000 ) ) ;
#32 = DATE_AND_TIME ( #169, #69 ) ;
#33 = VECTOR ( 'NONE', #124, 1000.000000000000000 ) ;
#34 = ORIENTED_EDGE ( 'NONE', *, *, #79, .F. ) ;
#35 = PERSON_AND_ORGANIZATION_ROLE ( 'classification_officer' ) ;
#36 = CC_DESIGN_APPROVAL ( #227, ( #126 ) ) ;
#37 = CARTESIAN_POINT ( 'NONE',  ( 0.000000000000000000, 85.00000000000000000, 0.000000000000000000 ) ) ;
#38 = VERTEX_POINT ( 'NONE', #70 ) ;
#39 = ADVANCED_FACE ( 'NONE', ( #114 ), #113, .F. ) ;
#40 = ORIENTED_EDGE ( 'NONE', *, *, #96, .T. ) ;
#41 = PLANE ( 'NONE',  #222 ) ;
#42 = ORIENTED_EDGE ( 'NONE', *, *, #179, .T. ) ;
#43 = LOCAL_TIME ( 15, 20, 38.00000000000000000, #166 ) ;
#44 = DIRECTION ( 'NONE',  ( 0.000000000000000000, 1.000000000000000000, 0.000000000000000000 ) ) ;
#45 = ADVANCED_FACE ( 'NONE', ( #7 ), #214, .T. ) ;
#46 = EDGE_CURVE ( 'NONE', #97, #131, #154, .T. ) ;
#47 = AXIS2_PLACEMENT_3D ( 'NONE', #73, #116, #25 ) ;
#48 = DIRECTION ( 'NONE',  ( -0.000000000000000000, -1.000000000000000000, -0.000000000000000000 ) ) ;
#49 = CARTESIAN_POINT ( 'NONE',  ( 0.000000000000000000, 85.00000000000000000, 0.000000000000000000 ) ) ;
#50 = CALENDAR_DATE ( 2024, 4, 10 ) ;
#51 = EDGE_LOOP ( 'NONE', ( #196, #94, #210, #232 ) ) ;
#52 = APPROVAL_DATE_TIME ( #71, #133 ) ;
#53 = DIRECTION ( 'NONE',  ( -0.000000000000000000, -1.000000000000000000, -0.000000000000000000 ) ) ;
#54 = VERTEX_POINT ( 'NONE', #57 ) ;
#55 = MANIFOLD_SOLID_BREP ( 'Aufsatz-Linear austragen1', #74 ) ;
#56 = DIRECTION ( 'NONE',  ( -0.000000000000000000, -1.000000000000000000, -0.000000000000000000 ) ) ;
#57 = CARTESIAN_POINT ( 'NONE',  ( 0.000000000000000000, 0.000000000000000000, -30.00000000000000000 ) ) ;
#58 = CYLINDRICAL_SURFACE ( 'NONE', #14, 30.00000000000000000 ) ;
#59 = SECURITY_CLASSIFICATION ( '', '', #207 ) ;
#60 = FACE_OUTER_BOUND ( 'NONE', #149, .T. ) ;
#61 = FACE_OUTER_BOUND ( 'NONE', #51, .T. ) ;
#62 = DIRECTION ( 'NONE',  ( 0.000000000000000000, 1.000000000000000000, 0.000000000000000000 ) ) ;
#63 = AXIS2_PLACEMENT_3D ( 'NONE', #49, #48, #223 ) ;
#64 = AXIS2_PLACEMENT_3D ( 'NONE', #174, #72, #153 ) ;
#65 = DIRECTION ( 'NONE',  ( 0.000000000000000000, 0.000000000000000000, 1.000000000000000000 ) ) ;
#66 = PERSON_AND_ORGANIZATION ( #242, #157 ) ;
#67 = AXIS2_PLACEMENT_3D ( 'NONE', #10, #62, #65 ) ;
#68 = PERSON_AND_ORGANIZATION_ROLE ( 'creator' ) ;
#69 = LOCAL_TIME ( 15, 20, 38.00000000000000000, #246 ) ;
#70 = CARTESIAN_POINT ( 'NONE',  ( 3.673940397442059178E-15, 0.000000000000000000, 30.00000000000000000 ) ) ;
#71 = DATE_AND_TIME ( #209, #194 ) ;
#72 = DIRECTION ( 'NONE',  ( 0.000000000000000000, 1.000000000000000000, 0.000000000000000000 ) ) ;
#73 = CARTESIAN_POINT ( 'NONE',  ( 0.000000000000000000, 85.00000000000000000, 0.000000000000000000 ) ) ;
#74 = CLOSED_SHELL ( 'NONE', ( #39, #144, #83, #129, #45, #245 ) ) ;
#75 = ORIENTED_EDGE ( 'NONE', *, *, #104, .F. ) ;
#76 = LINE ( 'NONE', #172, #185 ) ;
#77 = LOCAL_TIME ( 15, 20, 38.00000000000000000, #82 ) ;
#78 = DESIGN_CONTEXT ( 'detailed design', #16, 'design' ) ;
#79 = EDGE_CURVE ( 'NONE', #24, #233, #127, .T. ) ;
#80 = CYLINDRICAL_SURFACE ( 'NONE', #63, 25.00000000000000000 ) ;
#81 = APPROVAL_PERSON_ORGANIZATION ( #17, #29, #106 ) ;
#82 = COORDINATED_UNIVERSAL_TIME_OFFSET ( 1, 0, .AHEAD. ) ;
#83 = ADVANCED_FACE ( 'NONE', ( #1, #99 ), #190, .T. ) ;
#84 = DATE_AND_TIME ( #162, #77 ) ;
#85 = CC_DESIGN_PERSON_AND_ORGANIZATION_ASSIGNMENT ( #142, #68, ( #224 ) ) ;
#86 = CIRCLE ( 'NONE', #64, 30.00000000000000000 ) ;
#87 = APPROVAL_STATUS ( 'not_yet_approved' ) ;
#88 = DIRECTION ( 'NONE',  ( 0.000000000000000000, 0.000000000000000000, 1.000000000000000000 ) ) ;
#89 = PERSON_AND_ORGANIZATION ( #242, #157 ) ;
#90 = ORIENTED_EDGE ( 'NONE', *, *, #218, .F. ) ;
#91 = DIRECTION ( 'NONE',  ( 0.000000000000000000, 1.000000000000000000, 0.000000000000000000 ) ) ;
#92 = EDGE_LOOP ( 'NONE', ( #228, #40, #22, #75 ) ) ;
#93 = PRODUCT ( '3D_M-7012G_DN50_174731040', '3D_M-7012G_DN50_174731040', '', ( #182 ) ) ;
#94 = ORIENTED_EDGE ( 'NONE', *, *, #248, .T. ) ;
#95 = DIRECTION ( 'NONE',  ( 0.000000000000000000, 0.000000000000000000, 1.000000000000000000 ) ) ;
#96 = EDGE_CURVE ( 'NONE', #131, #216, #76, .T. ) ;
#97 = VERTEX_POINT ( 'NONE', #136 ) ;
#98 = AXIS2_PLACEMENT_3D ( 'NONE', #217, #119, #95 ) ;
#99 = FACE_BOUND ( 'NONE', #211, .T. ) ;
#100 = CARTESIAN_POINT ( 'NONE',  ( 3.673940397442059178E-15, 85.00000000000000000, 30.00000000000000000 ) ) ;
#101 = AXIS2_PLACEMENT_3D ( 'NONE', #200, #9, #178 ) ;
#102 = CARTESIAN_POINT ( 'NONE',  ( 3.061616997868383043E-15, 0.000000000000000000, 25.00000000000000000 ) ) ;
#103 = CC_DESIGN_APPROVAL ( #29, ( #59 ) ) ;
#104 = EDGE_CURVE ( 'NONE', #97, #151, #134, .T. ) ;
#105 = LINE ( 'NONE', #100, #108 ) ;
#106 = APPROVAL_ROLE ( '' ) ;
#107 = CC_DESIGN_PERSON_AND_ORGANIZATION_ASSIGNMENT ( #66, #141, ( #126 ) ) ;
#108 = VECTOR ( 'NONE', #159, 1000.000000000000000 ) ;
#109 = ORIENTED_EDGE ( 'NONE', *, *, #11, .F. ) ;
#110 = CALENDAR_DATE ( 2024, 4, 10 ) ;
#111 = AXIS2_PLACEMENT_3D ( 'NONE', #239, #122, #201 ) ;
#112 = EDGE_LOOP ( 'NONE', ( #109, #20 ) ) ;
#113 = CYLINDRICAL_SURFACE ( 'NONE', #121, 25.00000000000000000 ) ;
#114 = FACE_OUTER_BOUND ( 'NONE', #92, .T. ) ;
#115 = PRODUCT_DEFINITION_SHAPE ( 'NONE', 'NONE',  #126 ) ;
#116 = DIRECTION ( 'NONE',  ( 0.000000000000000000, 1.000000000000000000, 0.000000000000000000 ) ) ;
#117 = CC_DESIGN_DATE_AND_TIME_ASSIGNMENT ( #186, #187, ( #59 ) ) ;
#118 = ORIENTED_EDGE ( 'NONE', *, *, #177, .F. ) ;
#119 = DIRECTION ( 'NONE',  ( 0.000000000000000000, 1.000000000000000000, 0.000000000000000000 ) ) ;
#120 = CARTESIAN_POINT ( 'NONE',  ( 0.000000000000000000, 0.000000000000000000, -25.00000000000000000 ) ) ;
#121 = AXIS2_PLACEMENT_3D ( 'NONE', #231, #56, #213 ) ;
#122 = DIRECTION ( 'NONE',  ( 0.000000000000000000, 0.000000000000000000, 1.000000000000000000 ) ) ;
#123 = APPLICATION_PROTOCOL_DEFINITION ( 'international standard', 'config_control_design', 1994, #168 ) ;
#124 = DIRECTION ( 'NONE',  ( -0.000000000000000000, -1.000000000000000000, -0.000000000000000000 ) ) ;
#125 = DATE_AND_TIME ( #50, #8 ) ;
#126 = PRODUCT_DEFINITION ( 'UNKNOWN', '', #224, #78 ) ;
#127 = CIRCLE ( 'NONE', #28, 30.00000000000000000 ) ;
#128 = ORIENTED_EDGE ( 'NONE', *, *, #218, .T. ) ;
#129 = ADVANCED_FACE ( 'NONE', ( #215, #193 ), #41, .F. ) ;
#130 = EDGE_LOOP ( 'NONE', ( #176, #42 ) ) ;
#131 = VERTEX_POINT ( 'NONE', #236 ) ;
#132 = DIRECTION ( 'NONE',  ( -0.000000000000000000, -1.000000000000000000, -0.000000000000000000 ) ) ;
#133 = APPROVAL ( #229, 'UNSPECIFIED' ) ;
#134 = LINE ( 'NONE', #175, #139 ) ;
#135 = ORIENTED_EDGE ( 'NONE', *, *, #46, .F. ) ;
#136 = CARTESIAN_POINT ( 'NONE',  ( 0.000000000000000000, 85.00000000000000000, -25.00000000000000000 ) ) ;
#137 = DIRECTION ( 'NONE',  ( 0.000000000000000000, 0.000000000000000000, 1.000000000000000000 ) ) ;
#138 = AXIS2_PLACEMENT_3D ( 'NONE', #140, #240, #221 ) ;
#139 = VECTOR ( 'NONE', #132, 1000.000000000000000 ) ;
#140 = CARTESIAN_POINT ( 'NONE',  ( 0.000000000000000000, 0.000000000000000000, 0.000000000000000000 ) ) ;
#141 = PERSON_AND_ORGANIZATION_ROLE ( 'creator' ) ;
#142 = PERSON_AND_ORGANIZATION ( #242, #157 ) ;
#143 = PERSON_AND_ORGANIZATION_ROLE ( 'design_supplier' ) ;
#144 = ADVANCED_FACE ( 'NONE', ( #60 ), #58, .T. ) ;
#145 = ADVANCED_BREP_SHAPE_REPRESENTATION ( '3D_M-7012G_DN50_174731040', ( #55, #111 ), #243 ) ;
#146 = CARTESIAN_POINT ( 'NONE',  ( 0.000000000000000000, 0.000000000000000000, 0.000000000000000000 ) ) ;
#147 = PERSON_AND_ORGANIZATION ( #242, #157 ) ;
#148 = EDGE_LOOP ( 'NONE', ( #21, #90, #247, #171 ) ) ;
#149 = EDGE_LOOP ( 'NONE', ( #34, #191, #212, #118 ) ) ;
#150 = EDGE_CURVE ( 'NONE', #38, #54, #199, .T. ) ;
#151 = VERTEX_POINT ( 'NONE', #120 ) ;
#152 = CIRCLE ( 'NONE', #67, 25.00000000000000000 ) ;
#153 = DIRECTION ( 'NONE',  ( 0.000000000000000000, 0.000000000000000000, 1.000000000000000000 ) ) ;
#154 = CIRCLE ( 'NONE', #98, 25.00000000000000000 ) ;
#155 = DIRECTION ( 'NONE',  ( 0.000000000000000000, -0.000000000000000000, 1.000000000000000000 ) ) ;
#156 = UNCERTAINTY_MEASURE_WITH_UNIT (LENGTH_MEASURE( 1.000000000000000082E-05 ), #219, 'distance_accuracy_value', 'NONE');
#157 = ORGANIZATION ( 'UNSPECIFIED', 'UNSPECIFIED', '' ) ;
#158 = DIRECTION ( 'NONE',  ( -0.000000000000000000, -1.000000000000000000, -0.000000000000000000 ) ) ;
#159 = DIRECTION ( 'NONE',  ( -0.000000000000000000, -1.000000000000000000, -0.000000000000000000 ) ) ;
#160 = PERSON_AND_ORGANIZATION_ROLE ( 'design_owner' ) ;
#161 = CC_DESIGN_PERSON_AND_ORGANIZATION_ASSIGNMENT ( #147, #143, ( #224 ) ) ;
#162 = CALENDAR_DATE ( 2024, 4, 10 ) ;
#163 = CARTESIAN_POINT ( 'NONE',  ( 0.000000000000000000, 85.00000000000000000, -30.00000000000000000 ) ) ;
#164 = APPROVAL_STATUS ( 'not_yet_approved' ) ;
#165 = CC_DESIGN_SECURITY_CLASSIFICATION ( #59, ( #224 ) ) ;
#166 = COORDINATED_UNIVERSAL_TIME_OFFSET ( 1, 0, .AHEAD. ) ;
#167 = CC_DESIGN_PERSON_AND_ORGANIZATION_ASSIGNMENT ( #12, #160, ( #93 ) ) ;
#168 = APPLICATION_CONTEXT ( 'configuration controlled 3d designs of mechanical parts and assemblies' ) ;
#169 = CALENDAR_DATE ( 2024, 4, 10 ) ;
#170 = CARTESIAN_POINT ( 'NONE',  ( 3.673940397442059178E-15, 85.00000000000000000, 30.00000000000000000 ) ) ;
#171 = ORIENTED_EDGE ( 'NONE', *, *, #11, .T. ) ;
#172 = CARTESIAN_POINT ( 'NONE',  ( 3.061616997868383043E-15, 85.00000000000000000, 25.00000000000000000 ) ) ;
#173 = CC_DESIGN_DATE_AND_TIME_ASSIGNMENT ( #125, #206, ( #126 ) ) ;
#174 = CARTESIAN_POINT ( 'NONE',  ( 0.000000000000000000, 0.000000000000000000, 0.000000000000000000 ) ) ;
#175 = CARTESIAN_POINT ( 'NONE',  ( 0.000000000000000000, 85.00000000000000000, -25.00000000000000000 ) ) ;
#176 = ORIENTED_EDGE ( 'NONE', *, *, #19, .T. ) ;
#177 = EDGE_CURVE ( 'NONE', #233, #54, #26, .T. ) ;
#178 = DIRECTION ( 'NONE',  ( 0.000000000000000000, 0.000000000000000000, 1.000000000000000000 ) ) ;
#179 = EDGE_CURVE ( 'NONE', #216, #151, #220, .T. ) ;
#180 = PERSON_AND_ORGANIZATION ( #242, #157 ) ;
#181 = APPROVAL_PERSON_ORGANIZATION ( #89, #133, #226 ) ;
#182 = MECHANICAL_CONTEXT ( 'NONE', #168, 'mechanical' ) ;
#183 =( NAMED_UNIT ( * ) PLANE_ANGLE_UNIT ( ) SI_UNIT ( $, .RADIAN. ) );
#184 = PERSON_AND_ORGANIZATION ( #242, #157 ) ;
#185 = VECTOR ( 'NONE', #23, 1000.000000000000000 ) ;
#186 = DATE_AND_TIME ( #110, #43 ) ;
#187 = DATE_TIME_ROLE ( 'classification_date' ) ;
#188 = APPROVAL_PERSON_ORGANIZATION ( #180, #227, #204 ) ;
#189 = EDGE_LOOP ( 'NONE', ( #128, #249 ) ) ;
#190 = PLANE ( 'NONE',  #47 ) ;
#191 = ORIENTED_EDGE ( 'NONE', *, *, #198, .T. ) ;
#192 = DIRECTION ( 'NONE',  ( 0.000000000000000000, 0.000000000000000000, -1.000000000000000000 ) ) ;
#193 = FACE_BOUND ( 'NONE', #130, .T. ) ;
#194 = LOCAL_TIME ( 15, 20, 38.00000000000000000, #205 ) ;
#195 = CARTESIAN_POINT ( 'NONE',  ( 0.000000000000000000, 0.000000000000000000, 0.000000000000000000 ) ) ;
#196 = ORIENTED_EDGE ( 'NONE', *, *, #96, .F. ) ;
#197 = CARTESIAN_POINT ( 'NONE',  ( 0.000000000000000000, 85.00000000000000000, 0.000000000000000000 ) ) ;
#198 = EDGE_CURVE ( 'NONE', #24, #38, #105, .T. ) ;
#199 = CIRCLE ( 'NONE', #138, 30.00000000000000000 ) ;
#200 = CARTESIAN_POINT ( 'NONE',  ( 0.000000000000000000, 0.000000000000000000, 0.000000000000000000 ) ) ;
#201 = DIRECTION ( 'NONE',  ( 1.000000000000000000, 0.000000000000000000, 0.000000000000000000 ) ) ;
#202 = DIRECTION ( 'NONE',  ( 0.000000000000000000, 1.000000000000000000, 0.000000000000000000 ) ) ;
#203 = CC_DESIGN_APPROVAL ( #133, ( #224 ) ) ;
#204 = APPROVAL_ROLE ( '' ) ;
#205 = COORDINATED_UNIVERSAL_TIME_OFFSET ( 1, 0, .AHEAD. ) ;
#206 = DATE_TIME_ROLE ( 'creation_date' ) ;
#207 = SECURITY_CLASSIFICATION_LEVEL ( 'unclassified' ) ;
#208 = AXIS2_PLACEMENT_3D ( 'NONE', #230, #53, #192 ) ;
#209 = CALENDAR_DATE ( 2024, 4, 10 ) ;
#210 = ORIENTED_EDGE ( 'NONE', *, *, #104, .T. ) ;
#211 = EDGE_LOOP ( 'NONE', ( #135, #18 ) ) ;
#212 = ORIENTED_EDGE ( 'NONE', *, *, #150, .T. ) ;
#213 = DIRECTION ( 'NONE',  ( 0.000000000000000000, 0.000000000000000000, -1.000000000000000000 ) ) ;
#214 = CYLINDRICAL_SURFACE ( 'NONE', #208, 30.00000000000000000 ) ;
#215 = FACE_OUTER_BOUND ( 'NONE', #112, .T. ) ;
#216 = VERTEX_POINT ( 'NONE', #102 ) ;
#217 = CARTESIAN_POINT ( 'NONE',  ( 0.000000000000000000, 85.00000000000000000, 0.000000000000000000 ) ) ;
#218 = EDGE_CURVE ( 'NONE', #233, #24, #4, .T. ) ;
#219 =( LENGTH_UNIT ( ) NAMED_UNIT ( * ) SI_UNIT ( .MILLI., .METRE. ) );
#220 = CIRCLE ( 'NONE', #101, 25.00000000000000000 ) ;
#221 = DIRECTION ( 'NONE',  ( 0.000000000000000000, 0.000000000000000000, 1.000000000000000000 ) ) ;
#222 = AXIS2_PLACEMENT_3D ( 'NONE', #195, #5, #155 ) ;
#223 = DIRECTION ( 'NONE',  ( 0.000000000000000000, 0.000000000000000000, -1.000000000000000000 ) ) ;
#224 = PRODUCT_DEFINITION_FORMATION_WITH_SPECIFIED_SOURCE ( 'ANY', '', #93, .NOT_KNOWN. ) ;
#225 = COORDINATED_UNIVERSAL_TIME_OFFSET ( 1, 0, .AHEAD. ) ;
#226 = APPROVAL_ROLE ( '' ) ;
#227 = APPROVAL ( #164, 'UNSPECIFIED' ) ;
#228 = ORIENTED_EDGE ( 'NONE', *, *, #46, .T. ) ;
#229 = APPROVAL_STATUS ( 'not_yet_approved' ) ;
#230 = CARTESIAN_POINT ( 'NONE',  ( 0.000000000000000000, 85.00000000000000000, 0.000000000000000000 ) ) ;
#231 = CARTESIAN_POINT ( 'NONE',  ( 0.000000000000000000, 85.00000000000000000, 0.000000000000000000 ) ) ;
#232 = ORIENTED_EDGE ( 'NONE', *, *, #179, .F. ) ;
#233 = VERTEX_POINT ( 'NONE', #31 ) ;
#234 = CIRCLE ( 'NONE', #6, 25.00000000000000000 ) ;
#235 = PRODUCT_RELATED_PRODUCT_CATEGORY ( 'detail', '', ( #93 ) ) ;
#236 = CARTESIAN_POINT ( 'NONE',  ( 3.061616997868383043E-15, 85.00000000000000000, 25.00000000000000000 ) ) ;
#237 = DIRECTION ( 'NONE',  ( 0.000000000000000000, 0.000000000000000000, -1.000000000000000000 ) ) ;
#238 = CARTESIAN_POINT ( 'NONE',  ( 0.000000000000000000, 85.00000000000000000, 0.000000000000000000 ) ) ;
#239 = CARTESIAN_POINT ( 'NONE',  ( 0.000000000000000000, 0.000000000000000000, 0.000000000000000000 ) ) ;
#240 = DIRECTION ( 'NONE',  ( 0.000000000000000000, 1.000000000000000000, 0.000000000000000000 ) ) ;
#241 = APPROVAL_DATE_TIME ( #84, #227 ) ;
#242 = PERSON ( 'UNSPECIFIED', 'UNSPECIFIED', 'UNSPECIFIED', ('UNSPECIFIED'), ('UNSPECIFIED'), ('UNSPECIFIED') ) ;
#243 =( GEOMETRIC_REPRESENTATION_CONTEXT ( 3 ) GLOBAL_UNCERTAINTY_ASSIGNED_CONTEXT ( ( #156 ) ) GLOBAL_UNIT_ASSIGNED_CONTEXT ( ( #219, #183, #30 ) ) REPRESENTATION_CONTEXT ( 'NONE', 'WORKASPACE' ) );
#244 = SHAPE_DEFINITION_REPRESENTATION ( #115, #145 ) ;
#245 = ADVANCED_FACE ( 'NONE', ( #61 ), #80, .F. ) ;
#246 = COORDINATED_UNIVERSAL_TIME_OFFSET ( 1, 0, .AHEAD. ) ;
#247 = ORIENTED_EDGE ( 'NONE', *, *, #177, .T. ) ;
#248 = EDGE_CURVE ( 'NONE', #131, #97, #152, .T. ) ;
#249 = ORIENTED_EDGE ( 'NONE', *, *, #79, .T. ) ;
ENDSEC;
END-ISO-10303-21;
