ISO-10303-21;
HEADER;
FILE_DESCRIPTION (( 'STEP AP203' ),
    '1' );
FILE_NAME ('3D_R1620_88.x2_173630150_173631140.STEP',
    '2024-08-27T11:09:19',
    ( '' ),
    ( '' ),
    'SwSTEP 2.0',
    'SolidWorks 2024',
    '' );
FILE_SCHEMA (( 'CONFIG_CONTROL_DESIGN' ));
ENDSEC;

DATA;
#1 = PERSON_AND_ORGANIZATION ( #233, #232 ) ;
#2 = UNCERTAINTY_MEASURE_WITH_UNIT (LENGTH_MEASURE( 1.000000000000000082E-05 ), #102, 'distance_accuracy_value', 'NONE');
#3 = DIRECTION ( 'NONE',  ( -7.099011413719282643E-17, 0.000000000000000000, 1.000000000000000000 ) ) ;
#4 = COORDINATED_UNIVERSAL_TIME_OFFSET ( 1, 0, .AHEAD. ) ;
#5 = APPROVAL_DATE_TIME ( #51, #39 ) ;
#6 = ORIENTED_EDGE ( 'NONE', *, *, #226, .F. ) ;
#7 = ORIENTED_EDGE ( 'NONE', *, *, #34, .F. ) ;
#8 = AXIS2_PLACEMENT_3D ( 'NONE', #133, #197, #235 ) ;
#9 = PERSON_AND_ORGANIZATION ( #233, #232 ) ;
#10 = ORIENTED_EDGE ( 'NONE', *, *, #74, .T. ) ;
#11 = APPLICATION_CONTEXT ( 'configuration controlled 3d designs of mechanical parts and assemblies' ) ;
#12 = DATE_AND_TIME ( #170, #248 ) ;
#13 = ORIENTED_EDGE ( 'NONE', *, *, #74, .F. ) ;
#14 = CARTESIAN_POINT ( 'NONE',  ( -76.00000000000000000, 0.000000000000000000, -5.395248674426654809E-15 ) ) ;
#15 = DIRECTION ( 'NONE',  ( 1.000000000000000000, 0.000000000000000000, 7.099011413719282643E-17 ) ) ;
#16 = FACE_OUTER_BOUND ( 'NONE', #118, .T. ) ;
#17 = PRODUCT ( '3D_R1620_88.x2_173630150_173631140', '3D_R1620_88.x2_173630150_173631140', '', ( #20 ) ) ;
#18 = DIRECTION ( 'NONE',  ( 0.000000000000000000, 1.000000000000000000, 0.000000000000000000 ) ) ;
#19 = CARTESIAN_POINT ( 'NONE',  ( -2.355138688025666463E-13, 0.000000000000000000, -76.00000000000000000 ) ) ;
#20 = MECHANICAL_CONTEXT ( 'NONE', #63, 'mechanical' ) ;
#21 = DIRECTION ( 'NONE',  ( 0.000000000000000000, 1.000000000000000000, 0.000000000000000000 ) ) ;
#22 = CARTESIAN_POINT ( 'NONE',  ( 0.000000000000000000, 0.000000000000000000, 0.000000000000000000 ) ) ;
#23 = PERSON_AND_ORGANIZATION_ROLE ( 'classification_officer' ) ;
#24 = AXIS2_PLACEMENT_3D ( 'NONE', #252, #161, #122 ) ;
#25 = MANIFOLD_SOLID_BREP ( 'Wandung1', #123 ) ;
#26 = APPROVAL_ROLE ( '' ) ;
#27 = ORIENTED_EDGE ( 'NONE', *, *, #72, .F. ) ;
#28 = EDGE_LOOP ( 'NONE', ( #208, #40, #92, #27 ) ) ;
#29 = CC_DESIGN_APPROVAL ( #247, ( #218 ) ) ;
#30 = AXIS2_PLACEMENT_3D ( 'NONE', #216, #3, #62 ) ;
#31 = AXIS2_PLACEMENT_3D ( 'NONE', #119, #214, #117 ) ;
#32 = LOCAL_TIME ( 13, 9, 19.00000000000000000, #207 ) ;
#33 = SECURITY_CLASSIFICATION_LEVEL ( 'unclassified' ) ;
#34 = EDGE_CURVE ( 'NONE', #38, #108, #65, .T. ) ;
#35 = PLANE ( 'NONE',  #209 ) ;
#36 = PRODUCT_DEFINITION_SHAPE ( 'NONE', 'NONE',  #152 ) ;
#37 = FACE_BOUND ( 'NONE', #110, .T. ) ;
#38 = VERTEX_POINT ( 'NONE', #251 ) ;
#39 = APPROVAL ( #188, 'UNSPECIFIED' ) ;
#40 = ORIENTED_EDGE ( 'NONE', *, *, #34, .T. ) ;
#41 = EDGE_LOOP ( 'NONE', ( #148, #71, #10, #88 ) ) ;
#42 = DIRECTION ( 'NONE',  ( 1.000000000000000000, 0.000000000000000000, 0.000000000000000000 ) ) ;
#43 = APPROVAL_ROLE ( '' ) ;
#44 = CC_DESIGN_SECURITY_CLASSIFICATION ( #218, ( #177 ) ) ;
#45 = AXIS2_PLACEMENT_3D ( 'NONE', #215, #18, #100 ) ;
#46 = AXIS2_PLACEMENT_3D ( 'NONE', #178, #173, #80 ) ;
#47 = CARTESIAN_POINT ( 'NONE',  ( -2.269481439667134153E-13, 0.000000000000000000, -76.00000000000000000 ) ) ;
#48 = ADVANCED_FACE ( 'NONE', ( #172 ), #157, .T. ) ;
#49 = PERSON_AND_ORGANIZATION_ROLE ( 'creator' ) ;
#50 = VERTEX_POINT ( 'NONE', #212 ) ;
#51 = DATE_AND_TIME ( #129, #32 ) ;
#52 = LOCAL_TIME ( 13, 9, 19.00000000000000000, #124 ) ;
#53 = EDGE_CURVE ( 'NONE', #187, #194, #190, .T. ) ;
#54 = DIRECTION ( 'NONE',  ( 0.000000000000000000, 1.000000000000000000, 0.000000000000000000 ) ) ;
#55 = DIRECTION ( 'NONE',  ( -1.000000000000000000, 0.000000000000000000, 3.098866694770613061E-15 ) ) ;
#56 = AXIS2_PLACEMENT_3D ( 'NONE', #22, #240, #42 ) ;
#57 = ORIENTED_EDGE ( 'NONE', *, *, #168, .T. ) ;
#58 = FACE_OUTER_BOUND ( 'NONE', #115, .T. ) ;
#59 = VERTEX_POINT ( 'NONE', #228 ) ;
#60 = CIRCLE ( 'NONE', #145, 44.45000000000000284 ) ;
#61 = DIRECTION ( 'NONE',  ( 3.098866694770613061E-15, 0.000000000000000000, 1.000000000000000000 ) ) ;
#62 = DIRECTION ( 'NONE',  ( 1.000000000000000000, 0.000000000000000000, 7.099011413719282643E-17 ) ) ;
#63 = APPLICATION_CONTEXT ( 'configuration controlled 3d designs of mechanical parts and assemblies' ) ;
#64 = DIRECTION ( 'NONE',  ( -1.000000000000000000, 0.000000000000000000, 3.098866694770613455E-15 ) ) ;
#65 = CIRCLE ( 'NONE', #8, 120.4500000000000028 ) ;
#66 = APPLICATION_PROTOCOL_DEFINITION ( 'international standard', 'config_control_design', 1994, #63 ) ;
#67 = DATE_AND_TIME ( #241, #158 ) ;
#68 = CIRCLE ( 'NONE', #99, 33.84999999999999432 ) ;
#69 = PERSON_AND_ORGANIZATION ( #233, #232 ) ;
#70 = ORIENTED_EDGE ( 'NONE', *, *, #226, .T. ) ;
#71 = ORIENTED_EDGE ( 'NONE', *, *, #53, .T. ) ;
#72 = EDGE_CURVE ( 'NONE', #242, #50, #220, .T. ) ;
#73 = CARTESIAN_POINT ( 'NONE',  ( -76.00000000000000000, 0.000000000000000000, -1.396097351027987000E-14 ) ) ;
#74 = EDGE_CURVE ( 'NONE', #194, #59, #140, .T. ) ;
#75 = DIRECTION ( 'NONE',  ( -1.000000000000000000, 0.000000000000000000, 3.098866694770613455E-15 ) ) ;
#76 = LOCAL_TIME ( 13, 9, 19.00000000000000000, #86 ) ;
#77 = AXIS2_PLACEMENT_3D ( 'NONE', #121, #75, #61 ) ;
#78 = AXIS2_PLACEMENT_3D ( 'NONE', #246, #151, #155 ) ;
#79 = APPROVAL_PERSON_ORGANIZATION ( #142, #107, #43 ) ;
#80 = DIRECTION ( 'NONE',  ( 0.000000000000000000, 0.000000000000000000, 1.000000000000000000 ) ) ;
#81 = DIRECTION ( 'NONE',  ( 1.000000000000000000, 0.000000000000000000, 7.099011413719282643E-17 ) ) ;
#82 = DIRECTION ( 'NONE',  ( 3.098866694770613061E-15, 0.000000000000000000, 1.000000000000000000 ) ) ;
#83 = DIRECTION ( 'NONE',  ( 0.000000000000000000, 1.000000000000000000, 0.000000000000000000 ) ) ;
#84 = PERSON_AND_ORGANIZATION_ROLE ( 'design_supplier' ) ;
#85 = EDGE_LOOP ( 'NONE', ( #198, #6 ) ) ;
#86 = COORDINATED_UNIVERSAL_TIME_OFFSET ( 1, 0, .AHEAD. ) ;
#87 = ORIENTED_EDGE ( 'NONE', *, *, #143, .T. ) ;
#88 = ORIENTED_EDGE ( 'NONE', *, *, #230, .F. ) ;
#89 = AXIS2_PLACEMENT_3D ( 'NONE', #138, #141, #179 ) ;
#90 = CC_DESIGN_APPROVAL ( #107, ( #152 ) ) ;
#91 = APPROVAL_STATUS ( 'not_yet_approved' ) ;
#92 = ORIENTED_EDGE ( 'NONE', *, *, #143, .F. ) ;
#93 = ADVANCED_FACE ( 'NONE', ( #134, #16 ), #35, .T. ) ;
#94 = ORIENTED_EDGE ( 'NONE', *, *, #230, .T. ) ;
#95 = ORIENTED_EDGE ( 'NONE', *, *, #132, .T. ) ;
#96 = DIRECTION ( 'NONE',  ( 1.000000000000000000, 0.000000000000000000, 7.099011413719283875E-17 ) ) ;
#97 = CC_DESIGN_PERSON_AND_ORGANIZATION_ASSIGNMENT ( #244, #147, ( #177 ) ) ;
#98 = CARTESIAN_POINT ( 'NONE',  ( -1.048966376179852454E-13, 0.000000000000000000, -33.84999999999999432 ) ) ;
#99 = AXIS2_PLACEMENT_3D ( 'NONE', #203, #83, #180 ) ;
#100 = DIRECTION ( 'NONE',  ( 0.000000000000000000, 0.000000000000000000, 1.000000000000000000 ) ) ;
#101 = CC_DESIGN_PERSON_AND_ORGANIZATION_ASSIGNMENT ( #1, #49, ( #152 ) ) ;
#102 =( LENGTH_UNIT ( ) NAMED_UNIT ( * ) SI_UNIT ( .MILLI., .METRE. ) );
#103 = PERSON_AND_ORGANIZATION_ROLE ( 'design_owner' ) ;
#104 = CC_DESIGN_DATE_AND_TIME_ASSIGNMENT ( #67, #128, ( #152 ) ) ;
#105 = DATE_AND_TIME ( #224, #52 ) ;
#106 = APPLICATION_PROTOCOL_DEFINITION ( 'international standard', 'config_control_design', 1994, #11 ) ;
#107 = APPROVAL ( #237, 'UNSPECIFIED' ) ;
#108 = VERTEX_POINT ( 'NONE', #196 ) ;
#109 = APPROVAL_DATE_TIME ( #12, #247 ) ;
#110 = EDGE_LOOP ( 'NONE', ( #57, #231 ) ) ;
#111 = ORIENTED_EDGE ( 'NONE', *, *, #72, .T. ) ;
#112 = AXIS2_PLACEMENT_3D ( 'NONE', #195, #54, #210 ) ;
#113 = AXIS2_PLACEMENT_3D ( 'NONE', #19, #64, #167 ) ;
#114 = DATE_TIME_ROLE ( 'classification_date' ) ;
#115 = EDGE_LOOP ( 'NONE', ( #160, #245, #94, #95 ) ) ;
#116 = AXIS2_PLACEMENT_3D ( 'NONE', #14, #175, #15 ) ;
#117 = DIRECTION ( 'NONE',  ( 1.000000000000000000, 0.000000000000000000, 7.099011413719282643E-17 ) ) ;
#118 = EDGE_LOOP ( 'NONE', ( #87, #130 ) ) ;
#119 = CARTESIAN_POINT ( 'NONE',  ( -76.00000000000000000, 0.000000000000000000, -5.395248674426654809E-15 ) ) ;
#120 = CC_DESIGN_PERSON_AND_ORGANIZATION_ASSIGNMENT ( #69, #84, ( #177 ) ) ;
#121 = CARTESIAN_POINT ( 'NONE',  ( -2.269481439667134153E-13, 0.000000000000000000, -76.00000000000000000 ) ) ;
#122 = DIRECTION ( 'NONE',  ( 0.000000000000000000, 0.000000000000000000, 1.000000000000000000 ) ) ;
#123 = CLOSED_SHELL ( 'NONE', ( #199, #48, #193, #93, #146, #153 ) ) ;
#124 = COORDINATED_UNIVERSAL_TIME_OFFSET ( 1, 0, .AHEAD. ) ;
#125 = CARTESIAN_POINT ( 'NONE',  ( -118.1500000000000057, 0.000000000000000000, -8.387481985309332088E-15 ) ) ;
#126 = APPROVAL_ROLE ( '' ) ;
#127 = ORIENTED_EDGE ( 'NONE', *, *, #132, .F. ) ;
#128 = DATE_TIME_ROLE ( 'creation_date' ) ;
#129 = CALENDAR_DATE ( 2024, 27, 8 ) ;
#130 = ORIENTED_EDGE ( 'NONE', *, *, #181, .T. ) ;
#131 = VERTEX_POINT ( 'NONE', #98 ) ;
#132 = EDGE_CURVE ( 'NONE', #59, #194, #225, .T. ) ;
#133 = CARTESIAN_POINT ( 'NONE',  ( 0.000000000000000000, 0.000000000000000000, 0.000000000000000000 ) ) ;
#134 = FACE_BOUND ( 'NONE', #213, .T. ) ;
#135 = CARTESIAN_POINT ( 'NONE',  ( -76.00000000000000000, 0.000000000000000000, -1.396097351027987000E-14 ) ) ;
#136 = DIRECTION ( 'NONE',  ( 3.098866694770613061E-15, 0.000000000000000000, 1.000000000000000000 ) ) ;
#137 = CARTESIAN_POINT ( 'NONE',  ( -3.661310999871479587E-13, 0.000000000000000000, -118.1500000000000057 ) ) ;
#138 = CARTESIAN_POINT ( 'NONE',  ( -2.355138688025666463E-13, 0.000000000000000000, -76.00000000000000000 ) ) ;
#139 = CIRCLE ( 'NONE', #89, 42.15000000000000568 ) ;
#140 = CIRCLE ( 'NONE', #31, 42.15000000000000568 ) ;
#141 = DIRECTION ( 'NONE',  ( -1.000000000000000000, 0.000000000000000000, 3.098866694770613455E-15 ) ) ;
#142 = PERSON_AND_ORGANIZATION ( #233, #232 ) ;
#143 = EDGE_CURVE ( 'NONE', #50, #108, #182, .T. ) ;
#144 = CALENDAR_DATE ( 2024, 27, 8 ) ;
#145 = AXIS2_PLACEMENT_3D ( 'NONE', #47, #166, #82 ) ;
#146 = ADVANCED_FACE ( 'NONE', ( #37, #154 ), #159, .F. ) ;
#147 = PERSON_AND_ORGANIZATION_ROLE ( 'creator' ) ;
#148 = ORIENTED_EDGE ( 'NONE', *, *, #243, .F. ) ;
#149 = PERSON_AND_ORGANIZATION ( #233, #232 ) ;
#150 = CIRCLE ( 'NONE', #30, 44.45000000000000284 ) ;
#151 = DIRECTION ( 'NONE',  ( 0.000000000000000000, 1.000000000000000000, 0.000000000000000000 ) ) ;
#152 = PRODUCT_DEFINITION ( 'UNKNOWN', '', #177, #223 ) ;
#153 = ADVANCED_FACE ( 'NONE', ( #58 ), #219, .F. ) ;
#154 = FACE_OUTER_BOUND ( 'NONE', #85, .T. ) ;
#155 = DIRECTION ( 'NONE',  ( 0.000000000000000000, 0.000000000000000000, 1.000000000000000000 ) ) ;
#156 = CC_DESIGN_APPROVAL ( #39, ( #177 ) ) ;
#157 = TOROIDAL_SURFACE ( 'NONE', #46, 76.00000000000000000, 44.45000000000000284 ) ;
#158 = LOCAL_TIME ( 13, 9, 19.00000000000000000, #205 ) ;
#159 = PLANE ( 'NONE',  #201 ) ;
#160 = ORIENTED_EDGE ( 'NONE', *, *, #53, .F. ) ;
#161 = DIRECTION ( 'NONE',  ( 0.000000000000000000, 1.000000000000000000, 0.000000000000000000 ) ) ;
#162 = AXIS2_PLACEMENT_3D ( 'NONE', #73, #249, #81 ) ;
#163 =( NAMED_UNIT ( * ) SI_UNIT ( $, .STERADIAN. ) SOLID_ANGLE_UNIT ( ) );
#164 = CC_DESIGN_PERSON_AND_ORGANIZATION_ASSIGNMENT ( #9, #23, ( #218 ) ) ;
#165 = EDGE_CURVE ( 'NONE', #242, #38, #189, .T. ) ;
#166 = DIRECTION ( 'NONE',  ( -1.000000000000000000, 0.000000000000000000, 3.098866694770613455E-15 ) ) ;
#167 = DIRECTION ( 'NONE',  ( 3.098866694770613850E-15, 0.000000000000000000, 1.000000000000000000 ) ) ;
#168 = EDGE_CURVE ( 'NONE', #131, #187, #139, .T. ) ;
#169 = FACE_OUTER_BOUND ( 'NONE', #191, .T. ) ;
#170 = CALENDAR_DATE ( 2024, 27, 8 ) ;
#171 = ADVANCED_BREP_SHAPE_REPRESENTATION ( '3D_R1620_88.x2_173630150_173631140', ( #25, #56 ), #202 ) ;
#172 = FACE_OUTER_BOUND ( 'NONE', #28, .T. ) ;
#173 = DIRECTION ( 'NONE',  ( 0.000000000000000000, 1.000000000000000000, 0.000000000000000000 ) ) ;
#174 = ORIENTED_EDGE ( 'NONE', *, *, #181, .F. ) ;
#175 = DIRECTION ( 'NONE',  ( -7.099011413719282643E-17, 0.000000000000000000, 1.000000000000000000 ) ) ;
#176 = AXIS2_PLACEMENT_3D ( 'NONE', #253, #21, #200 ) ;
#177 = PRODUCT_DEFINITION_FORMATION_WITH_SPECIFIED_SOURCE ( 'ANY', '', #17, .NOT_KNOWN. ) ;
#178 = CARTESIAN_POINT ( 'NONE',  ( 0.000000000000000000, 0.000000000000000000, 0.000000000000000000 ) ) ;
#179 = DIRECTION ( 'NONE',  ( 3.098866694770613850E-15, 0.000000000000000000, 1.000000000000000000 ) ) ;
#180 = DIRECTION ( 'NONE',  ( 0.000000000000000000, 0.000000000000000000, 1.000000000000000000 ) ) ;
#181 = EDGE_CURVE ( 'NONE', #108, #50, #150, .T. ) ;
#182 = CIRCLE ( 'NONE', #162, 44.45000000000000284 ) ;
#183 = APPROVAL_DATE_TIME ( #105, #107 ) ;
#184 = CC_DESIGN_DATE_AND_TIME_ASSIGNMENT ( #227, #114, ( #218 ) ) ;
#185 = TOROIDAL_SURFACE ( 'NONE', #176, 76.00000000000000000, 44.45000000000000284 ) ;
#186 = PERSON_AND_ORGANIZATION ( #233, #232 ) ;
#187 = VERTEX_POINT ( 'NONE', #137 ) ;
#188 = APPROVAL_STATUS ( 'not_yet_approved' ) ;
#189 = CIRCLE ( 'NONE', #77, 44.45000000000000284 ) ;
#190 = CIRCLE ( 'NONE', #78, 118.1500000000000057 ) ;
#191 = EDGE_LOOP ( 'NONE', ( #7, #70, #111, #174 ) ) ;
#192 = SHAPE_DEFINITION_REPRESENTATION ( #36, #171 ) ;
#193 = ADVANCED_FACE ( 'NONE', ( #169 ), #185, .T. ) ;
#194 = VERTEX_POINT ( 'NONE', #125 ) ;
#195 = CARTESIAN_POINT ( 'NONE',  ( 0.000000000000000000, -5.443555022209985697E-15, 0.000000000000000000 ) ) ;
#196 = CARTESIAN_POINT ( 'NONE',  ( -120.4500000000000028, 0.000000000000000000, -1.711648408367809165E-14 ) ) ;
#197 = DIRECTION ( 'NONE',  ( 0.000000000000000000, 1.000000000000000000, 0.000000000000000000 ) ) ;
#198 = ORIENTED_EDGE ( 'NONE', *, *, #165, .F. ) ;
#199 = ADVANCED_FACE ( 'NONE', ( #222 ), #211, .F. ) ;
#200 = DIRECTION ( 'NONE',  ( 0.000000000000000000, 0.000000000000000000, 1.000000000000000000 ) ) ;
#201 = AXIS2_PLACEMENT_3D ( 'NONE', #229, #55, #136 ) ;
#202 =( GEOMETRIC_REPRESENTATION_CONTEXT ( 3 ) GLOBAL_UNCERTAINTY_ASSIGNED_CONTEXT ( ( #2 ) ) GLOBAL_UNIT_ASSIGNED_CONTEXT ( ( #102, #204, #163 ) ) REPRESENTATION_CONTEXT ( 'NONE', 'WORKASPACE' ) );
#203 = CARTESIAN_POINT ( 'NONE',  ( 0.000000000000000000, -5.161886258406094541E-15, 0.000000000000000000 ) ) ;
#204 =( NAMED_UNIT ( * ) PLANE_ANGLE_UNIT ( ) SI_UNIT ( $, .RADIAN. ) );
#205 = COORDINATED_UNIVERSAL_TIME_OFFSET ( 1, 0, .AHEAD. ) ;
#206 = CC_DESIGN_PERSON_AND_ORGANIZATION_ASSIGNMENT ( #217, #103, ( #17 ) ) ;
#207 = COORDINATED_UNIVERSAL_TIME_OFFSET ( 1, 0, .AHEAD. ) ;
#208 = ORIENTED_EDGE ( 'NONE', *, *, #165, .T. ) ;
#209 = AXIS2_PLACEMENT_3D ( 'NONE', #135, #234, #96 ) ;
#210 = DIRECTION ( 'NONE',  ( 0.000000000000000000, 0.000000000000000000, 1.000000000000000000 ) ) ;
#211 = TOROIDAL_SURFACE ( 'NONE', #24, 76.00000000000000000, 42.15000000000000568 ) ;
#212 = CARTESIAN_POINT ( 'NONE',  ( -31.54999999999999361, 0.000000000000000000, -1.080546293688164835E-14 ) ) ;
#213 = EDGE_LOOP ( 'NONE', ( #127, #13 ) ) ;
#214 = DIRECTION ( 'NONE',  ( -7.099011413719282643E-17, 0.000000000000000000, 1.000000000000000000 ) ) ;
#215 = CARTESIAN_POINT ( 'NONE',  ( 0.000000000000000000, 0.000000000000000000, 0.000000000000000000 ) ) ;
#216 = CARTESIAN_POINT ( 'NONE',  ( -76.00000000000000000, 0.000000000000000000, -1.396097351027987000E-14 ) ) ;
#217 = PERSON_AND_ORGANIZATION ( #233, #232 ) ;
#218 = SECURITY_CLASSIFICATION ( '', '', #33 ) ;
#219 = TOROIDAL_SURFACE ( 'NONE', #45, 76.00000000000000000, 42.15000000000000568 ) ;
#220 = CIRCLE ( 'NONE', #112, 31.54999999999999361 ) ;
#221 = APPROVAL_PERSON_ORGANIZATION ( #186, #39, #126 ) ;
#222 = FACE_OUTER_BOUND ( 'NONE', #41, .T. ) ;
#223 = DESIGN_CONTEXT ( 'detailed design', #11, 'design' ) ;
#224 = CALENDAR_DATE ( 2024, 27, 8 ) ;
#225 = CIRCLE ( 'NONE', #116, 42.15000000000000568 ) ;
#226 = EDGE_CURVE ( 'NONE', #38, #242, #60, .T. ) ;
#227 = DATE_AND_TIME ( #144, #76 ) ;
#228 = CARTESIAN_POINT ( 'NONE',  ( -33.84999999999999432, 0.000000000000000000, -2.403015363543976346E-15 ) ) ;
#229 = CARTESIAN_POINT ( 'NONE',  ( -2.269481439667134153E-13, 0.000000000000000000, -76.00000000000000000 ) ) ;
#230 = EDGE_CURVE ( 'NONE', #131, #59, #68, .T. ) ;
#231 = ORIENTED_EDGE ( 'NONE', *, *, #243, .T. ) ;
#232 = ORGANIZATION ( 'UNSPECIFIED', 'UNSPECIFIED', '' ) ;
#233 = PERSON ( 'UNSPECIFIED', 'UNSPECIFIED', 'UNSPECIFIED', ('UNSPECIFIED'), ('UNSPECIFIED'), ('UNSPECIFIED') ) ;
#234 = DIRECTION ( 'NONE',  ( -7.099011413719283875E-17, 0.000000000000000000, 1.000000000000000000 ) ) ;
#235 = DIRECTION ( 'NONE',  ( 0.000000000000000000, 0.000000000000000000, 1.000000000000000000 ) ) ;
#236 = CARTESIAN_POINT ( 'NONE',  ( -8.920351938415964001E-14, 0.000000000000000000, -31.54999999999999361 ) ) ;
#237 = APPROVAL_STATUS ( 'not_yet_approved' ) ;
#238 = APPROVAL_PERSON_ORGANIZATION ( #149, #247, #26 ) ;
#239 = CIRCLE ( 'NONE', #113, 42.15000000000000568 ) ;
#240 = DIRECTION ( 'NONE',  ( 0.000000000000000000, 0.000000000000000000, 1.000000000000000000 ) ) ;
#241 = CALENDAR_DATE ( 2024, 27, 8 ) ;
#242 = VERTEX_POINT ( 'NONE', #236 ) ;
#243 = EDGE_CURVE ( 'NONE', #187, #131, #239, .T. ) ;
#244 = PERSON_AND_ORGANIZATION ( #233, #232 ) ;
#245 = ORIENTED_EDGE ( 'NONE', *, *, #168, .F. ) ;
#246 = CARTESIAN_POINT ( 'NONE',  ( 0.000000000000000000, 0.000000000000000000, 0.000000000000000000 ) ) ;
#247 = APPROVAL ( #91, 'UNSPECIFIED' ) ;
#248 = LOCAL_TIME ( 13, 9, 19.00000000000000000, #4 ) ;
#249 = DIRECTION ( 'NONE',  ( -7.099011413719282643E-17, 0.000000000000000000, 1.000000000000000000 ) ) ;
#250 = PRODUCT_RELATED_PRODUCT_CATEGORY ( 'detail', '', ( #17 ) ) ;
#251 = CARTESIAN_POINT ( 'NONE',  ( -3.646927685492671527E-13, 0.000000000000000000, -120.4500000000000028 ) ) ;
#252 = CARTESIAN_POINT ( 'NONE',  ( 0.000000000000000000, 0.000000000000000000, 0.000000000000000000 ) ) ;
#253 = CARTESIAN_POINT ( 'NONE',  ( 0.000000000000000000, 0.000000000000000000, 0.000000000000000000 ) ) ;
ENDSEC;
END-ISO-10303-21;
